ISO-10303-21;
HEADER;
FILE_DESCRIPTION (( 'STEP AP203' ),
    '1' );
FILE_NAME ('961182.step',
    '2023-09-27T08:31:44',
    ( '' ),
    ( '' ),
    'SwSTEP 2.0',
    'SolidWorks 2022',
    '' );
FILE_SCHEMA (( 'CONFIG_CONTROL_DESIGN' ));
ENDSEC;

DATA;
#1 = FACE_OUTER_BOUND ( 'NONE', #392, .T. ) ;
#2 =( NAMED_UNIT ( * ) PLANE_ANGLE_UNIT ( ) SI_UNIT ( $, .RADIAN. ) );
#3 = DIRECTION ( 'NONE',  ( 3.491481338843133355E-15, -0.000000000000000000, 1.000000000000000000 ) ) ;
#4 = CARTESIAN_POINT ( 'NONE',  ( 2.115425363140279297E-14, 0.000000000000000000, 6.058819045102511680 ) ) ;
#5 = CLOSED_SHELL ( 'NONE', ( #192, #212, #110, #201, #333, #136, #166, #125, #13, #391, #361, #176, #38, #196, #147, #302 ) ) ;
#6 = DIRECTION ( 'NONE',  ( 1.000000000000000000, 0.000000000000000000, -3.497426362856466501E-15 ) ) ;
#7 = SECURITY_CLASSIFICATION ( '', '', #316 ) ;
#8 = EDGE_CURVE ( 'NONE', #71, #71, #233, .T. ) ;
#9 = CARTESIAN_POINT ( 'NONE',  ( 1.326762908760390423E-13, 0.000000000000000000, 38.00000000000000000 ) ) ;
#10 = DATE_AND_TIME ( #350, #34 ) ;
#11 = FACE_BOUND ( 'NONE', #265, .T. ) ;
#12 = DATE_AND_TIME ( #134, #16 ) ;
#13 = ADVANCED_FACE ( 'NONE', ( #198, #260 ), #386, .T. ) ;
#14 = CARTESIAN_POINT ( 'NONE',  ( 0.6490741737109503307, 0.000000000000000000, 6.058819045102509016 ) ) ;
#15 = AXIS2_PLACEMENT_3D ( 'NONE', #95, #167, #275 ) ;
#16 = LOCAL_TIME ( 10, 31, 44.00000000000000000, #278 ) ;
#17 = CARTESIAN_POINT ( 'NONE',  ( 0.6150000000000197531, 0.000000000000000000, 5.799999999999998046 ) ) ;
#18 = DIRECTION ( 'NONE',  ( 1.000000000000000000, 0.000000000000000000, -2.820688578824079312E-15 ) ) ;
#19 = APPROVAL_DATE_TIME ( #284, #74 ) ;
#20 = CYLINDRICAL_SURFACE ( 'NONE', #15, 0.6149999999999996581 ) ;
#21 = DIRECTION ( 'NONE',  ( 1.000000000000000000, 0.000000000000000000, 0.000000000000000000 ) ) ;
#22 = AXIS2_PLACEMENT_3D ( 'NONE', #377, #195, #371 ) ;
#23 = CIRCLE ( 'NONE', #79, 1.499999999999996447 ) ;
#24 = VERTEX_POINT ( 'NONE', #143 ) ;
#25 = EDGE_LOOP ( 'NONE', ( #81 ) ) ;
#26 = CARTESIAN_POINT ( 'NONE',  ( 1.500000000000032419, 0.000000000000000000, 9.234517462285930733 ) ) ;
#27 = PRODUCT_DEFINITION ( 'UNKNOWN', '', #356, #155 ) ;
#28 = EDGE_LOOP ( 'NONE', ( #237 ) ) ;
#29 = AXIS2_PLACEMENT_3D ( 'NONE', #183, #213, #268 ) ;
#30 = CARTESIAN_POINT ( 'NONE',  ( 0.6150000000000014344, 0.000000000000000000, 0.3999999999999954148 ) ) ;
#31 = ORIENTED_EDGE ( 'NONE', *, *, #379, .T. ) ;
#32 = DIRECTION ( 'NONE',  ( 1.000000000000000000, 0.000000000000000000, -3.497426362856465713E-15 ) ) ;
#33 = FACE_BOUND ( 'NONE', #78, .T. ) ;
#34 = LOCAL_TIME ( 10, 31, 44.00000000000000000, #131 ) ;
#35 = DIRECTION ( 'NONE',  ( 1.000000000000000000, 0.000000000000000000, -3.493290380427282508E-15 ) ) ;
#36 = DIRECTION ( 'NONE',  ( -1.000000000000000000, 0.000000000000000000, 4.625929269271496366E-15 ) ) ;
#37 = CARTESIAN_POINT ( 'NONE',  ( 1.326762908760390423E-13, 0.000000000000000000, 38.00000000000000000 ) ) ;
#38 = ADVANCED_FACE ( 'NONE', ( #49, #263 ), #177, .T. ) ;
#39 = CIRCLE ( 'NONE', #327, 0.6162286759728522467 ) ;
#40 = DIRECTION ( 'NONE',  ( 1.000000000000000000, 0.000000000000000000, -4.625929269271490844E-15 ) ) ;
#41 = DIRECTION ( 'NONE',  ( 3.491481338843133355E-15, -0.000000000000000000, 1.000000000000000000 ) ) ;
#42 = DIRECTION ( 'NONE',  ( -1.000000000000000000, 0.000000000000000000, 3.491481338843133355E-15 ) ) ;
#43 = APPLICATION_PROTOCOL_DEFINITION ( 'international standard', 'config_control_design', 1994, #299 ) ;
#44 = FACE_OUTER_BOUND ( 'NONE', #234, .T. ) ;
#45 = CONICAL_SURFACE ( 'NONE', #144, 1.499999999999996447, 0.7853981633974501664 ) ;
#46 = CC_DESIGN_APPROVAL ( #74, ( #27 ) ) ;
#47 = DIRECTION ( 'NONE',  ( 3.491481338843133355E-15, -0.000000000000000000, 1.000000000000000000 ) ) ;
#48 = EDGE_LOOP ( 'NONE', ( #116 ) ) ;
#49 = FACE_OUTER_BOUND ( 'NONE', #96, .T. ) ;
#50 = EDGE_LOOP ( 'NONE', ( #378 ) ) ;
#51 = EDGE_LOOP ( 'NONE', ( #291 ) ) ;
#52 = AXIS2_PLACEMENT_3D ( 'NONE', #149, #123, #270 ) ;
#53 = APPROVAL_PERSON_ORGANIZATION ( #112, #308, #232 ) ;
#54 = ORIENTED_EDGE ( 'NONE', *, *, #262, .T. ) ;
#55 = EDGE_CURVE ( 'NONE', #279, #279, #107, .T. ) ;
#56 = SHAPE_DEFINITION_REPRESENTATION ( #119, #171 ) ;
#57 = CARTESIAN_POINT ( 'NONE',  ( 7.855833012397154573E-16, 0.000000000000000000, 0.2250000000000029754 ) ) ;
#58 = DIRECTION ( 'NONE',  ( 3.491481338843133355E-15, -0.000000000000000000, 1.000000000000000000 ) ) ;
#59 = CC_DESIGN_APPROVAL ( #158, ( #356 ) ) ;
#60 = CARTESIAN_POINT ( 'NONE',  ( -3.286326320609396215E-34, 0.000000000000000000, -9.412412674381604406E-20 ) ) ;
#61 = VERTEX_POINT ( 'NONE', #209 ) ;
#62 = CARTESIAN_POINT ( 'NONE',  ( 0.000000000000000000, 0.000000000000000000, 0.000000000000000000 ) ) ;
#63 = DIRECTION ( 'NONE',  ( 1.000000000000000000, 0.000000000000000000, 0.000000000000000000 ) ) ;
#64 = VERTEX_POINT ( 'NONE', #156 ) ;
#65 = CONICAL_SURFACE ( 'NONE', #121, 0.6162286759728522467, 1.047197551196614285 ) ;
#66 = DIRECTION ( 'NONE',  ( 3.491481338843133355E-15, -0.000000000000000000, 1.000000000000000000 ) ) ;
#67 = ORIENTED_EDGE ( 'NONE', *, *, #104, .F. ) ;
#68 = EDGE_CURVE ( 'NONE', #193, #193, #224, .T. ) ;
#69 = CARTESIAN_POINT ( 'NONE',  ( 1.326762908760390423E-13, 1.199999999999993516, 38.00000000000000000 ) ) ;
#70 = EDGE_LOOP ( 'NONE', ( #180 ) ) ;
#71 = VERTEX_POINT ( 'NONE', #163 ) ;
#72 = DIRECTION ( 'NONE',  ( 1.000000000000000000, 0.000000000000000000, -3.491481338843133750E-15 ) ) ;
#73 = AXIS2_PLACEMENT_3D ( 'NONE', #142, #108, #321 ) ;
#74 = APPROVAL ( #318, 'UNSPECIFIED' ) ;
#75 = FACE_OUTER_BOUND ( 'NONE', #319, .T. ) ;
#76 = ORIENTED_EDGE ( 'NONE', *, *, #219, .T. ) ;
#77 = CIRCLE ( 'NONE', #215, 0.7750000000000000222 ) ;
#78 = EDGE_LOOP ( 'NONE', ( #288 ) ) ;
#79 = AXIS2_PLACEMENT_3D ( 'NONE', #343, #66, #220 ) ;
#80 = EDGE_CURVE ( 'NONE', #385, #385, #97, .T. ) ;
#81 = ORIENTED_EDGE ( 'NONE', *, *, #340, .T. ) ;
#82 = ORIENTED_EDGE ( 'NONE', *, *, #104, .T. ) ;
#83 = ORIENTED_EDGE ( 'NONE', *, *, #272, .T. ) ;
#84 = DIRECTION ( 'NONE',  ( 1.000000000000000000, 0.000000000000000000, -4.008918116535741014E-15 ) ) ;
#85 = FACE_OUTER_BOUND ( 'NONE', #200, .T. ) ;
#86 = DIRECTION ( 'NONE',  ( 3.491481338843133355E-15, -0.000000000000000000, 1.000000000000000000 ) ) ;
#87 = DATE_AND_TIME ( #211, #282 ) ;
#88 = EDGE_CURVE ( 'NONE', #24, #24, #348, .T. ) ;
#89 = AXIS2_PLACEMENT_3D ( 'NONE', #341, #393, #306 ) ;
#90 = CARTESIAN_POINT ( 'NONE',  ( 0.7750000000000007994, 0.000000000000000000, 0.2916666666666665186 ) ) ;
#91 = AXIS2_PLACEMENT_3D ( 'NONE', #373, #254, #382 ) ;
#92 = APPROVAL_PERSON_ORGANIZATION ( #281, #74, #216 ) ;
#93 = FACE_OUTER_BOUND ( 'NONE', #28, .T. ) ;
#94 = DIRECTION ( 'NONE',  ( 3.491481338843133355E-15, -0.000000000000000000, 1.000000000000000000 ) ) ;
#95 = CARTESIAN_POINT ( 'NONE',  ( 1.326762908760390423E-13, 0.000000000000000000, 38.00000000000000000 ) ) ;
#96 = EDGE_LOOP ( 'NONE', ( #293 ) ) ;
#97 = CIRCLE ( 'NONE', #89, 0.6595299461620740544 ) ;
#98 = AXIS2_PLACEMENT_3D ( 'NONE', #170, #221, #21 ) ;
#99 = DIRECTION ( 'NONE',  ( 3.491481338843133355E-15, -0.000000000000000000, 1.000000000000000000 ) ) ;
#100 = PERSON_AND_ORGANIZATION_ROLE ( 'design_supplier' ) ;
#101 = DIRECTION ( 'NONE',  ( 3.491481338843133355E-15, -0.000000000000000000, 1.000000000000000000 ) ) ;
#102 = CARTESIAN_POINT ( 'NONE',  ( 1.326762908760390423E-13, 0.000000000000000000, 38.00000000000000000 ) ) ;
#103 = CALENDAR_DATE ( 2023, 27, 9 ) ;
#104 = EDGE_CURVE ( 'NONE', #359, #359, #39, .T. ) ;
#105 = AXIS2_PLACEMENT_3D ( 'NONE', #37, #330, #370 ) ;
#106 = FACE_BOUND ( 'NONE', #114, .T. ) ;
#107 = CIRCLE ( 'NONE', #239, 0.6490741737109292364 ) ;
#108 = DIRECTION ( 'NONE',  ( 3.491481338843133355E-15, -0.000000000000000000, 1.000000000000000000 ) ) ;
#109 = CARTESIAN_POINT ( 'NONE',  ( 0.7750000000000002442, 0.000000000000000000, 0.1083333333333325738 ) ) ;
#110 = ADVANCED_FACE ( 'NONE', ( #126, #243 ), #305, .T. ) ;
#111 = EDGE_LOOP ( 'NONE', ( #67 ) ) ;
#112 = PERSON_AND_ORGANIZATION ( #173, #245 ) ;
#113 = CARTESIAN_POINT ( 'NONE',  ( 0.6162286759728522467, 0.000000000000000000, -2.151550922619225929E-15 ) ) ;
#114 = EDGE_LOOP ( 'NONE', ( #202 ) ) ;
#115 = CALENDAR_DATE ( 2023, 27, 9 ) ;
#116 = ORIENTED_EDGE ( 'NONE', *, *, #8, .F. ) ;
#117 = CARTESIAN_POINT ( 'NONE',  ( 0.6595299461620753867, 0.000000000000000000, 0.3749999999999980571 ) ) ;
#118 = ORIENTED_EDGE ( 'NONE', *, *, #68, .F. ) ;
#119 = PRODUCT_DEFINITION_SHAPE ( 'NONE', 'NONE',  #27 ) ;
#120 = DIRECTION ( 'NONE',  ( 1.000000000000000000, 0.000000000000000000, -3.525860723530095688E-15 ) ) ;
#121 = AXIS2_PLACEMENT_3D ( 'NONE', #283, #99, #72 ) ;
#122 = AXIS2_PLACEMENT_3D ( 'NONE', #102, #47, #129 ) ;
#123 = DIRECTION ( 'NONE',  ( 3.491481338843133355E-15, -0.000000000000000000, 1.000000000000000000 ) ) ;
#124 = PLANE ( 'NONE',  #194 ) ;
#125 = ADVANCED_FACE ( 'NONE', ( #33, #208 ), #315, .T. ) ;
#126 = FACE_OUTER_BOUND ( 'NONE', #296, .T. ) ;
#127 = CARTESIAN_POINT ( 'NONE',  ( 1.200000000000126299, 0.000000000000000000, 37.99999999999999289 ) ) ;
#128 = DIRECTION ( 'NONE',  ( 3.491481338843133355E-15, -0.000000000000000000, 1.000000000000000000 ) ) ;
#129 = DIRECTION ( 'NONE',  ( 1.000000000000000000, 0.000000000000000000, 0.000000000000000000 ) ) ;
#130 = PLANE ( 'NONE',  #152 ) ;
#131 = COORDINATED_UNIVERSAL_TIME_OFFSET ( 1, 0, .AHEAD. ) ;
#132 = AXIS2_PLACEMENT_3D ( 'NONE', #276, #347, #18 ) ;
#133 = CARTESIAN_POINT ( 'NONE',  ( 3.782438117080129010E-16, 0.000000000000000000, 0.1083333333333352799 ) ) ;
#134 = CALENDAR_DATE ( 2023, 27, 9 ) ;
#135 = DIRECTION ( 'NONE',  ( 1.000000000000000000, 0.000000000000000000, -3.469446951953614189E-15 ) ) ;
#136 = ADVANCED_FACE ( 'NONE', ( #240, #368 ), #334, .T. ) ;
#137 = PERSON_AND_ORGANIZATION ( #173, #245 ) ;
#138 = DIRECTION ( 'NONE',  ( 1.000000000000000000, 0.000000000000000000, -3.493290380427282508E-15 ) ) ;
#139 = VERTEX_POINT ( 'NONE', #109 ) ;
#140 = CARTESIAN_POINT ( 'NONE',  ( 3.200524560606095299E-16, 0.000000000000000000, 0.09166666666666350993 ) ) ;
#141 = PERSON_AND_ORGANIZATION_ROLE ( 'classification_officer' ) ;
#142 = CARTESIAN_POINT ( 'NONE',  ( 1.326762908760390423E-13, 0.000000000000000000, 38.00000000000000000 ) ) ;
#143 = CARTESIAN_POINT ( 'NONE',  ( 0.6595299461620753867, 0.000000000000000000, 0.3999999999999953038 ) ) ;
#144 = AXIS2_PLACEMENT_3D ( 'NONE', #205, #157, #36 ) ;
#145 = EDGE_LOOP ( 'NONE', ( #313 ) ) ;
#146 = ORIENTED_EDGE ( 'NONE', *, *, #55, .F. ) ;
#147 = ADVANCED_FACE ( 'NONE', ( #241, #1 ), #45, .T. ) ;
#148 = APPROVAL_STATUS ( 'not_yet_approved' ) ;
#149 = CARTESIAN_POINT ( 'NONE',  ( 1.396592535537244862E-15, 0.000000000000000000, 0.3999999999999975797 ) ) ;
#150 = CARTESIAN_POINT ( 'NONE',  ( 1.326762908760390423E-13, 0.000000000000000000, 38.00000000000000000 ) ) ;
#151 = AXIS2_PLACEMENT_3D ( 'NONE', #269, #273, #332 ) ;
#152 = AXIS2_PLACEMENT_3D ( 'NONE', #250, #344, #42 ) ;
#153 = FACE_OUTER_BOUND ( 'NONE', #111, .T. ) ;
#154 = DIRECTION ( 'NONE',  ( 3.491481338843133355E-15, -0.000000000000000000, 1.000000000000000000 ) ) ;
#155 = DESIGN_CONTEXT ( 'detailed design', #299, 'design' ) ;
#156 = CARTESIAN_POINT ( 'NONE',  ( 0.6595299461620748316, 0.000000000000000000, 0.2250000000000006717 ) ) ;
#157 = DIRECTION ( 'NONE',  ( -3.491481338843133355E-15, 0.000000000000000000, -1.000000000000000000 ) ) ;
#158 = APPROVAL ( #189, 'UNSPECIFIED' ) ;
#159 = AXIS2_PLACEMENT_3D ( 'NONE', #140, #261, #32 ) ;
#160 = DIRECTION ( 'NONE',  ( -1.000000000000000000, 0.000000000000000000, 3.491481338843133355E-15 ) ) ;
#161 = PERSON_AND_ORGANIZATION_ROLE ( 'creator' ) ;
#162 = DIRECTION ( 'NONE',  ( 1.000000000000000000, 0.000000000000000000, -5.782411586589388010E-15 ) ) ;
#163 = CARTESIAN_POINT ( 'NONE',  ( 0.7750000000000002442, 0.000000000000000000, 0.09166666666666080376 ) ) ;
#164 = PERSON_AND_ORGANIZATION ( #173, #245 ) ;
#165 = AXIS2_PLACEMENT_3D ( 'NONE', #338, #58, #120 ) ;
#166 = ADVANCED_FACE ( 'NONE', ( #93, #210 ), #335, .T. ) ;
#167 = DIRECTION ( 'NONE',  ( 3.491481338843133355E-15, -0.000000000000000000, 1.000000000000000000 ) ) ;
#168 = APPLICATION_PROTOCOL_DEFINITION ( 'international standard', 'config_control_design', 1994, #277 ) ;
#169 = DIRECTION ( 'NONE',  ( 1.000000000000000000, 0.000000000000000000, -3.497426362856466501E-15 ) ) ;
#170 = CARTESIAN_POINT ( 'NONE',  ( 0.000000000000000000, 0.000000000000000000, 0.000000000000000000 ) ) ;
#171 = ADVANCED_BREP_SHAPE_REPRESENTATION ( '961182', ( #337, #98 ), #364 ) ;
#172 = CC_DESIGN_PERSON_AND_ORGANIZATION_ASSIGNMENT ( #137, #229, ( #199 ) ) ;
#173 = PERSON ( 'UNSPECIFIED', 'UNSPECIFIED', 'UNSPECIFIED', ('UNSPECIFIED'), ('UNSPECIFIED'), ('UNSPECIFIED') ) ;
#174 = ORIENTED_EDGE ( 'NONE', *, *, #244, .T. ) ;
#175 = ORIENTED_EDGE ( 'NONE', *, *, #55, .T. ) ;
#176 = ADVANCED_FACE ( 'NONE', ( #85, #303 ), #326, .F. ) ;
#177 = CONICAL_SURFACE ( 'NONE', #29, 0.6490741737109292364, 0.2617993877991428575 ) ;
#178 = EDGE_LOOP ( 'NONE', ( #203 ) ) ;
#179 = VERTEX_POINT ( 'NONE', #323 ) ;
#180 = ORIENTED_EDGE ( 'NONE', *, *, #8, .T. ) ;
#181 = DIRECTION ( 'NONE',  ( 3.491481338843133355E-15, -0.000000000000000000, 1.000000000000000000 ) ) ;
#182 = EDGE_CURVE ( 'NONE', #179, #179, #355, .T. ) ;
#183 = CARTESIAN_POINT ( 'NONE',  ( 2.115425363140279297E-14, 0.000000000000000000, 6.058819045102511680 ) ) ;
#184 = APPROVAL_PERSON_ORGANIZATION ( #164, #158, #311 ) ;
#185 =( NAMED_UNIT ( * ) SI_UNIT ( $, .STERADIAN. ) SOLID_ANGLE_UNIT ( ) );
#186 = CARTESIAN_POINT ( 'NONE',  ( 1.326762908760390423E-13, 0.000000000000000000, 38.00000000000000000 ) ) ;
#187 = DIRECTION ( 'NONE',  ( 3.491481338843133355E-15, -0.000000000000000000, 1.000000000000000000 ) ) ;
#188 = FACE_OUTER_BOUND ( 'NONE', #230, .T. ) ;
#189 = APPROVAL_STATUS ( 'not_yet_approved' ) ;
#190 = CARTESIAN_POINT ( 'NONE',  ( 1.018348723829256169E-15, 0.000000000000000000, 0.2916666666666692387 ) ) ;
#191 = EDGE_LOOP ( 'NONE', ( #360 ) ) ;
#192 = ADVANCED_FACE ( 'NONE', ( #153 ), #124, .F. ) ;
#193 = VERTEX_POINT ( 'NONE', #30 ) ;
#194 = AXIS2_PLACEMENT_3D ( 'NONE', #60, #128, #271 ) ;
#195 = DIRECTION ( 'NONE',  ( -3.491481338843133355E-15, 0.000000000000000000, -1.000000000000000000 ) ) ;
#196 = ADVANCED_FACE ( 'NONE', ( #247, #242 ), #367, .T. ) ;
#197 = ORIENTED_EDGE ( 'NONE', *, *, #225, .T. ) ;
#198 = FACE_OUTER_BOUND ( 'NONE', #145, .T. ) ;
#199 = PRODUCT ( '961182', '961182', '', ( #372 ) ) ;
#200 = EDGE_LOOP ( 'NONE', ( #146 ) ) ;
#201 = ADVANCED_FACE ( 'NONE', ( #106, #314 ), #252, .T. ) ;
#202 = ORIENTED_EDGE ( 'NONE', *, *, #219, .F. ) ;
#203 = ORIENTED_EDGE ( 'NONE', *, *, #340, .F. ) ;
#204 = DATE_TIME_ROLE ( 'classification_date' ) ;
#205 = CARTESIAN_POINT ( 'NONE',  ( 1.316288464743861212E-13, 0.000000000000000000, 37.69999999999999574 ) ) ;
#206 = CARTESIAN_POINT ( 'NONE',  ( 2.025059176529017031E-14, 0.000000000000000000, 5.799999999999999822 ) ) ;
#207 = VERTEX_POINT ( 'NONE', #127 ) ;
#208 = FACE_OUTER_BOUND ( 'NONE', #50, .T. ) ;
#209 = CARTESIAN_POINT ( 'NONE',  ( 1.500000000000127898, 0.000000000000000000, 37.69999999999998863 ) ) ;
#210 = FACE_OUTER_BOUND ( 'NONE', #25, .T. ) ;
#211 = CALENDAR_DATE ( 2023, 27, 9 ) ;
#212 = ADVANCED_FACE ( 'NONE', ( #222, #214 ), #65, .T. ) ;
#213 = DIRECTION ( 'NONE',  ( 3.491481338843133355E-15, -0.000000000000000000, 1.000000000000000000 ) ) ;
#214 = FACE_BOUND ( 'NONE', #290, .T. ) ;
#215 = AXIS2_PLACEMENT_3D ( 'NONE', #133, #257, #248 ) ;
#216 = APPROVAL_ROLE ( '' ) ;
#217 = DIRECTION ( 'NONE',  ( 3.491481338843133355E-15, -0.000000000000000000, 1.000000000000000000 ) ) ;
#218 = ORIENTED_EDGE ( 'NONE', *, *, #379, .F. ) ;
#219 = EDGE_CURVE ( 'NONE', #389, #389, #287, .T. ) ;
#220 = DIRECTION ( 'NONE',  ( 1.000000000000000000, 0.000000000000000000, -4.625929269271496366E-15 ) ) ;
#221 = DIRECTION ( 'NONE',  ( 0.000000000000000000, 0.000000000000000000, 1.000000000000000000 ) ) ;
#222 = FACE_OUTER_BOUND ( 'NONE', #48, .T. ) ;
#223 = PERSON_AND_ORGANIZATION ( #173, #245 ) ;
#224 = CIRCLE ( 'NONE', #165, 0.6149999999999999911 ) ;
#225 = EDGE_CURVE ( 'NONE', #139, #139, #77, .T. ) ;
#226 = CIRCLE ( 'NONE', #91, 0.6595299461620740544 ) ;
#227 = LOCAL_TIME ( 10, 31, 44.00000000000000000, #358 ) ;
#228 = DIRECTION ( 'NONE',  ( -3.491481338843133355E-15, 0.000000000000000000, -1.000000000000000000 ) ) ;
#229 = PERSON_AND_ORGANIZATION_ROLE ( 'design_owner' ) ;
#230 = EDGE_LOOP ( 'NONE', ( #310 ) ) ;
#231 = ORIENTED_EDGE ( 'NONE', *, *, #80, .T. ) ;
#232 = APPROVAL_ROLE ( '' ) ;
#233 = CIRCLE ( 'NONE', #159, 0.7750000000000000222 ) ;
#234 = EDGE_LOOP ( 'NONE', ( #31 ) ) ;
#235 = CARTESIAN_POINT ( 'NONE',  ( 0.6595299461620747206, 0.000000000000000000, 0.1749999999999992395 ) ) ;
#236 = EDGE_LOOP ( 'NONE', ( #231 ) ) ;
#237 = ORIENTED_EDGE ( 'NONE', *, *, #182, .F. ) ;
#238 = PRODUCT_RELATED_PRODUCT_CATEGORY ( 'detail', '', ( #199 ) ) ;
#239 = AXIS2_PLACEMENT_3D ( 'NONE', #4, #86, #84 ) ;
#240 = FACE_OUTER_BOUND ( 'NONE', #178, .T. ) ;
#241 = FACE_BOUND ( 'NONE', #357, .T. ) ;
#242 = FACE_OUTER_BOUND ( 'NONE', #388, .T. ) ;
#243 = FACE_OUTER_BOUND ( 'NONE', #70, .T. ) ;
#244 = EDGE_CURVE ( 'NONE', #246, #246, #300, .T. ) ;
#245 = ORGANIZATION ( 'UNSPECIFIED', 'UNSPECIFIED', '' ) ;
#246 = VERTEX_POINT ( 'NONE', #17 ) ;
#247 = FACE_OUTER_BOUND ( 'NONE', #322, .T. ) ;
#248 = DIRECTION ( 'NONE',  ( 1.000000000000000000, 0.000000000000000000, -3.497426362856465713E-15 ) ) ;
#249 = DATE_TIME_ROLE ( 'creation_date' ) ;
#250 = CARTESIAN_POINT ( 'NONE',  ( 1.396592535537253342E-15, 0.6595299461620739434, 0.3999999999999999667 ) ) ;
#251 = ORIENTED_EDGE ( 'NONE', *, *, #225, .F. ) ;
#252 = CONICAL_SURFACE ( 'NONE', #22, 0.7750000000000000222, 1.047197551196603182 ) ;
#253 = PERSON_AND_ORGANIZATION_ROLE ( 'creator' ) ;
#254 = DIRECTION ( 'NONE',  ( 3.491481338843133355E-15, -0.000000000000000000, 1.000000000000000000 ) ) ;
#255 = APPROVAL_DATE_TIME ( #12, #158 ) ;
#256 = CARTESIAN_POINT ( 'NONE',  ( 6.110092342975536620E-16, 0.000000000000000000, 0.1750000000000015432 ) ) ;
#257 = DIRECTION ( 'NONE',  ( 3.491481338843133355E-15, -0.000000000000000000, 1.000000000000000000 ) ) ;
#258 = AXIS2_PLACEMENT_3D ( 'NONE', #365, #154, #6 ) ;
#259 = CC_DESIGN_SECURITY_CLASSIFICATION ( #7, ( #356 ) ) ;
#260 = FACE_OUTER_BOUND ( 'NONE', #236, .T. ) ;
#261 = DIRECTION ( 'NONE',  ( 3.491481338843133355E-15, -0.000000000000000000, 1.000000000000000000 ) ) ;
#262 = EDGE_CURVE ( 'NONE', #289, #289, #280, .T. ) ;
#263 = FACE_BOUND ( 'NONE', #362, .T. ) ;
#264 = AXIS2_PLACEMENT_3D ( 'NONE', #206, #3, #301 ) ;
#265 = EDGE_LOOP ( 'NONE', ( #118 ) ) ;
#266 = ORIENTED_EDGE ( 'NONE', *, *, #244, .F. ) ;
#267 = CC_DESIGN_PERSON_AND_ORGANIZATION_ASSIGNMENT ( #325, #141, ( #7 ) ) ;
#268 = DIRECTION ( 'NONE',  ( 1.000000000000000000, 0.000000000000000000, -4.008918116535741014E-15 ) ) ;
#269 = CARTESIAN_POINT ( 'NONE',  ( 1.076540079476635283E-15, 0.000000000000000000, 0.3083333333333340698 ) ) ;
#270 = DIRECTION ( 'NONE',  ( 1.000000000000000000, 0.000000000000000000, -3.452192846539903498E-15 ) ) ;
#271 = DIRECTION ( 'NONE',  ( 1.000000000000000000, 0.000000000000000000, -3.491481338843133355E-15 ) ) ;
#272 = EDGE_CURVE ( 'NONE', #61, #61, #23, .T. ) ;
#273 = DIRECTION ( 'NONE',  ( -3.491481338843133355E-15, 0.000000000000000000, -1.000000000000000000 ) ) ;
#274 = AXIS2_PLACEMENT_3D ( 'NONE', #190, #101, #169 ) ;
#275 = DIRECTION ( 'NONE',  ( 1.000000000000000000, 0.000000000000000000, 0.000000000000000000 ) ) ;
#276 = CARTESIAN_POINT ( 'NONE',  ( 2.025059176529017031E-14, 0.000000000000000000, 5.799999999999999822 ) ) ;
#277 = APPLICATION_CONTEXT ( 'configuration controlled 3d designs of mechanical parts and assemblies' ) ;
#278 = COORDINATED_UNIVERSAL_TIME_OFFSET ( 1, 0, .AHEAD. ) ;
#279 = VERTEX_POINT ( 'NONE', #14 ) ;
#280 = CIRCLE ( 'NONE', #307, 1.500000000000000000 ) ;
#281 = PERSON_AND_ORGANIZATION ( #173, #245 ) ;
#282 = LOCAL_TIME ( 10, 31, 44.00000000000000000, #354 ) ;
#283 = CARTESIAN_POINT ( 'NONE',  ( 0.000000000000000000, 0.000000000000000000, 0.000000000000000000 ) ) ;
#284 = DATE_AND_TIME ( #103, #375 ) ;
#285 = PLANE ( 'NONE',  #292 ) ;
#286 = EDGE_CURVE ( 'NONE', #64, #64, #226, .T. ) ;
#287 = CIRCLE ( 'NONE', #394, 0.6595299461620740544 ) ;
#288 = ORIENTED_EDGE ( 'NONE', *, *, #80, .F. ) ;
#289 = VERTEX_POINT ( 'NONE', #26 ) ;
#290 = EDGE_LOOP ( 'NONE', ( #82 ) ) ;
#291 = ORIENTED_EDGE ( 'NONE', *, *, #286, .F. ) ;
#292 = AXIS2_PLACEMENT_3D ( 'NONE', #69, #228, #160 ) ;
#293 = ORIENTED_EDGE ( 'NONE', *, *, #262, .F. ) ;
#294 = CC_DESIGN_PERSON_AND_ORGANIZATION_ASSIGNMENT ( #376, #100, ( #356 ) ) ;
#295 = DATE_AND_TIME ( #115, #227 ) ;
#296 = EDGE_LOOP ( 'NONE', ( #251 ) ) ;
#297 = DIRECTION ( 'NONE',  ( 1.000000000000000000, 0.000000000000000000, -3.491481338843133750E-15 ) ) ;
#298 = VERTEX_POINT ( 'NONE', #90 ) ;
#299 = APPLICATION_CONTEXT ( 'configuration controlled 3d designs of mechanical parts and assemblies' ) ;
#300 = CIRCLE ( 'NONE', #132, 0.6149999999999994360 ) ;
#301 = DIRECTION ( 'NONE',  ( 1.000000000000000000, 0.000000000000000000, -3.491481338843133355E-15 ) ) ;
#302 = ADVANCED_FACE ( 'NONE', ( #44 ), #285, .F. ) ;
#303 = FACE_OUTER_BOUND ( 'NONE', #324, .T. ) ;
#304 = UNCERTAINTY_MEASURE_WITH_UNIT (LENGTH_MEASURE( 1.000000000000000082E-05 ), #331, 'distance_accuracy_value', 'NONE');
#305 = CYLINDRICAL_SURFACE ( 'NONE', #105, 0.7750000000000000222 ) ;
#306 = DIRECTION ( 'NONE',  ( 1.000000000000000000, 0.000000000000000000, -3.452192846539902709E-15 ) ) ;
#307 = AXIS2_PLACEMENT_3D ( 'NONE', #309, #342, #135 ) ;
#308 = APPROVAL ( #148, 'UNSPECIFIED' ) ;
#309 = CARTESIAN_POINT ( 'NONE',  ( 3.224214539279239441E-14, 0.000000000000000000, 9.234517462285936062 ) ) ;
#310 = ORIENTED_EDGE ( 'NONE', *, *, #68, .T. ) ;
#311 = APPROVAL_ROLE ( '' ) ;
#312 = FACE_OUTER_BOUND ( 'NONE', #191, .T. ) ;
#313 = ORIENTED_EDGE ( 'NONE', *, *, #88, .F. ) ;
#314 = FACE_OUTER_BOUND ( 'NONE', #329, .T. ) ;
#315 = CONICAL_SURFACE ( 'NONE', #151, 0.7749999999999999112, 1.047197551196602738 ) ;
#316 = SECURITY_CLASSIFICATION_LEVEL ( 'unclassified' ) ;
#317 = FACE_OUTER_BOUND ( 'NONE', #51, .T. ) ;
#318 = APPROVAL_STATUS ( 'not_yet_approved' ) ;
#319 = EDGE_LOOP ( 'NONE', ( #76 ) ) ;
#320 = AXIS2_PLACEMENT_3D ( 'NONE', #9, #41, #162 ) ;
#321 = DIRECTION ( 'NONE',  ( 1.000000000000000000, 0.000000000000000000, 0.000000000000000000 ) ) ;
#322 = EDGE_LOOP ( 'NONE', ( #387 ) ) ;
#323 = CARTESIAN_POINT ( 'NONE',  ( 0.7750000000000009104, 0.000000000000000000, 0.3083333333333313497 ) ) ;
#324 = EDGE_LOOP ( 'NONE', ( #174 ) ) ;
#325 = PERSON_AND_ORGANIZATION ( #173, #245 ) ;
#326 = TOROIDAL_SURFACE ( 'NONE', #264, 1.614999999999999547, 1.000000000000000000 ) ;
#327 = AXIS2_PLACEMENT_3D ( 'NONE', #62, #187, #297 ) ;
#328 = CIRCLE ( 'NONE', #320, 1.199999999999993516 ) ;
#329 = EDGE_LOOP ( 'NONE', ( #197 ) ) ;
#330 = DIRECTION ( 'NONE',  ( 3.491481338843133355E-15, -0.000000000000000000, 1.000000000000000000 ) ) ;
#331 =( LENGTH_UNIT ( ) NAMED_UNIT ( * ) SI_UNIT ( .MILLI., .METRE. ) );
#332 = DIRECTION ( 'NONE',  ( -1.000000000000000000, 0.000000000000000000, 3.497426362856466501E-15 ) ) ;
#333 = ADVANCED_FACE ( 'NONE', ( #317, #75 ), #381, .T. ) ;
#334 = CONICAL_SURFACE ( 'NONE', #383, 0.6595299461620740544, 1.047197551196602738 ) ;
#335 = CYLINDRICAL_SURFACE ( 'NONE', #374, 0.7749999999999999112 ) ;
#336 = CC_DESIGN_APPROVAL ( #308, ( #7 ) ) ;
#337 = MANIFOLD_SOLID_BREP ( 'Corps-Déplacer/Copier1', #5 ) ;
#338 = CARTESIAN_POINT ( 'NONE',  ( 1.396592535537244862E-15, 0.000000000000000000, 0.3999999999999975797 ) ) ;
#339 = APPROVAL_DATE_TIME ( #87, #308 ) ;
#340 = EDGE_CURVE ( 'NONE', #298, #298, #349, .T. ) ;
#341 = CARTESIAN_POINT ( 'NONE',  ( 1.309305502066176192E-15, 0.000000000000000000, 0.3750000000000003331 ) ) ;
#342 = DIRECTION ( 'NONE',  ( 3.491481338843133355E-15, -0.000000000000000000, 1.000000000000000000 ) ) ;
#343 = CARTESIAN_POINT ( 'NONE',  ( 1.316288464743861212E-13, 0.000000000000000000, 37.69999999999999574 ) ) ;
#344 = DIRECTION ( 'NONE',  ( -3.491481338843133355E-15, 0.000000000000000000, -1.000000000000000000 ) ) ;
#345 = COORDINATED_UNIVERSAL_TIME_OFFSET ( 1, 0, .AHEAD. ) ;
#346 = CC_DESIGN_DATE_AND_TIME_ASSIGNMENT ( #10, #249, ( #27 ) ) ;
#347 = DIRECTION ( 'NONE',  ( 3.491481338843133355E-15, -0.000000000000000000, 1.000000000000000000 ) ) ;
#348 = CIRCLE ( 'NONE', #52, 0.6595299461620739434 ) ;
#349 = CIRCLE ( 'NONE', #274, 0.7749999999999999112 ) ;
#350 = CALENDAR_DATE ( 2023, 27, 9 ) ;
#351 = FACE_OUTER_BOUND ( 'NONE', #390, .T. ) ;
#352 = ORIENTED_EDGE ( 'NONE', *, *, #286, .T. ) ;
#353 = EDGE_LOOP ( 'NONE', ( #352 ) ) ;
#354 = COORDINATED_UNIVERSAL_TIME_OFFSET ( 1, 0, .AHEAD. ) ;
#355 = CIRCLE ( 'NONE', #258, 0.7749999999999999112 ) ;
#356 = PRODUCT_DEFINITION_FORMATION_WITH_SPECIFIED_SOURCE ( 'ANY', '', #199, .NOT_KNOWN. ) ;
#357 = EDGE_LOOP ( 'NONE', ( #218 ) ) ;
#358 = COORDINATED_UNIVERSAL_TIME_OFFSET ( 1, 0, .AHEAD. ) ;
#359 = VERTEX_POINT ( 'NONE', #113 ) ;
#360 = ORIENTED_EDGE ( 'NONE', *, *, #88, .T. ) ;
#361 = ADVANCED_FACE ( 'NONE', ( #351, #188 ), #20, .T. ) ;
#362 = EDGE_LOOP ( 'NONE', ( #175 ) ) ;
#363 = AXIS2_PLACEMENT_3D ( 'NONE', #186, #94, #40 ) ;
#364 =( GEOMETRIC_REPRESENTATION_CONTEXT ( 3 ) GLOBAL_UNCERTAINTY_ASSIGNED_CONTEXT ( ( #304 ) ) GLOBAL_UNIT_ASSIGNED_CONTEXT ( ( #331, #2, #185 ) ) REPRESENTATION_CONTEXT ( 'NONE', 'WORKASPACE' ) );
#365 = CARTESIAN_POINT ( 'NONE',  ( 1.076540079476635283E-15, 0.000000000000000000, 0.3083333333333340698 ) ) ;
#366 = DIRECTION ( 'NONE',  ( 3.491481338843133355E-15, -0.000000000000000000, 1.000000000000000000 ) ) ;
#367 = CYLINDRICAL_SURFACE ( 'NONE', #363, 1.499999999999998224 ) ;
#368 = FACE_BOUND ( 'NONE', #353, .T. ) ;
#369 = CC_DESIGN_PERSON_AND_ORGANIZATION_ASSIGNMENT ( #380, #253, ( #356 ) ) ;
#370 = DIRECTION ( 'NONE',  ( 1.000000000000000000, 0.000000000000000000, 0.000000000000000000 ) ) ;
#371 = DIRECTION ( 'NONE',  ( -1.000000000000000000, 0.000000000000000000, 3.497426362856465713E-15 ) ) ;
#372 = MECHANICAL_CONTEXT ( 'NONE', #277, 'mechanical' ) ;
#373 = CARTESIAN_POINT ( 'NONE',  ( 7.855833012397154573E-16, 0.000000000000000000, 0.2250000000000029754 ) ) ;
#374 = AXIS2_PLACEMENT_3D ( 'NONE', #150, #366, #63 ) ;
#375 = LOCAL_TIME ( 10, 31, 44.00000000000000000, #345 ) ;
#376 = PERSON_AND_ORGANIZATION ( #173, #245 ) ;
#377 = CARTESIAN_POINT ( 'NONE',  ( 3.782438117080129010E-16, 0.000000000000000000, 0.1083333333333352799 ) ) ;
#378 = ORIENTED_EDGE ( 'NONE', *, *, #182, .T. ) ;
#379 = EDGE_CURVE ( 'NONE', #207, #207, #328, .T. ) ;
#380 = PERSON_AND_ORGANIZATION ( #173, #245 ) ;
#381 = CYLINDRICAL_SURFACE ( 'NONE', #122, 0.6595299461620740544 ) ;
#382 = DIRECTION ( 'NONE',  ( 1.000000000000000000, 0.000000000000000000, -3.493290380427282508E-15 ) ) ;
#383 = AXIS2_PLACEMENT_3D ( 'NONE', #57, #181, #35 ) ;
#384 = CC_DESIGN_DATE_AND_TIME_ASSIGNMENT ( #295, #204, ( #7 ) ) ;
#385 = VERTEX_POINT ( 'NONE', #117 ) ;
#386 = CYLINDRICAL_SURFACE ( 'NONE', #73, 0.6595299461620740544 ) ;
#387 = ORIENTED_EDGE ( 'NONE', *, *, #272, .F. ) ;
#388 = EDGE_LOOP ( 'NONE', ( #54 ) ) ;
#389 = VERTEX_POINT ( 'NONE', #235 ) ;
#390 = EDGE_LOOP ( 'NONE', ( #266 ) ) ;
#391 = ADVANCED_FACE ( 'NONE', ( #11, #312 ), #130, .F. ) ;
#392 = EDGE_LOOP ( 'NONE', ( #83 ) ) ;
#393 = DIRECTION ( 'NONE',  ( 3.491481338843133355E-15, -0.000000000000000000, 1.000000000000000000 ) ) ;
#394 = AXIS2_PLACEMENT_3D ( 'NONE', #256, #217, #138 ) ;
#395 = CC_DESIGN_PERSON_AND_ORGANIZATION_ASSIGNMENT ( #223, #161, ( #27 ) ) ;
ENDSEC;
END-ISO-10303-21;
