ISO-10303-21;
HEADER;
FILE_DESCRIPTION (( 'STEP AP203' ),
    '1' );
FILE_NAME ('961181.step',
    '2023-09-27T08:31:43',
    ( '' ),
    ( '' ),
    'SwSTEP 2.0',
    'SolidWorks 2022',
    '' );
FILE_SCHEMA (( 'CONFIG_CONTROL_DESIGN' ));
ENDSEC;

DATA;
#1 = ADVANCED_FACE ( 'NONE', ( #74, #383 ), #207, .T. ) ;
#2 = EDGE_CURVE ( 'NONE', #344, #344, #195, .T. ) ;
#3 = CC_DESIGN_PERSON_AND_ORGANIZATION_ASSIGNMENT ( #264, #352, ( #307 ) ) ;
#4 = LOCAL_TIME ( 10, 31, 43.00000000000000000, #392 ) ;
#5 = DIRECTION ( 'NONE',  ( -3.491481338843133355E-15, 0.000000000000000000, -1.000000000000000000 ) ) ;
#6 = DIRECTION ( 'NONE',  ( 3.491481338843133355E-15, -0.000000000000000000, 1.000000000000000000 ) ) ;
#7 = EDGE_CURVE ( 'NONE', #192, #192, #17, .T. ) ;
#8 = DIRECTION ( 'NONE',  ( 3.491481338843133355E-15, -0.000000000000000000, 1.000000000000000000 ) ) ;
#9 = AXIS2_PLACEMENT_3D ( 'NONE', #306, #6, #138 ) ;
#10 = CONICAL_SURFACE ( 'NONE', #367, 0.5949999999999999734, 1.047197551196596743 ) ;
#11 = DIRECTION ( 'NONE',  ( 1.000000000000000000, 0.000000000000000000, -3.587081999078715714E-15 ) ) ;
#12 = EDGE_LOOP ( 'NONE', ( #16 ) ) ;
#13 = DIRECTION ( 'NONE',  ( 1.000000000000000000, 0.000000000000000000, -3.462158197852872240E-15 ) ) ;
#14 = FACE_OUTER_BOUND ( 'NONE', #149, .T. ) ;
#15 = CARTESIAN_POINT ( 'NONE',  ( 1.326762908760390423E-13, 0.000000000000000000, 38.00000000000000000 ) ) ;
#16 = ORIENTED_EDGE ( 'NONE', *, *, #272, .T. ) ;
#17 = CIRCLE ( 'NONE', #73, 1.500000000000000000 ) ;
#18 = CALENDAR_DATE ( 2023, 27, 9 ) ;
#19 = FACE_BOUND ( 'NONE', #229, .T. ) ;
#20 = EDGE_LOOP ( 'NONE', ( #115 ) ) ;
#21 = VERTEX_POINT ( 'NONE', #93 ) ;
#22 = EDGE_LOOP ( 'NONE', ( #273 ) ) ;
#23 = CARTESIAN_POINT ( 'NONE',  ( 1.326762908760390423E-13, 0.000000000000000000, 38.00000000000000000 ) ) ;
#24 = TOROIDAL_SURFACE ( 'NONE', #217, 1.319999999999999618, 1.000000000000000000 ) ;
#25 = APPROVAL_ROLE ( '' ) ;
#26 = CIRCLE ( 'NONE', #294, 0.3929274057836295575 ) ;
#27 = FACE_OUTER_BOUND ( 'NONE', #315, .T. ) ;
#28 = PERSON_AND_ORGANIZATION_ROLE ( 'design_supplier' ) ;
#29 = CARTESIAN_POINT ( 'NONE',  ( 1.500000000000127898, 0.000000000000000000, 37.69999999999998863 ) ) ;
#30 = DIRECTION ( 'NONE',  ( 1.000000000000000000, 0.000000000000000000, -2.449661122972862797E-15 ) ) ;
#31 = DIRECTION ( 'NONE',  ( 1.000000000000000000, 0.000000000000000000, -3.449117306806457569E-15 ) ) ;
#32 = CC_DESIGN_PERSON_AND_ORGANIZATION_ASSIGNMENT ( #147, #120, ( #333 ) ) ;
#33 = AXIS2_PLACEMENT_3D ( 'NONE', #15, #81, #196 ) ;
#34 = CYLINDRICAL_SURFACE ( 'NONE', #261, 0.3929274057836295575 ) ;
#35 = ORIENTED_EDGE ( 'NONE', *, *, #349, .F. ) ;
#36 = ORIENTED_EDGE ( 'NONE', *, *, #102, .F. ) ;
#37 = CYLINDRICAL_SURFACE ( 'NONE', #247, 0.5949999999999999734 ) ;
#38 = CARTESIAN_POINT ( 'NONE',  ( 1.326762908760390423E-13, 0.000000000000000000, 38.00000000000000000 ) ) ;
#39 = AXIS2_PLACEMENT_3D ( 'NONE', #358, #5, #99 ) ;
#40 = PRODUCT_DEFINITION_FORMATION_WITH_SPECIFIED_SOURCE ( 'ANY', '', #116, .NOT_KNOWN. ) ;
#41 = FACE_BOUND ( 'NONE', #206, .T. ) ;
#42 = DIRECTION ( 'NONE',  ( 3.491481338843133355E-15, -0.000000000000000000, 1.000000000000000000 ) ) ;
#43 = DIRECTION ( 'NONE',  ( 3.491481338843133355E-15, -0.000000000000000000, 1.000000000000000000 ) ) ;
#44 = APPROVAL ( #92, 'UNSPECIFIED' ) ;
#45 = EDGE_LOOP ( 'NONE', ( #378 ) ) ;
#46 = SHAPE_DEFINITION_REPRESENTATION ( #288, #53 ) ;
#47 = DIRECTION ( 'NONE',  ( -1.000000000000000000, 0.000000000000000000, 3.491481338843133355E-15 ) ) ;
#48 = CARTESIAN_POINT ( 'NONE',  ( 0.3200000000000173261, 0.000000000000000000, 5.099999999999999645 ) ) ;
#49 = EDGE_LOOP ( 'NONE', ( #79 ) ) ;
#50 = AXIS2_PLACEMENT_3D ( 'NONE', #267, #274, #137 ) ;
#51 = ORIENTED_EDGE ( 'NONE', *, *, #221, .F. ) ;
#52 = ADVANCED_FACE ( 'NONE', ( #14, #226 ), #24, .F. ) ;
#53 = ADVANCED_BREP_SHAPE_REPRESENTATION ( '961181', ( #380, #347 ), #165 ) ;
#54 = EDGE_LOOP ( 'NONE', ( #368 ) ) ;
#55 = PERSON_AND_ORGANIZATION ( #337, #354 ) ;
#56 = CARTESIAN_POINT ( 'NONE',  ( 1.780655482809997696E-14, 0.000000000000000000, 5.099999999999999645 ) ) ;
#57 = CIRCLE ( 'NONE', #9, 0.3200000000000000067 ) ;
#58 = APPROVAL_STATUS ( 'not_yet_approved' ) ;
#59 = ADVANCED_FACE ( 'NONE', ( #159, #61 ), #34, .T. ) ;
#60 = CC_DESIGN_SECURITY_CLASSIFICATION ( #333, ( #40 ) ) ;
#61 = FACE_OUTER_BOUND ( 'NONE', #148, .T. ) ;
#62 = DIRECTION ( 'NONE',  ( 1.000000000000000000, 0.000000000000000000, 0.000000000000000000 ) ) ;
#63 = FACE_BOUND ( 'NONE', #20, .T. ) ;
#64 = ADVANCED_FACE ( 'NONE', ( #265, #129 ), #329, .T. ) ;
#65 = AXIS2_PLACEMENT_3D ( 'NONE', #325, #336, #62 ) ;
#66 = DESIGN_CONTEXT ( 'detailed design', #326, 'design' ) ;
#67 = CARTESIAN_POINT ( 'NONE',  ( 2.291284628615796404E-15, 0.000000000000000000, 0.6562499999999971134 ) ) ;
#68 = CARTESIAN_POINT ( 'NONE',  ( 0.5950000000000006395, 0.000000000000000000, 0.1895833333333311888 ) ) ;
#69 =( LENGTH_UNIT ( ) NAMED_UNIT ( * ) SI_UNIT ( .MILLI., .METRE. ) );
#70 = DIRECTION ( 'NONE',  ( 3.491481338843133355E-15, -0.000000000000000000, 1.000000000000000000 ) ) ;
#71 = VERTEX_POINT ( 'NONE', #194 ) ;
#72 = DIRECTION ( 'NONE',  ( -3.491481338843133355E-15, 0.000000000000000000, -1.000000000000000000 ) ) ;
#73 = AXIS2_PLACEMENT_3D ( 'NONE', #112, #42, #167 ) ;
#74 = FACE_OUTER_BOUND ( 'NONE', #82, .T. ) ;
#75 = EDGE_CURVE ( 'NONE', #351, #351, #285, .T. ) ;
#76 = AXIS2_PLACEMENT_3D ( 'NONE', #219, #8, #286 ) ;
#77 = CC_DESIGN_PERSON_AND_ORGANIZATION_ASSIGNMENT ( #157, #28, ( #40 ) ) ;
#78 = FACE_OUTER_BOUND ( 'NONE', #88, .T. ) ;
#79 = ORIENTED_EDGE ( 'NONE', *, *, #303, .T. ) ;
#80 = APPLICATION_PROTOCOL_DEFINITION ( 'international standard', 'config_control_design', 1994, #326 ) ;
#81 = DIRECTION ( 'NONE',  ( 3.491481338843133355E-15, -0.000000000000000000, 1.000000000000000000 ) ) ;
#82 = EDGE_LOOP ( 'NONE', ( #259 ) ) ;
#83 = APPROVAL_DATE_TIME ( #170, #338 ) ;
#84 = EDGE_LOOP ( 'NONE', ( #279 ) ) ;
#85 = CLOSED_SHELL ( 'NONE', ( #258, #154, #300, #318, #375, #117, #155, #64, #59, #97, #242, #52, #215, #1, #281, #379 ) ) ;
#86 = VERTEX_POINT ( 'NONE', #121 ) ;
#87 = AXIS2_PLACEMENT_3D ( 'NONE', #317, #141, #249 ) ;
#88 = EDGE_LOOP ( 'NONE', ( #287 ) ) ;
#89 = DIRECTION ( 'NONE',  ( 1.000000000000000000, 0.000000000000000000, 0.000000000000000000 ) ) ;
#90 = VERTEX_POINT ( 'NONE', #256 ) ;
#91 = CARTESIAN_POINT ( 'NONE',  ( 2.444036937190190588E-15, 0.000000000000000000, 0.6999999999999992895 ) ) ;
#92 = APPROVAL_STATUS ( 'not_yet_approved' ) ;
#93 = CARTESIAN_POINT ( 'NONE',  ( 0.5950000000000005285, 0.000000000000000000, 0.1604166666666677343 ) ) ;
#94 = CARTESIAN_POINT ( 'NONE',  ( 0.3929274057836318335, 0.000000000000000000, 0.6562499999999956701 ) ) ;
#95 = FACE_OUTER_BOUND ( 'NONE', #356, .T. ) ;
#96 = CIRCLE ( 'NONE', #136, 0.3929274057836295575 ) ;
#97 = ADVANCED_FACE ( 'NONE', ( #369, #360 ), #393, .F. ) ;
#98 = AXIS2_PLACEMENT_3D ( 'NONE', #142, #309, #13 ) ;
#99 = DIRECTION ( 'NONE',  ( -1.000000000000000000, 0.000000000000000000, 3.462158197852872240E-15 ) ) ;
#100 = CYLINDRICAL_SURFACE ( 'NONE', #65, 0.5949999999999998623 ) ;
#101 = AXIS2_PLACEMENT_3D ( 'NONE', #246, #114, #199 ) ;
#102 = EDGE_CURVE ( 'NONE', #21, #21, #218, .T. ) ;
#103 = DIRECTION ( 'NONE',  ( -3.491481338843133355E-15, 0.000000000000000000, -1.000000000000000000 ) ) ;
#104 = CYLINDRICAL_SURFACE ( 'NONE', #373, 0.3929274057836296130 ) ;
#105 = VERTEX_POINT ( 'NONE', #68 ) ;
#106 = FACE_OUTER_BOUND ( 'NONE', #12, .T. ) ;
#107 = ORIENTED_EDGE ( 'NONE', *, *, #75, .F. ) ;
#108 = DIRECTION ( 'NONE',  ( -1.000000000000000000, 0.000000000000000000, 3.507712910982514647E-15 ) ) ;
#109 = EDGE_LOOP ( 'NONE', ( #320 ) ) ;
#110 = FACE_OUTER_BOUND ( 'NONE', #119, .T. ) ;
#111 = CIRCLE ( 'NONE', #101, 0.5949999999999999734 ) ;
#112 = CARTESIAN_POINT ( 'NONE',  ( 3.364207225192346376E-14, 0.000000000000000000, 9.635472450518788534 ) ) ;
#113 =( NAMED_UNIT ( * ) PLANE_ANGLE_UNIT ( ) SI_UNIT ( $, .RADIAN. ) );
#114 = DIRECTION ( 'NONE',  ( 3.491481338843133355E-15, -0.000000000000000000, 1.000000000000000000 ) ) ;
#115 = ORIENTED_EDGE ( 'NONE', *, *, #327, .T. ) ;
#116 = PRODUCT ( '961181', '961181', '', ( #390 ) ) ;
#117 = ADVANCED_FACE ( 'NONE', ( #237, #209 ), #224, .T. ) ;
#118 = CARTESIAN_POINT ( 'NONE',  ( 0.000000000000000000, 0.000000000000000000, 0.000000000000000000 ) ) ;
#119 = EDGE_LOOP ( 'NONE', ( #233 ) ) ;
#120 = PERSON_AND_ORGANIZATION_ROLE ( 'classification_officer' ) ;
#121 = CARTESIAN_POINT ( 'NONE',  ( 0.3929274057836320000, 0.000000000000000000, 0.6999999999999978462 ) ) ;
#122 = ORIENTED_EDGE ( 'NONE', *, *, #349, .T. ) ;
#123 = APPROVAL_DATE_TIME ( #295, #135 ) ;
#124 = VERTEX_POINT ( 'NONE', #94 ) ;
#125 = DIRECTION ( 'NONE',  ( 3.491481338843133355E-15, -0.000000000000000000, 1.000000000000000000 ) ) ;
#126 = CARTESIAN_POINT ( 'NONE',  ( 1.871021669421260278E-14, 0.000000000000000000, 5.358819045102512391 ) ) ;
#127 = CC_DESIGN_DATE_AND_TIME_ASSIGNMENT ( #324, #316, ( #333 ) ) ;
#128 = PERSON_AND_ORGANIZATION_ROLE ( 'creator' ) ;
#129 = FACE_OUTER_BOUND ( 'NONE', #235, .T. ) ;
#130 = CIRCLE ( 'NONE', #340, 0.3929274057836295575 ) ;
#131 = APPLICATION_CONTEXT ( 'configuration controlled 3d designs of mechanical parts and assemblies' ) ;
#132 = LOCAL_TIME ( 10, 31, 43.00000000000000000, #230 ) ;
#133 = CARTESIAN_POINT ( 'NONE',  ( 0.000000000000000000, 0.000000000000000000, 0.000000000000000000 ) ) ;
#134 = EDGE_CURVE ( 'NONE', #296, #296, #140, .T. ) ;
#135 = APPROVAL ( #58, 'UNSPECIFIED' ) ;
#136 = AXIS2_PLACEMENT_3D ( 'NONE', #302, #161, #271 ) ;
#137 = DIRECTION ( 'NONE',  ( 1.000000000000000000, 0.000000000000000000, -4.625929269271496366E-15 ) ) ;
#138 = DIRECTION ( 'NONE',  ( 1.000000000000000000, 0.000000000000000000, -3.388131789017201356E-15 ) ) ;
#139 = PLANE ( 'NONE',  #205 ) ;
#140 = CIRCLE ( 'NONE', #50, 1.499999999999996447 ) ;
#141 = DIRECTION ( 'NONE',  ( -3.491481338843133355E-15, 0.000000000000000000, -1.000000000000000000 ) ) ;
#142 = CARTESIAN_POINT ( 'NONE',  ( 1.782110266701180152E-15, 0.000000000000000000, 0.5104166666666659635 ) ) ;
#143 = ORIENTED_EDGE ( 'NONE', *, *, #7, .T. ) ;
#144 = DIRECTION ( 'NONE',  ( 1.000000000000000000, 0.000000000000000000, -3.491481338843133355E-15 ) ) ;
#145 = EDGE_LOOP ( 'NONE', ( #122 ) ) ;
#146 = APPROVAL_PERSON_ORGANIZATION ( #384, #135, #234 ) ;
#147 = PERSON_AND_ORGANIZATION ( #337, #354 ) ;
#148 = EDGE_LOOP ( 'NONE', ( #348 ) ) ;
#149 = EDGE_LOOP ( 'NONE', ( #51 ) ) ;
#150 = DATE_TIME_ROLE ( 'creation_date' ) ;
#151 = AXIS2_PLACEMENT_3D ( 'NONE', #158, #220, #193 ) ;
#152 = DIRECTION ( 'NONE',  ( 3.491481338843133355E-15, -0.000000000000000000, 1.000000000000000000 ) ) ;
#153 = PERSON_AND_ORGANIZATION ( #337, #354 ) ;
#154 = ADVANCED_FACE ( 'NONE', ( #395, #63 ), #252, .T. ) ;
#155 = ADVANCED_FACE ( 'NONE', ( #95, #190 ), #100, .T. ) ;
#156 = CARTESIAN_POINT ( 'NONE',  ( 1.069266160020712943E-15, 0.000000000000000000, 0.3062500000000009659 ) ) ;
#157 = PERSON_AND_ORGANIZATION ( #337, #354 ) ;
#158 = CARTESIAN_POINT ( 'NONE',  ( 1.871021669421260278E-14, 0.000000000000000000, 5.358819045102512391 ) ) ;
#159 = FACE_OUTER_BOUND ( 'NONE', #284, .T. ) ;
#160 = AXIS2_PLACEMENT_3D ( 'NONE', #187, #339, #31 ) ;
#161 = DIRECTION ( 'NONE',  ( 3.491481338843133355E-15, -0.000000000000000000, 1.000000000000000000 ) ) ;
#162 = DIRECTION ( 'NONE',  ( 1.000000000000000000, 0.000000000000000000, -3.491481338843133355E-15 ) ) ;
#163 = FACE_OUTER_BOUND ( 'NONE', #322, .T. ) ;
#164 = CARTESIAN_POINT ( 'NONE',  ( 0.5950000000000016387, 0.000000000000000000, 0.5395833333333343029 ) ) ;
#165 =( GEOMETRIC_REPRESENTATION_CONTEXT ( 3 ) GLOBAL_UNCERTAINTY_ASSIGNED_CONTEXT ( ( #355 ) ) GLOBAL_UNIT_ASSIGNED_CONTEXT ( ( #69, #113, #248 ) ) REPRESENTATION_CONTEXT ( 'NONE', 'WORKASPACE' ) );
#166 = FACE_OUTER_BOUND ( 'NONE', #387, .T. ) ;
#167 = DIRECTION ( 'NONE',  ( 1.000000000000000000, 0.000000000000000000, -3.469446951953614189E-15 ) ) ;
#168 = CARTESIAN_POINT ( 'NONE',  ( 0.000000000000000000, 0.000000000000000000, 0.000000000000000000 ) ) ;
#169 = EDGE_LOOP ( 'NONE', ( #178 ) ) ;
#170 = DATE_AND_TIME ( #350, #4 ) ;
#171 = CARTESIAN_POINT ( 'NONE',  ( 0.3929274057836307232, 0.000000000000000000, 0.3062499999999996336 ) ) ;
#172 = CONICAL_SURFACE ( 'NONE', #366, 0.3540741737109293075, 0.2617993877991426355 ) ;
#173 = DIRECTION ( 'NONE',  ( 1.000000000000000000, 0.000000000000000000, -4.625929269271490844E-15 ) ) ;
#174 = LOCAL_TIME ( 10, 31, 43.00000000000000000, #208 ) ;
#175 = APPROVAL_ROLE ( '' ) ;
#176 = ORIENTED_EDGE ( 'NONE', *, *, #189, .F. ) ;
#177 = APPROVAL_DATE_TIME ( #210, #44 ) ;
#178 = ORIENTED_EDGE ( 'NONE', *, *, #310, .F. ) ;
#179 = PERSON_AND_ORGANIZATION ( #337, #354 ) ;
#180 = EDGE_CURVE ( 'NONE', #361, #361, #96, .T. ) ;
#181 = DIRECTION ( 'NONE',  ( 3.491481338843133355E-15, -0.000000000000000000, 1.000000000000000000 ) ) ;
#182 = CALENDAR_DATE ( 2023, 27, 9 ) ;
#183 = APPROVAL_PERSON_ORGANIZATION ( #55, #338, #25 ) ;
#184 = DIRECTION ( 'NONE',  ( -1.000000000000000000, 0.000000000000000000, 3.491481338843133355E-15 ) ) ;
#185 = EDGE_CURVE ( 'NONE', #90, #90, #57, .T. ) ;
#186 = DIRECTION ( 'NONE',  ( 3.491481338843133355E-15, -0.000000000000000000, 1.000000000000000000 ) ) ;
#187 = CARTESIAN_POINT ( 'NONE',  ( 1.374770777169477842E-15, 0.000000000000000000, 0.3937499999999982681 ) ) ;
#188 = CC_DESIGN_PERSON_AND_ORGANIZATION_ASSIGNMENT ( #153, #359, ( #116 ) ) ;
#189 = EDGE_CURVE ( 'NONE', #86, #86, #130, .T. ) ;
#190 = FACE_OUTER_BOUND ( 'NONE', #145, .T. ) ;
#191 = LOCAL_TIME ( 10, 31, 43.00000000000000000, #386 ) ;
#192 = VERTEX_POINT ( 'NONE', #346 ) ;
#193 = DIRECTION ( 'NONE',  ( 1.000000000000000000, 0.000000000000000000, -2.449661122972862797E-15 ) ) ;
#194 = CARTESIAN_POINT ( 'NONE',  ( 1.200000000000126299, 0.000000000000000000, 37.99999999999999289 ) ) ;
#195 = CIRCLE ( 'NONE', #232, 0.5949999999999998623 ) ;
#196 = DIRECTION ( 'NONE',  ( 1.000000000000000000, 0.000000000000000000, 0.000000000000000000 ) ) ;
#197 = ORIENTED_EDGE ( 'NONE', *, *, #134, .T. ) ;
#198 = CONICAL_SURFACE ( 'NONE', #87, 1.499999999999996447, 0.7853981633974501664 ) ;
#199 = DIRECTION ( 'NONE',  ( 1.000000000000000000, 0.000000000000000000, -3.507712910982514647E-15 ) ) ;
#200 = EDGE_LOOP ( 'NONE', ( #143 ) ) ;
#201 = DIRECTION ( 'NONE',  ( 0.000000000000000000, 0.000000000000000000, 1.000000000000000000 ) ) ;
#202 = FACE_OUTER_BOUND ( 'NONE', #45, .T. ) ;
#203 = VERTEX_POINT ( 'NONE', #319 ) ;
#204 = ORIENTED_EDGE ( 'NONE', *, *, #102, .T. ) ;
#205 = AXIS2_PLACEMENT_3D ( 'NONE', #371, #314, #144 ) ;
#206 = EDGE_LOOP ( 'NONE', ( #107 ) ) ;
#207 = CYLINDRICAL_SURFACE ( 'NONE', #212, 1.499999999999998224 ) ;
#208 = COORDINATED_UNIVERSAL_TIME_OFFSET ( 1, 0, .AHEAD. ) ;
#209 = FACE_BOUND ( 'NONE', #109, .T. ) ;
#210 = DATE_AND_TIME ( #290, #191 ) ;
#211 = VERTEX_POINT ( 'NONE', #330 ) ;
#212 = AXIS2_PLACEMENT_3D ( 'NONE', #23, #152, #173 ) ;
#213 = DIRECTION ( 'NONE',  ( 3.491481338843133355E-15, -0.000000000000000000, 1.000000000000000000 ) ) ;
#214 = CARTESIAN_POINT ( 'NONE',  ( 2.444036937190193349E-15, 0.3929274057836295575, 0.6999999999999999556 ) ) ;
#215 = ADVANCED_FACE ( 'NONE', ( #27, #263 ), #172, .T. ) ;
#216 = DIRECTION ( 'NONE',  ( 3.491481338843133355E-15, -0.000000000000000000, 1.000000000000000000 ) ) ;
#217 = AXIS2_PLACEMENT_3D ( 'NONE', #56, #331, #162 ) ;
#218 = CIRCLE ( 'NONE', #299, 0.5949999999999999734 ) ;
#219 = CARTESIAN_POINT ( 'NONE',  ( 1.326762908760390423E-13, 0.000000000000000000, 38.00000000000000000 ) ) ;
#220 = DIRECTION ( 'NONE',  ( 3.491481338843133355E-15, -0.000000000000000000, 1.000000000000000000 ) ) ;
#221 = EDGE_CURVE ( 'NONE', #203, #203, #266, .T. ) ;
#222 = FACE_OUTER_BOUND ( 'NONE', #49, .T. ) ;
#223 = ORIENTED_EDGE ( 'NONE', *, *, #75, .T. ) ;
#224 = CONICAL_SURFACE ( 'NONE', #160, 0.3929274057836295575, 1.047197551196596521 ) ;
#225 = PLANE ( 'NONE',  #305 ) ;
#226 = FACE_OUTER_BOUND ( 'NONE', #370, .T. ) ;
#227 = PRODUCT_RELATED_PRODUCT_CATEGORY ( 'detail', '', ( #116 ) ) ;
#228 = DIRECTION ( 'NONE',  ( 1.000000000000000000, 0.000000000000000000, -3.491481338843133355E-15 ) ) ;
#229 = EDGE_LOOP ( 'NONE', ( #282 ) ) ;
#230 = COORDINATED_UNIVERSAL_TIME_OFFSET ( 1, 0, .AHEAD. ) ;
#231 = EDGE_LOOP ( 'NONE', ( #36 ) ) ;
#232 = AXIS2_PLACEMENT_3D ( 'NONE', #389, #125, #313 ) ;
#233 = ORIENTED_EDGE ( 'NONE', *, *, #240, .F. ) ;
#234 = APPROVAL_ROLE ( '' ) ;
#235 = EDGE_LOOP ( 'NONE', ( #353 ) ) ;
#236 = DIRECTION ( 'NONE',  ( 3.491481338843133355E-15, -0.000000000000000000, 1.000000000000000000 ) ) ;
#237 = FACE_OUTER_BOUND ( 'NONE', #304, .T. ) ;
#238 = DIRECTION ( 'NONE',  ( 3.491481338843133355E-15, -0.000000000000000000, 1.000000000000000000 ) ) ;
#239 = VERTEX_POINT ( 'NONE', #365 ) ;
#240 = EDGE_CURVE ( 'NONE', #372, #372, #241, .T. ) ;
#241 = CIRCLE ( 'NONE', #321, 0.3199999999999995626 ) ;
#242 = ADVANCED_FACE ( 'NONE', ( #110, #202 ), #283, .T. ) ;
#243 = CARTESIAN_POINT ( 'NONE',  ( 1.326762908760390423E-13, 1.199999999999993516, 38.00000000000000000 ) ) ;
#244 = AXIS2_PLACEMENT_3D ( 'NONE', #133, #238, #364 ) ;
#245 = APPLICATION_PROTOCOL_DEFINITION ( 'international standard', 'config_control_design', 1994, #131 ) ;
#246 = CARTESIAN_POINT ( 'NONE',  ( 6.619266704890104357E-16, 0.000000000000000000, 0.1895833333333332704 ) ) ;
#247 = AXIS2_PLACEMENT_3D ( 'NONE', #343, #280, #276 ) ;
#248 =( NAMED_UNIT ( * ) SI_UNIT ( $, .STERADIAN. ) SOLID_ANGLE_UNIT ( ) );
#249 = DIRECTION ( 'NONE',  ( -1.000000000000000000, 0.000000000000000000, 4.625929269271496366E-15 ) ) ;
#250 = DIRECTION ( 'NONE',  ( 1.000000000000000000, 0.000000000000000000, 0.000000000000000000 ) ) ;
#251 = ORIENTED_EDGE ( 'NONE', *, *, #240, .T. ) ;
#252 = CONICAL_SURFACE ( 'NONE', #244, 0.3171501829524911442, 1.047197551196591414 ) ;
#253 = DIRECTION ( 'NONE',  ( 1.000000000000000000, 0.000000000000000000, -2.710505431213764635E-15 ) ) ;
#254 = EDGE_LOOP ( 'NONE', ( #270 ) ) ;
#255 = PERSON_AND_ORGANIZATION ( #337, #354 ) ;
#256 = CARTESIAN_POINT ( 'NONE',  ( 0.3200000000000024492, 0.000000000000000000, 0.6999999999999981792 ) ) ;
#257 = EDGE_LOOP ( 'NONE', ( #204 ) ) ;
#258 = ADVANCED_FACE ( 'NONE', ( #78 ), #139, .F. ) ;
#259 = ORIENTED_EDGE ( 'NONE', *, *, #134, .F. ) ;
#260 = SECURITY_CLASSIFICATION_LEVEL ( 'unclassified' ) ;
#261 = AXIS2_PLACEMENT_3D ( 'NONE', #362, #216, #335 ) ;
#262 = APPROVAL_PERSON_ORGANIZATION ( #179, #44, #175 ) ;
#263 = FACE_BOUND ( 'NONE', #22, .T. ) ;
#264 = PERSON_AND_ORGANIZATION ( #337, #354 ) ;
#265 = FACE_BOUND ( 'NONE', #169, .T. ) ;
#266 = CIRCLE ( 'NONE', #151, 0.3540741737109293075 ) ;
#267 = CARTESIAN_POINT ( 'NONE',  ( 1.316288464743861212E-13, 0.000000000000000000, 37.69999999999999574 ) ) ;
#268 = LOCAL_TIME ( 10, 31, 43.00000000000000000, #328 ) ;
#269 = CC_DESIGN_PERSON_AND_ORGANIZATION_ASSIGNMENT ( #255, #128, ( #40 ) ) ;
#270 = ORIENTED_EDGE ( 'NONE', *, *, #185, .F. ) ;
#271 = DIRECTION ( 'NONE',  ( 1.000000000000000000, 0.000000000000000000, -3.449117306806457569E-15 ) ) ;
#272 = EDGE_CURVE ( 'NONE', #105, #105, #111, .T. ) ;
#273 = ORIENTED_EDGE ( 'NONE', *, *, #221, .T. ) ;
#274 = DIRECTION ( 'NONE',  ( 3.491481338843133355E-15, -0.000000000000000000, 1.000000000000000000 ) ) ;
#275 = CC_DESIGN_DATE_AND_TIME_ASSIGNMENT ( #357, #150, ( #307 ) ) ;
#276 = DIRECTION ( 'NONE',  ( 1.000000000000000000, 0.000000000000000000, 0.000000000000000000 ) ) ;
#277 = FACE_OUTER_BOUND ( 'NONE', #385, .T. ) ;
#278 = CIRCLE ( 'NONE', #98, 0.5949999999999998623 ) ;
#279 = ORIENTED_EDGE ( 'NONE', *, *, #180, .F. ) ;
#280 = DIRECTION ( 'NONE',  ( 3.491481338843133355E-15, -0.000000000000000000, 1.000000000000000000 ) ) ;
#281 = ADVANCED_FACE ( 'NONE', ( #19, #163 ), #198, .T. ) ;
#282 = ORIENTED_EDGE ( 'NONE', *, *, #303, .F. ) ;
#283 = CYLINDRICAL_SURFACE ( 'NONE', #33, 0.3199999999999997291 ) ;
#284 = EDGE_LOOP ( 'NONE', ( #176 ) ) ;
#285 = CIRCLE ( 'NONE', #345, 0.3929274057836296130 ) ;
#286 = DIRECTION ( 'NONE',  ( 1.000000000000000000, 0.000000000000000000, -5.782411586589388010E-15 ) ) ;
#287 = ORIENTED_EDGE ( 'NONE', *, *, #327, .F. ) ;
#288 = PRODUCT_DEFINITION_SHAPE ( 'NONE', 'NONE',  #307 ) ;
#289 = ORIENTED_EDGE ( 'NONE', *, *, #2, .F. ) ;
#290 = CALENDAR_DATE ( 2023, 27, 9 ) ;
#291 = ORIENTED_EDGE ( 'NONE', *, *, #272, .F. ) ;
#292 = APPROVAL_STATUS ( 'not_yet_approved' ) ;
#293 = DIRECTION ( 'NONE',  ( 1.000000000000000000, 0.000000000000000000, -3.587081999078715714E-15 ) ) ;
#294 = AXIS2_PLACEMENT_3D ( 'NONE', #67, #374, #11 ) ;
#295 = DATE_AND_TIME ( #18, #174 ) ;
#296 = VERTEX_POINT ( 'NONE', #29 ) ;
#297 = CARTESIAN_POINT ( 'NONE',  ( 5.600917981060968883E-16, 0.000000000000000000, 0.1604166666666698160 ) ) ;
#298 = DIRECTION ( 'NONE',  ( 1.000000000000000000, 0.000000000000000000, -3.449117306806457175E-15 ) ) ;
#299 = AXIS2_PLACEMENT_3D ( 'NONE', #297, #236, #391 ) ;
#300 = ADVANCED_FACE ( 'NONE', ( #277, #308 ), #37, .T. ) ;
#301 = CIRCLE ( 'NONE', #341, 0.3171501829524911442 ) ;
#302 = CARTESIAN_POINT ( 'NONE',  ( 1.374770777169477842E-15, 0.000000000000000000, 0.3937499999999982681 ) ) ;
#303 = EDGE_CURVE ( 'NONE', #71, #71, #312, .T. ) ;
#304 = EDGE_LOOP ( 'NONE', ( #35 ) ) ;
#305 = AXIS2_PLACEMENT_3D ( 'NONE', #243, #342, #47 ) ;
#306 = CARTESIAN_POINT ( 'NONE',  ( 2.444036937190190588E-15, 0.000000000000000000, 0.6999999999999992895 ) ) ;
#307 = PRODUCT_DEFINITION ( 'UNKNOWN', '', #40, #66 ) ;
#308 = FACE_OUTER_BOUND ( 'NONE', #257, .T. ) ;
#309 = DIRECTION ( 'NONE',  ( 3.491481338843133355E-15, -0.000000000000000000, 1.000000000000000000 ) ) ;
#310 = EDGE_CURVE ( 'NONE', #124, #124, #26, .T. ) ;
#311 = FACE_OUTER_BOUND ( 'NONE', #84, .T. ) ;
#312 = CIRCLE ( 'NONE', #76, 1.199999999999993516 ) ;
#313 = DIRECTION ( 'NONE',  ( 1.000000000000000000, 0.000000000000000000, -3.462158197852872240E-15 ) ) ;
#314 = DIRECTION ( 'NONE',  ( 3.491481338843133355E-15, -0.000000000000000000, 1.000000000000000000 ) ) ;
#315 = EDGE_LOOP ( 'NONE', ( #323 ) ) ;
#316 = DATE_TIME_ROLE ( 'classification_date' ) ;
#317 = CARTESIAN_POINT ( 'NONE',  ( 1.316288464743861212E-13, 0.000000000000000000, 37.69999999999999574 ) ) ;
#318 = ADVANCED_FACE ( 'NONE', ( #41, #106 ), #10, .T. ) ;
#319 = CARTESIAN_POINT ( 'NONE',  ( 0.3540741737109480147, 0.000000000000000000, 5.358819045102511502 ) ) ;
#320 = ORIENTED_EDGE ( 'NONE', *, *, #180, .T. ) ;
#321 = AXIS2_PLACEMENT_3D ( 'NONE', #381, #43, #253 ) ;
#322 = EDGE_LOOP ( 'NONE', ( #197 ) ) ;
#323 = ORIENTED_EDGE ( 'NONE', *, *, #7, .F. ) ;
#324 = DATE_AND_TIME ( #388, #132 ) ;
#325 = CARTESIAN_POINT ( 'NONE',  ( 1.326762908760390423E-13, 0.000000000000000000, 38.00000000000000000 ) ) ;
#326 = APPLICATION_CONTEXT ( 'configuration controlled 3d designs of mechanical parts and assemblies' ) ;
#327 = EDGE_CURVE ( 'NONE', #211, #211, #301, .T. ) ;
#328 = COORDINATED_UNIVERSAL_TIME_OFFSET ( 1, 0, .AHEAD. ) ;
#329 = CONICAL_SURFACE ( 'NONE', #39, 0.5949999999999998623, 1.047197551196622278 ) ;
#330 = CARTESIAN_POINT ( 'NONE',  ( 0.3171501829524911442, 0.000000000000000000, -1.107323945389308472E-15 ) ) ;
#331 = DIRECTION ( 'NONE',  ( 3.491481338843133355E-15, -0.000000000000000000, 1.000000000000000000 ) ) ;
#332 = CC_DESIGN_APPROVAL ( #44, ( #307 ) ) ;
#333 = SECURITY_CLASSIFICATION ( '', '', #260 ) ;
#334 = CARTESIAN_POINT ( 'NONE',  ( 0.3929274057836309453, 0.000000000000000000, 0.3937499999999969358 ) ) ;
#335 = DIRECTION ( 'NONE',  ( 1.000000000000000000, 0.000000000000000000, 0.000000000000000000 ) ) ;
#336 = DIRECTION ( 'NONE',  ( 3.491481338843133355E-15, -0.000000000000000000, 1.000000000000000000 ) ) ;
#337 = PERSON ( 'UNSPECIFIED', 'UNSPECIFIED', 'UNSPECIFIED', ('UNSPECIFIED'), ('UNSPECIFIED'), ('UNSPECIFIED') ) ;
#338 = APPROVAL ( #292, 'UNSPECIFIED' ) ;
#339 = DIRECTION ( 'NONE',  ( 3.491481338843133355E-15, -0.000000000000000000, 1.000000000000000000 ) ) ;
#340 = AXIS2_PLACEMENT_3D ( 'NONE', #91, #181, #293 ) ;
#341 = AXIS2_PLACEMENT_3D ( 'NONE', #168, #70, #228 ) ;
#342 = DIRECTION ( 'NONE',  ( -3.491481338843133355E-15, 0.000000000000000000, -1.000000000000000000 ) ) ;
#343 = CARTESIAN_POINT ( 'NONE',  ( 1.326762908760390423E-13, 0.000000000000000000, 38.00000000000000000 ) ) ;
#344 = VERTEX_POINT ( 'NONE', #164 ) ;
#345 = AXIS2_PLACEMENT_3D ( 'NONE', #156, #186, #298 ) ;
#346 = CARTESIAN_POINT ( 'NONE',  ( 1.500000000000033751, 0.000000000000000000, 9.635472450518783205 ) ) ;
#347 = AXIS2_PLACEMENT_3D ( 'NONE', #118, #201, #89 ) ;
#348 = ORIENTED_EDGE ( 'NONE', *, *, #310, .T. ) ;
#349 = EDGE_CURVE ( 'NONE', #239, #239, #278, .T. ) ;
#350 = CALENDAR_DATE ( 2023, 27, 9 ) ;
#351 = VERTEX_POINT ( 'NONE', #171 ) ;
#352 = PERSON_AND_ORGANIZATION_ROLE ( 'creator' ) ;
#353 = ORIENTED_EDGE ( 'NONE', *, *, #2, .T. ) ;
#354 = ORGANIZATION ( 'UNSPECIFIED', 'UNSPECIFIED', '' ) ;
#355 = UNCERTAINTY_MEASURE_WITH_UNIT (LENGTH_MEASURE( 1.000000000000000082E-05 ), #69, 'distance_accuracy_value', 'NONE');
#356 = EDGE_LOOP ( 'NONE', ( #289 ) ) ;
#357 = DATE_AND_TIME ( #182, #268 ) ;
#358 = CARTESIAN_POINT ( 'NONE',  ( 1.883945139084117760E-15, 0.000000000000000000, 0.5395833333333364124 ) ) ;
#359 = PERSON_AND_ORGANIZATION_ROLE ( 'design_owner' ) ;
#360 = FACE_OUTER_BOUND ( 'NONE', #54, .T. ) ;
#361 = VERTEX_POINT ( 'NONE', #334 ) ;
#362 = CARTESIAN_POINT ( 'NONE',  ( 1.326762908760390423E-13, 0.000000000000000000, 38.00000000000000000 ) ) ;
#363 = CC_DESIGN_APPROVAL ( #338, ( #333 ) ) ;
#364 = DIRECTION ( 'NONE',  ( 1.000000000000000000, 0.000000000000000000, -3.491481338843133355E-15 ) ) ;
#365 = CARTESIAN_POINT ( 'NONE',  ( 0.5950000000000015277, 0.000000000000000000, 0.5104166666666638541 ) ) ;
#366 = AXIS2_PLACEMENT_3D ( 'NONE', #126, #213, #30 ) ;
#367 = AXIS2_PLACEMENT_3D ( 'NONE', #376, #72, #108 ) ;
#368 = ORIENTED_EDGE ( 'NONE', *, *, #189, .T. ) ;
#369 = FACE_BOUND ( 'NONE', #254, .T. ) ;
#370 = EDGE_LOOP ( 'NONE', ( #251 ) ) ;
#371 = CARTESIAN_POINT ( 'NONE',  ( 1.203170936273400134E-33, 0.000000000000000000, 3.446018521960820848E-19 ) ) ;
#372 = VERTEX_POINT ( 'NONE', #48 ) ;
#373 = AXIS2_PLACEMENT_3D ( 'NONE', #38, #377, #250 ) ;
#374 = DIRECTION ( 'NONE',  ( 3.491481338843133355E-15, -0.000000000000000000, 1.000000000000000000 ) ) ;
#375 = ADVANCED_FACE ( 'NONE', ( #311, #166 ), #104, .T. ) ;
#376 = CARTESIAN_POINT ( 'NONE',  ( 6.619266704890104357E-16, 0.000000000000000000, 0.1895833333333332704 ) ) ;
#377 = DIRECTION ( 'NONE',  ( 3.491481338843133355E-15, -0.000000000000000000, 1.000000000000000000 ) ) ;
#378 = ORIENTED_EDGE ( 'NONE', *, *, #185, .T. ) ;
#379 = ADVANCED_FACE ( 'NONE', ( #222 ), #225, .F. ) ;
#380 = MANIFOLD_SOLID_BREP ( 'Corps-Déplacer/Copier1', #85 ) ;
#381 = CARTESIAN_POINT ( 'NONE',  ( 1.780655482809998011E-14, 0.000000000000000000, 5.100000000000000533 ) ) ;
#382 = CC_DESIGN_APPROVAL ( #135, ( #40 ) ) ;
#383 = FACE_OUTER_BOUND ( 'NONE', #200, .T. ) ;
#384 = PERSON_AND_ORGANIZATION ( #337, #354 ) ;
#385 = EDGE_LOOP ( 'NONE', ( #291 ) ) ;
#386 = COORDINATED_UNIVERSAL_TIME_OFFSET ( 1, 0, .AHEAD. ) ;
#387 = EDGE_LOOP ( 'NONE', ( #223 ) ) ;
#388 = CALENDAR_DATE ( 2023, 27, 9 ) ;
#389 = CARTESIAN_POINT ( 'NONE',  ( 1.883945139084117760E-15, 0.000000000000000000, 0.5395833333333364124 ) ) ;
#390 = MECHANICAL_CONTEXT ( 'NONE', #131, 'mechanical' ) ;
#391 = DIRECTION ( 'NONE',  ( 1.000000000000000000, 0.000000000000000000, -3.507712910982514647E-15 ) ) ;
#392 = COORDINATED_UNIVERSAL_TIME_OFFSET ( 1, 0, .AHEAD. ) ;
#393 = PLANE ( 'NONE',  #394 ) ;
#394 = AXIS2_PLACEMENT_3D ( 'NONE', #214, #103, #184 ) ;
#395 = FACE_OUTER_BOUND ( 'NONE', #231, .T. ) ;
ENDSEC;
END-ISO-10303-21;
