ISO-10303-21;
HEADER;
FILE_DESCRIPTION (( 'STEP AP203' ),
    '1' );
FILE_NAME ('961180.step',
    '2023-09-27T08:31:43',
    ( '' ),
    ( '' ),
    'SwSTEP 2.0',
    'SolidWorks 2022',
    '' );
FILE_SCHEMA (( 'CONFIG_CONTROL_DESIGN' ));
ENDSEC;

DATA;
#1 = DIRECTION ( 'NONE',  ( -1.000000000000000000, 0.000000000000000000, 4.625929269271496366E-15 ) ) ;
#2 = APPROVAL_DATE_TIME ( #280, #45 ) ;
#3 = DIRECTION ( 'NONE',  ( 3.491481338843133355E-15, -0.000000000000000000, 1.000000000000000000 ) ) ;
#4 = APPLICATION_PROTOCOL_DEFINITION ( 'international standard', 'config_control_design', 1994, #391 ) ;
#5 = AXIS2_PLACEMENT_3D ( 'NONE', #134, #95, #309 ) ;
#6 = DIRECTION ( 'NONE',  ( 1.000000000000000000, 0.000000000000000000, -3.469446951953614189E-15 ) ) ;
#7 = ORIENTED_EDGE ( 'NONE', *, *, #346, .T. ) ;
#8 = COORDINATED_UNIVERSAL_TIME_OFFSET ( 1, 0, .AHEAD. ) ;
#9 = DIRECTION ( 'NONE',  ( 1.000000000000000000, 0.000000000000000000, 0.000000000000000000 ) ) ;
#10 = DIRECTION ( 'NONE',  ( -3.491481338843133355E-15, 0.000000000000000000, -1.000000000000000000 ) ) ;
#11 = TOROIDAL_SURFACE ( 'NONE', #201, 1.289999999999999591, 1.000000000000000000 ) ;
#12 = AXIS2_PLACEMENT_3D ( 'NONE', #120, #87, #365 ) ;
#13 = CC_DESIGN_PERSON_AND_ORGANIZATION_ASSIGNMENT ( #373, #128, ( #313 ) ) ;
#14 = CARTESIAN_POINT ( 'NONE',  ( 0.3517949192431125138, 0.000000000000000000, 0.3374999999999963030 ) ) ;
#15 = FACE_OUTER_BOUND ( 'NONE', #179, .T. ) ;
#16 = EDGE_LOOP ( 'NONE', ( #113 ) ) ;
#17 = LOCAL_TIME ( 10, 31, 43.00000000000000000, #8 ) ;
#18 = ORIENTED_EDGE ( 'NONE', *, *, #361, .T. ) ;
#19 = DIRECTION ( 'NONE',  ( 3.491481338843133355E-15, -0.000000000000000000, 1.000000000000000000 ) ) ;
#20 = DIRECTION ( 'NONE',  ( 1.000000000000000000, 0.000000000000000000, -2.676429682922160140E-15 ) ) ;
#21 = AXIS2_PLACEMENT_3D ( 'NONE', #285, #10, #354 ) ;
#22 = CARTESIAN_POINT ( 'NONE',  ( 0.3517949192431134020, 0.000000000000000000, 0.6000000000000020872 ) ) ;
#23 = MANIFOLD_SOLID_BREP ( 'Corps-Déplacer/Copier1', #340 ) ;
#24 = APPROVAL ( #255, 'UNSPECIFIED' ) ;
#25 = FACE_BOUND ( 'NONE', #238, .T. ) ;
#26 = ADVANCED_FACE ( 'NONE', ( #15, #154 ), #11, .F. ) ;
#27 = CARTESIAN_POINT ( 'NONE',  ( 1.614810119214940894E-15, 0.000000000000000000, 0.4624999999999976352 ) ) ;
#28 = VERTEX_POINT ( 'NONE', #157 ) ;
#29 = CARTESIAN_POINT ( 'NONE',  ( 5.320174957037205892E-34, 0.000000000000000000, 1.523758668806172439E-19 ) ) ;
#30 = PERSON_AND_ORGANIZATION_ROLE ( 'classification_officer' ) ;
#31 = CC_DESIGN_APPROVAL ( #45, ( #313 ) ) ;
#32 = FACE_OUTER_BOUND ( 'NONE', #266, .T. ) ;
#33 = DATE_AND_TIME ( #315, #241 ) ;
#34 = DIRECTION ( 'NONE',  ( -3.491481338843133355E-15, 0.000000000000000000, -1.000000000000000000 ) ) ;
#35 = APPROVAL_ROLE ( '' ) ;
#36 = FACE_OUTER_BOUND ( 'NONE', #146, .T. ) ;
#37 = EDGE_LOOP ( 'NONE', ( #202 ) ) ;
#38 = SHAPE_DEFINITION_REPRESENTATION ( #302, #232 ) ;
#39 = ADVANCED_FACE ( 'NONE', ( #276, #54 ), #326, .T. ) ;
#40 = CARTESIAN_POINT ( 'NONE',  ( 1.326762908760390423E-13, 0.000000000000000000, 38.00000000000000000 ) ) ;
#41 = ORIENTED_EDGE ( 'NONE', *, *, #353, .T. ) ;
#42 = ADVANCED_FACE ( 'NONE', ( #53, #335 ), #61, .T. ) ;
#43 = CARTESIAN_POINT ( 'NONE',  ( 3.193809502112483336E-14, 0.000000000000000000, 9.147433974745856844 ) ) ;
#44 = VERTEX_POINT ( 'NONE', #175 ) ;
#45 = APPROVAL ( #371, 'UNSPECIFIED' ) ;
#46 = AXIS2_PLACEMENT_3D ( 'NONE', #172, #34, #259 ) ;
#47 = AXIS2_PLACEMENT_3D ( 'NONE', #378, #337, #347 ) ;
#48 = EDGE_LOOP ( 'NONE', ( #322 ) ) ;
#49 = ORIENTED_EDGE ( 'NONE', *, *, #162, .F. ) ;
#50 = PRODUCT ( '961180', '961180', '', ( #343 ) ) ;
#51 = ORIENTED_EDGE ( 'NONE', *, *, #102, .T. ) ;
#52 = AXIS2_PLACEMENT_3D ( 'NONE', #40, #3, #105 ) ;
#53 = FACE_OUTER_BOUND ( 'NONE', #48, .T. ) ;
#54 = FACE_OUTER_BOUND ( 'NONE', #204, .T. ) ;
#55 = ADVANCED_FACE ( 'NONE', ( #121 ), #303, .F. ) ;
#56 = DIRECTION ( 'NONE',  ( 3.491481338843133355E-15, -0.000000000000000000, 1.000000000000000000 ) ) ;
#57 = ADVANCED_FACE ( 'NONE', ( #252, #25 ), #380, .T. ) ;
#58 = CARTESIAN_POINT ( 'NONE',  ( 1.326762908760390423E-13, 1.199999999999993516, 38.00000000000000000 ) ) ;
#59 = APPLICATION_CONTEXT ( 'configuration controlled 3d designs of mechanical parts and assemblies' ) ;
#60 = VERTEX_POINT ( 'NONE', #328 ) ;
#61 = CYLINDRICAL_SURFACE ( 'NONE', #137, 0.2899999999999997580 ) ;
#62 =( NAMED_UNIT ( * ) PLANE_ANGLE_UNIT ( ) SI_UNIT ( $, .RADIAN. ) );
#63 = FACE_OUTER_BOUND ( 'NONE', #234, .T. ) ;
#64 = CIRCLE ( 'NONE', #222, 0.2899999999999999800 ) ;
#65 = FACE_OUTER_BOUND ( 'NONE', #249, .T. ) ;
#66 = PERSON_AND_ORGANIZATION_ROLE ( 'creator' ) ;
#67 = DIRECTION ( 'NONE',  ( 1.000000000000000000, 0.000000000000000000, -3.491481338843133355E-15 ) ) ;
#68 = APPROVAL_STATUS ( 'not_yet_approved' ) ;
#69 = FACE_BOUND ( 'NONE', #383, .T. ) ;
#70 = ORIENTED_EDGE ( 'NONE', *, *, #361, .F. ) ;
#71 = APPLICATION_PROTOCOL_DEFINITION ( 'international standard', 'config_control_design', 1994, #59 ) ;
#72 = CARTESIAN_POINT ( 'NONE',  ( 5.673657175620194254E-16, 0.000000000000000000, 0.1625000000000029199 ) ) ;
#73 = CIRCLE ( 'NONE', #357, 1.499999999999996447 ) ;
#74 = PRODUCT_RELATED_PRODUCT_CATEGORY ( 'detail', '', ( #50 ) ) ;
#75 = VERTEX_POINT ( 'NONE', #288 ) ;
#76 = EDGE_LOOP ( 'NONE', ( #268 ) ) ;
#77 = AXIS2_PLACEMENT_3D ( 'NONE', #333, #368, #296 ) ;
#78 = EDGE_LOOP ( 'NONE', ( #18 ) ) ;
#79 = PRODUCT_DEFINITION ( 'UNKNOWN', '', #313, #209 ) ;
#80 = FACE_OUTER_BOUND ( 'NONE', #16, .T. ) ;
#81 = EDGE_LOOP ( 'NONE', ( #386 ) ) ;
#82 = ORIENTED_EDGE ( 'NONE', *, *, #228, .T. ) ;
#83 = ORGANIZATION ( 'UNSPECIFIED', 'UNSPECIFIED', '' ) ;
#84 = AXIS2_PLACEMENT_3D ( 'NONE', #327, #363, #244 ) ;
#85 = PLANE ( 'NONE',  #384 ) ;
#86 = ADVANCED_FACE ( 'NONE', ( #246, #158 ), #207, .T. ) ;
#87 = DIRECTION ( 'NONE',  ( 3.491481338843133355E-15, -0.000000000000000000, 1.000000000000000000 ) ) ;
#88 = DIRECTION ( 'NONE',  ( 3.491481338843133355E-15, -0.000000000000000000, 1.000000000000000000 ) ) ;
#89 = VERTEX_POINT ( 'NONE', #331 ) ;
#90 = AXIS2_PLACEMENT_3D ( 'NONE', #273, #277, #185 ) ;
#91 = DIRECTION ( 'NONE',  ( -3.491481338843133355E-15, 0.000000000000000000, -1.000000000000000000 ) ) ;
#92 = CALENDAR_DATE ( 2023, 27, 9 ) ;
#93 = CARTESIAN_POINT ( 'NONE',  ( 0.000000000000000000, 0.000000000000000000, 0.000000000000000000 ) ) ;
#94 = APPROVAL_DATE_TIME ( #33, #24 ) ;
#95 = DIRECTION ( 'NONE',  ( 3.491481338843133355E-15, -0.000000000000000000, 1.000000000000000000 ) ) ;
#96 = COORDINATED_UNIVERSAL_TIME_OFFSET ( 1, 0, .AHEAD. ) ;
#97 = LOCAL_TIME ( 10, 31, 43.00000000000000000, #192 ) ;
#98 = PLANE ( 'NONE',  #46 ) ;
#99 = CIRCLE ( 'NONE', #144, 0.5250000000000000222 ) ;
#100 = PERSON_AND_ORGANIZATION_ROLE ( 'design_supplier' ) ;
#101 = DIRECTION ( 'NONE',  ( 3.491481338843133355E-15, -0.000000000000000000, 1.000000000000000000 ) ) ;
#102 = EDGE_CURVE ( 'NONE', #141, #141, #248, .T. ) ;
#103 = ORIENTED_EDGE ( 'NONE', *, *, #168, .T. ) ;
#104 = PERSON_AND_ORGANIZATION ( #298, #83 ) ;
#105 = DIRECTION ( 'NONE',  ( 1.000000000000000000, 0.000000000000000000, -5.782411586589388010E-15 ) ) ;
#106 = CIRCLE ( 'NONE', #123, 0.2899999999999994804 ) ;
#107 = CARTESIAN_POINT ( 'NONE',  ( 1.326762908760390423E-13, 0.000000000000000000, 38.00000000000000000 ) ) ;
#108 = EDGE_LOOP ( 'NONE', ( #356 ) ) ;
#109 = VERTEX_POINT ( 'NONE', #148 ) ;
#110 =( GEOMETRIC_REPRESENTATION_CONTEXT ( 3 ) GLOBAL_UNCERTAINTY_ASSIGNED_CONTEXT ( ( #290 ) ) GLOBAL_UNIT_ASSIGNED_CONTEXT ( ( #153, #62, #251 ) ) REPRESENTATION_CONTEXT ( 'NONE', 'WORKASPACE' ) );
#111 = ORIENTED_EDGE ( 'NONE', *, *, #102, .F. ) ;
#112 = ADVANCED_FACE ( 'NONE', ( #247, #149 ), #387, .T. ) ;
#113 = ORIENTED_EDGE ( 'NONE', *, *, #187, .T. ) ;
#114 = EDGE_CURVE ( 'NONE', #44, #44, #305, .T. ) ;
#115 = ORIENTED_EDGE ( 'NONE', *, *, #126, .F. ) ;
#116 = VERTEX_POINT ( 'NONE', #239 ) ;
#117 = CC_DESIGN_PERSON_AND_ORGANIZATION_ASSIGNMENT ( #261, #196, ( #50 ) ) ;
#118 = CARTESIAN_POINT ( 'NONE',  ( 4.800786840909263990E-16, 0.000000000000000000, 0.1374999999999987343 ) ) ;
#119 = AXIS2_PLACEMENT_3D ( 'NONE', #29, #125, #270 ) ;
#120 = CARTESIAN_POINT ( 'NONE',  ( 1.178374951859548830E-15, 0.000000000000000000, 0.3374999999999975242 ) ) ;
#121 = FACE_OUTER_BOUND ( 'NONE', #76, .T. ) ;
#122 = CARTESIAN_POINT ( 'NONE',  ( 1.963958253099264484E-15, 0.000000000000000000, 0.5625000000000004441 ) ) ;
#123 = AXIS2_PLACEMENT_3D ( 'NONE', #186, #374, #342 ) ;
#124 = CIRCLE ( 'NONE', #52, 1.199999999999993516 ) ;
#125 = DIRECTION ( 'NONE',  ( 3.491481338843133355E-15, -0.000000000000000000, 1.000000000000000000 ) ) ;
#126 = EDGE_CURVE ( 'NONE', #319, #319, #316, .T. ) ;
#127 = CARTESIAN_POINT ( 'NONE',  ( 1.527523085743872223E-15, 0.000000000000000000, 0.4375000000000003886 ) ) ;
#128 = PERSON_AND_ORGANIZATION_ROLE ( 'creator' ) ;
#129 = FACE_OUTER_BOUND ( 'NONE', #314, .T. ) ;
#130 = CALENDAR_DATE ( 2023, 27, 9 ) ;
#131 = DIRECTION ( 'NONE',  ( 3.491481338843133355E-15, -0.000000000000000000, 1.000000000000000000 ) ) ;
#132 = EDGE_LOOP ( 'NONE', ( #103 ) ) ;
#133 = CARTESIAN_POINT ( 'NONE',  ( 0.000000000000000000, 0.000000000000000000, 0.000000000000000000 ) ) ;
#134 = CARTESIAN_POINT ( 'NONE',  ( 1.661532789090671330E-14, 0.000000000000000000, 4.758819045102509193 ) ) ;
#135 = ADVANCED_FACE ( 'NONE', ( #389 ), #85, .F. ) ;
#136 = CARTESIAN_POINT ( 'NONE',  ( 1.326762908760390423E-13, 0.000000000000000000, 38.00000000000000000 ) ) ;
#137 = AXIS2_PLACEMENT_3D ( 'NONE', #155, #393, #392 ) ;
#138 = CARTESIAN_POINT ( 'NONE',  ( 1.500000000000127898, 0.000000000000000000, 37.69999999999998863 ) ) ;
#139 = EDGE_LOOP ( 'NONE', ( #115 ) ) ;
#140 = ORIENTED_EDGE ( 'NONE', *, *, #156, .F. ) ;
#141 = VERTEX_POINT ( 'NONE', #180 ) ;
#142 = CIRCLE ( 'NONE', #230, 0.5250000000000000222 ) ;
#143 = ORIENTED_EDGE ( 'NONE', *, *, #152, .T. ) ;
#144 = AXIS2_PLACEMENT_3D ( 'NONE', #127, #165, #344 ) ;
#145 = VERTEX_POINT ( 'NONE', #138 ) ;
#146 = EDGE_LOOP ( 'NONE', ( #49 ) ) ;
#147 = APPROVAL ( #68, 'UNSPECIFIED' ) ;
#148 = CARTESIAN_POINT ( 'NONE',  ( 0.3517949192431121808, 0.000000000000000000, 0.2624999999999976241 ) ) ;
#149 = FACE_OUTER_BOUND ( 'NONE', #376, .T. ) ;
#150 = DIRECTION ( 'NONE',  ( 3.491481338843133355E-15, -0.000000000000000000, 1.000000000000000000 ) ) ;
#151 = CC_DESIGN_APPROVAL ( #147, ( #272 ) ) ;
#152 = EDGE_CURVE ( 'NONE', #293, #293, #360, .T. ) ;
#153 =( LENGTH_UNIT ( ) NAMED_UNIT ( * ) SI_UNIT ( .MILLI., .METRE. ) );
#154 = FACE_OUTER_BOUND ( 'NONE', #352, .T. ) ;
#155 = CARTESIAN_POINT ( 'NONE',  ( 1.326762908760390423E-13, 0.000000000000000000, 38.00000000000000000 ) ) ;
#156 = EDGE_CURVE ( 'NONE', #145, #145, #73, .T. ) ;
#157 = CARTESIAN_POINT ( 'NONE',  ( 0.5250000000000005773, 0.000000000000000000, 0.1625000000000010880 ) ) ;
#158 = FACE_OUTER_BOUND ( 'NONE', #267, .T. ) ;
#159 = AXIS2_PLACEMENT_3D ( 'NONE', #133, #219, #163 ) ;
#160 = APPROVAL_DATE_TIME ( #336, #147 ) ;
#161 = DIRECTION ( 'NONE',  ( 3.491481338843133355E-15, -0.000000000000000000, 1.000000000000000000 ) ) ;
#162 = EDGE_CURVE ( 'NONE', #233, #233, #188, .T. ) ;
#163 = DIRECTION ( 'NONE',  ( 1.000000000000000000, 0.000000000000000000, 0.000000000000000000 ) ) ;
#164 = DIRECTION ( 'NONE',  ( 3.491481338843133355E-15, -0.000000000000000000, 1.000000000000000000 ) ) ;
#165 = DIRECTION ( 'NONE',  ( 3.491481338843133355E-15, -0.000000000000000000, 1.000000000000000000 ) ) ;
#166 = EDGE_LOOP ( 'NONE', ( #140 ) ) ;
#167 = COORDINATED_UNIVERSAL_TIME_OFFSET ( 1, 0, .AHEAD. ) ;
#168 = EDGE_CURVE ( 'NONE', #75, #75, #64, .T. ) ;
#169 = CONICAL_SURFACE ( 'NONE', #21, 0.5250000000000000222, 1.047197551196587861 ) ;
#170 = CARTESIAN_POINT ( 'NONE',  ( 9.165138514463183642E-16, 0.000000000000000000, 0.2624999999999988454 ) ) ;
#171 = PERSON_AND_ORGANIZATION ( #298, #83 ) ;
#172 = CARTESIAN_POINT ( 'NONE',  ( 2.094888803305880013E-15, 0.3517949192431112371, 0.6000000000000000888 ) ) ;
#173 = ADVANCED_FACE ( 'NONE', ( #65, #32 ), #218, .T. ) ;
#174 = AXIS2_PLACEMENT_3D ( 'NONE', #122, #56, #362 ) ;
#175 = CARTESIAN_POINT ( 'NONE',  ( 0.5250000000000004663, 0.000000000000000000, 0.1374999999999969025 ) ) ;
#176 = ORIENTED_EDGE ( 'NONE', *, *, #300, .F. ) ;
#177 = CC_DESIGN_PERSON_AND_ORGANIZATION_ASSIGNMENT ( #221, #66, ( #79 ) ) ;
#178 = ORIENTED_EDGE ( 'NONE', *, *, #152, .F. ) ;
#179 = EDGE_LOOP ( 'NONE', ( #178 ) ) ;
#180 = CARTESIAN_POINT ( 'NONE',  ( 0.3517949192431132910, 0.000000000000000000, 0.5624999999999993339 ) ) ;
#181 = CC_DESIGN_DATE_AND_TIME_ASSIGNMENT ( #308, #282, ( #272 ) ) ;
#182 = CARTESIAN_POINT ( 'NONE',  ( 1.326762908760390423E-13, 0.000000000000000000, 38.00000000000000000 ) ) ;
#183 = DIRECTION ( 'NONE',  ( 3.491481338843133355E-15, -0.000000000000000000, 1.000000000000000000 ) ) ;
#184 = CARTESIAN_POINT ( 'NONE',  ( 1.316288464743861212E-13, 0.000000000000000000, 37.69999999999999574 ) ) ;
#185 = DIRECTION ( 'NONE',  ( 1.000000000000000000, 0.000000000000000000, -4.625929269271490844E-15 ) ) ;
#186 = CARTESIAN_POINT ( 'NONE',  ( 1.571166602479409063E-14, 0.000000000000000000, 4.499999999999997335 ) ) ;
#187 = EDGE_CURVE ( 'NONE', #109, #109, #338, .T. ) ;
#188 = CIRCLE ( 'NONE', #214, 0.5250000000000000222 ) ;
#189 = LOCAL_TIME ( 10, 31, 43.00000000000000000, #167 ) ;
#190 = COORDINATED_UNIVERSAL_TIME_OFFSET ( 1, 0, .AHEAD. ) ;
#191 = DIRECTION ( 'NONE',  ( 3.491481338843133355E-15, -0.000000000000000000, 1.000000000000000000 ) ) ;
#192 = COORDINATED_UNIVERSAL_TIME_OFFSET ( 1, 0, .AHEAD. ) ;
#193 = CARTESIAN_POINT ( 'NONE',  ( 2.094888803305891846E-15, 0.000000000000000000, 0.6000000000000033085 ) ) ;
#194 = FACE_BOUND ( 'NONE', #291, .T. ) ;
#195 = ORIENTED_EDGE ( 'NONE', *, *, #203, .T. ) ;
#196 = PERSON_AND_ORGANIZATION_ROLE ( 'design_owner' ) ;
#197 = DIRECTION ( 'NONE',  ( 3.491481338843133355E-15, -0.000000000000000000, 1.000000000000000000 ) ) ;
#198 = CC_DESIGN_DATE_AND_TIME_ASSIGNMENT ( #377, #284, ( #79 ) ) ;
#199 = AXIS2_PLACEMENT_3D ( 'NONE', #93, #197, #67 ) ;
#200 = ORIENTED_EDGE ( 'NONE', *, *, #114, .T. ) ;
#201 = AXIS2_PLACEMENT_3D ( 'NONE', #206, #19, #275 ) ;
#202 = ORIENTED_EDGE ( 'NONE', *, *, #156, .T. ) ;
#203 = EDGE_CURVE ( 'NONE', #89, #89, #258, .T. ) ;
#204 = EDGE_LOOP ( 'NONE', ( #195 ) ) ;
#205 = CARTESIAN_POINT ( 'NONE',  ( 0.2900000000000151901, 0.000000000000000000, 4.499999999999996447 ) ) ;
#206 = CARTESIAN_POINT ( 'NONE',  ( 1.571166602479410010E-14, 0.000000000000000000, 4.500000000000000000 ) ) ;
#207 = CONICAL_SURFACE ( 'NONE', #77, 0.5250000000000000222, 1.047197551196618059 ) ;
#208 = DIRECTION ( 'NONE',  ( -1.000000000000000000, 0.000000000000000000, 3.491481338843133355E-15 ) ) ;
#209 = DESIGN_CONTEXT ( 'detailed design', #59, 'design' ) ;
#210 = DIRECTION ( 'NONE',  ( 3.491481338843133355E-15, -0.000000000000000000, 1.000000000000000000 ) ) ;
#211 = CC_DESIGN_PERSON_AND_ORGANIZATION_ASSIGNMENT ( #171, #30, ( #272 ) ) ;
#212 = CARTESIAN_POINT ( 'NONE',  ( 0.5250000000000015765, 0.000000000000000000, 0.4374999999999985567 ) ) ;
#213 = DIRECTION ( 'NONE',  ( 1.000000000000000000, 0.000000000000000000, 0.000000000000000000 ) ) ;
#214 = AXIS2_PLACEMENT_3D ( 'NONE', #27, #150, #329 ) ;
#215 = VERTEX_POINT ( 'NONE', #212 ) ;
#216 = DIRECTION ( 'NONE',  ( 1.000000000000000000, 0.000000000000000000, -4.625929269271496366E-15 ) ) ;
#217 = CALENDAR_DATE ( 2023, 27, 9 ) ;
#218 = CYLINDRICAL_SURFACE ( 'NONE', #394, 0.5250000000000000222 ) ;
#219 = DIRECTION ( 'NONE',  ( 0.000000000000000000, 0.000000000000000000, 1.000000000000000000 ) ) ;
#220 = DIRECTION ( 'NONE',  ( 3.491481338843133355E-15, -0.000000000000000000, 1.000000000000000000 ) ) ;
#221 = PERSON_AND_ORGANIZATION ( #298, #83 ) ;
#222 = AXIS2_PLACEMENT_3D ( 'NONE', #299, #131, #229 ) ;
#223 = ADVANCED_FACE ( 'NONE', ( #312, #279 ), #294, .T. ) ;
#224 = DIRECTION ( 'NONE',  ( 1.000000000000000000, 0.000000000000000000, -3.510749891857823562E-15 ) ) ;
#225 = PERSON_AND_ORGANIZATION ( #298, #83 ) ;
#226 = DIRECTION ( 'NONE',  ( 1.000000000000000000, 0.000000000000000000, -3.390106918826424984E-15 ) ) ;
#227 = EDGE_LOOP ( 'NONE', ( #70 ) ) ;
#228 = EDGE_CURVE ( 'NONE', #215, #215, #99, .T. ) ;
#229 = DIRECTION ( 'NONE',  ( 1.000000000000000000, 0.000000000000000000, -3.364765362886048502E-15 ) ) ;
#230 = AXIS2_PLACEMENT_3D ( 'NONE', #72, #220, #224 ) ;
#231 = DIRECTION ( 'NONE',  ( 1.000000000000000000, 0.000000000000000000, 0.000000000000000000 ) ) ;
#232 = ADVANCED_BREP_SHAPE_REPRESENTATION ( '961180', ( #23, #159 ), #110 ) ;
#233 = VERTEX_POINT ( 'NONE', #264 ) ;
#234 = EDGE_LOOP ( 'NONE', ( #82 ) ) ;
#235 = AXIS2_PLACEMENT_3D ( 'NONE', #193, #101, #226 ) ;
#236 = ORIENTED_EDGE ( 'NONE', *, *, #334, .F. ) ;
#237 = EDGE_LOOP ( 'NONE', ( #289 ) ) ;
#238 = EDGE_LOOP ( 'NONE', ( #320 ) ) ;
#239 = CARTESIAN_POINT ( 'NONE',  ( 0.2868430139592783590, 0.000000000000000000, -1.001507030416340788E-15 ) ) ;
#240 = AXIS2_PLACEMENT_3D ( 'NONE', #256, #263, #1 ) ;
#241 = LOCAL_TIME ( 10, 31, 43.00000000000000000, #96 ) ;
#242 = DIRECTION ( 'NONE',  ( 1.000000000000000000, 0.000000000000000000, -3.510749891857823562E-15 ) ) ;
#243 = AXIS2_PLACEMENT_3D ( 'NONE', #170, #191, #262 ) ;
#244 = DIRECTION ( 'NONE',  ( 1.000000000000000000, 0.000000000000000000, -3.544202687863989290E-15 ) ) ;
#245 = ADVANCED_FACE ( 'NONE', ( #304, #307 ), #366, .T. ) ;
#246 = FACE_BOUND ( 'NONE', #108, .T. ) ;
#247 = FACE_OUTER_BOUND ( 'NONE', #227, .T. ) ;
#248 = CIRCLE ( 'NONE', #174, 0.3517949192431112926 ) ;
#249 = EDGE_LOOP ( 'NONE', ( #236 ) ) ;
#250 = CC_DESIGN_PERSON_AND_ORGANIZATION_ASSIGNMENT ( #104, #100, ( #313 ) ) ;
#251 =( NAMED_UNIT ( * ) SI_UNIT ( $, .STERADIAN. ) SOLID_ANGLE_UNIT ( ) );
#252 = FACE_OUTER_BOUND ( 'NONE', #260, .T. ) ;
#253 = PERSON_AND_ORGANIZATION ( #298, #83 ) ;
#254 = CYLINDRICAL_SURFACE ( 'NONE', #349, 0.5250000000000000222 ) ;
#255 = APPROVAL_STATUS ( 'not_yet_approved' ) ;
#256 = CARTESIAN_POINT ( 'NONE',  ( 1.316288464743861212E-13, 0.000000000000000000, 37.69999999999999574 ) ) ;
#257 = AXIS2_PLACEMENT_3D ( 'NONE', #107, #323, #231 ) ;
#258 = CIRCLE ( 'NONE', #388, 1.500000000000000000 ) ;
#259 = DIRECTION ( 'NONE',  ( -1.000000000000000000, 0.000000000000000000, 3.491481338843133355E-15 ) ) ;
#260 = EDGE_LOOP ( 'NONE', ( #355 ) ) ;
#261 = PERSON_AND_ORGANIZATION ( #298, #83 ) ;
#262 = DIRECTION ( 'NONE',  ( 1.000000000000000000, 0.000000000000000000, -3.544202687863989684E-15 ) ) ;
#263 = DIRECTION ( 'NONE',  ( -3.491481338843133355E-15, 0.000000000000000000, -1.000000000000000000 ) ) ;
#264 = CARTESIAN_POINT ( 'NONE',  ( 0.5250000000000016875, 0.000000000000000000, 0.4624999999999958034 ) ) ;
#265 = ORIENTED_EDGE ( 'NONE', *, *, #300, .T. ) ;
#266 = EDGE_LOOP ( 'NONE', ( #200 ) ) ;
#267 = EDGE_LOOP ( 'NONE', ( #310 ) ) ;
#268 = ORIENTED_EDGE ( 'NONE', *, *, #353, .F. ) ;
#269 = VERTEX_POINT ( 'NONE', #205 ) ;
#270 = DIRECTION ( 'NONE',  ( 1.000000000000000000, 0.000000000000000000, -3.491481338843133355E-15 ) ) ;
#271 = ADVANCED_FACE ( 'NONE', ( #36, #63 ), #254, .T. ) ;
#272 = SECURITY_CLASSIFICATION ( '', '', #367 ) ;
#273 = CARTESIAN_POINT ( 'NONE',  ( 1.326762908760390423E-13, 0.000000000000000000, 38.00000000000000000 ) ) ;
#274 = AXIS2_PLACEMENT_3D ( 'NONE', #297, #210, #20 ) ;
#275 = DIRECTION ( 'NONE',  ( 1.000000000000000000, 0.000000000000000000, -3.491481338843133355E-15 ) ) ;
#276 = FACE_OUTER_BOUND ( 'NONE', #166, .T. ) ;
#277 = DIRECTION ( 'NONE',  ( 3.491481338843133355E-15, -0.000000000000000000, 1.000000000000000000 ) ) ;
#278 = APPROVAL_PERSON_ORGANIZATION ( #369, #24, #306 ) ;
#279 = FACE_BOUND ( 'NONE', #295, .T. ) ;
#280 = DATE_AND_TIME ( #130, #325 ) ;
#281 = DIRECTION ( 'NONE',  ( 1.000000000000000000, 0.000000000000000000, 0.000000000000000000 ) ) ;
#282 = DATE_TIME_ROLE ( 'classification_date' ) ;
#283 = FACE_OUTER_BOUND ( 'NONE', #78, .T. ) ;
#284 = DATE_TIME_ROLE ( 'creation_date' ) ;
#285 = CARTESIAN_POINT ( 'NONE',  ( 1.614810119214940894E-15, 0.000000000000000000, 0.4624999999999976352 ) ) ;
#286 = AXIS2_PLACEMENT_3D ( 'NONE', #118, #183, #242 ) ;
#287 = ORIENTED_EDGE ( 'NONE', *, *, #168, .F. ) ;
#288 = CARTESIAN_POINT ( 'NONE',  ( 0.2900000000000020894, 0.000000000000000000, 0.6000000000000023093 ) ) ;
#289 = ORIENTED_EDGE ( 'NONE', *, *, #162, .T. ) ;
#290 = UNCERTAINTY_MEASURE_WITH_UNIT (LENGTH_MEASURE( 1.000000000000000082E-05 ), #153, 'distance_accuracy_value', 'NONE');
#291 = EDGE_LOOP ( 'NONE', ( #111 ) ) ;
#292 = CIRCLE ( 'NONE', #235, 0.3517949192431112371 ) ;
#293 = VERTEX_POINT ( 'NONE', #350 ) ;
#294 = CONICAL_SURFACE ( 'NONE', #47, 0.2868430139592783590, 1.047197551196603627 ) ;
#295 = EDGE_LOOP ( 'NONE', ( #41 ) ) ;
#296 = DIRECTION ( 'NONE',  ( -1.000000000000000000, 0.000000000000000000, 3.510749891857823562E-15 ) ) ;
#297 = CARTESIAN_POINT ( 'NONE',  ( 1.661532789090671330E-14, 0.000000000000000000, 4.758819045102509193 ) ) ;
#298 = PERSON ( 'UNSPECIFIED', 'UNSPECIFIED', 'UNSPECIFIED', ('UNSPECIFIED'), ('UNSPECIFIED'), ('UNSPECIFIED') ) ;
#299 = CARTESIAN_POINT ( 'NONE',  ( 2.094888803305891846E-15, 0.000000000000000000, 0.6000000000000033085 ) ) ;
#300 = EDGE_CURVE ( 'NONE', #60, #60, #124, .T. ) ;
#301 = DIRECTION ( 'NONE',  ( 3.491481338843133355E-15, -0.000000000000000000, 1.000000000000000000 ) ) ;
#302 = PRODUCT_DEFINITION_SHAPE ( 'NONE', 'NONE',  #79 ) ;
#303 = PLANE ( 'NONE',  #119 ) ;
#304 = FACE_BOUND ( 'NONE', #351, .T. ) ;
#305 = CIRCLE ( 'NONE', #286, 0.5250000000000000222 ) ;
#306 = APPROVAL_ROLE ( '' ) ;
#307 = FACE_OUTER_BOUND ( 'NONE', #37, .T. ) ;
#308 = DATE_AND_TIME ( #395, #97 ) ;
#309 = DIRECTION ( 'NONE',  ( 1.000000000000000000, 0.000000000000000000, -2.676429682922160140E-15 ) ) ;
#310 = ORIENTED_EDGE ( 'NONE', *, *, #334, .T. ) ;
#311 = APPROVAL_ROLE ( '' ) ;
#312 = FACE_OUTER_BOUND ( 'NONE', #81, .T. ) ;
#313 = PRODUCT_DEFINITION_FORMATION_WITH_SPECIFIED_SOURCE ( 'ANY', '', #50, .NOT_KNOWN. ) ;
#314 = EDGE_LOOP ( 'NONE', ( #324 ) ) ;
#315 = CALENDAR_DATE ( 2023, 27, 9 ) ;
#316 = CIRCLE ( 'NONE', #12, 0.3517949192431112926 ) ;
#317 = FACE_OUTER_BOUND ( 'NONE', #237, .T. ) ;
#318 = APPROVAL_PERSON_ORGANIZATION ( #225, #147, #311 ) ;
#319 = VERTEX_POINT ( 'NONE', #14 ) ;
#320 = ORIENTED_EDGE ( 'NONE', *, *, #126, .T. ) ;
#321 = ADVANCED_FACE ( 'NONE', ( #129, #69 ), #332, .T. ) ;
#322 = ORIENTED_EDGE ( 'NONE', *, *, #346, .F. ) ;
#323 = DIRECTION ( 'NONE',  ( 3.491481338843133355E-15, -0.000000000000000000, 1.000000000000000000 ) ) ;
#324 = ORIENTED_EDGE ( 'NONE', *, *, #203, .F. ) ;
#325 = LOCAL_TIME ( 10, 31, 43.00000000000000000, #190 ) ;
#326 = CYLINDRICAL_SURFACE ( 'NONE', #90, 1.499999999999998224 ) ;
#327 = CARTESIAN_POINT ( 'NONE',  ( 1.178374951859548830E-15, 0.000000000000000000, 0.3374999999999975242 ) ) ;
#328 = CARTESIAN_POINT ( 'NONE',  ( 1.200000000000126299, 0.000000000000000000, 37.99999999999999289 ) ) ;
#329 = DIRECTION ( 'NONE',  ( 1.000000000000000000, 0.000000000000000000, -3.510749891857823562E-15 ) ) ;
#330 = ADVANCED_FACE ( 'NONE', ( #372, #283 ), #98, .F. ) ;
#331 = CARTESIAN_POINT ( 'NONE',  ( 1.500000000000031974, 0.000000000000000000, 9.147433974745851515 ) ) ;
#332 = CONICAL_SURFACE ( 'NONE', #5, 0.3240741737109292808, 0.2617993877991425244 ) ;
#333 = CARTESIAN_POINT ( 'NONE',  ( 5.673657175620194254E-16, 0.000000000000000000, 0.1625000000000029199 ) ) ;
#334 = EDGE_CURVE ( 'NONE', #28, #28, #142, .T. ) ;
#335 = FACE_OUTER_BOUND ( 'NONE', #132, .T. ) ;
#336 = DATE_AND_TIME ( #217, #17 ) ;
#337 = DIRECTION ( 'NONE',  ( 3.491481338843133355E-15, -0.000000000000000000, 1.000000000000000000 ) ) ;
#338 = CIRCLE ( 'NONE', #243, 0.3517949192431112371 ) ;
#339 = DIRECTION ( 'NONE',  ( 3.491481338843133355E-15, -0.000000000000000000, 1.000000000000000000 ) ) ;
#340 = CLOSED_SHELL ( 'NONE', ( #55, #223, #173, #86, #390, #57, #271, #375, #112, #330, #42, #26, #321, #39, #245, #135 ) ) ;
#341 = AXIS2_PLACEMENT_3D ( 'NONE', #182, #88, #213 ) ;
#342 = DIRECTION ( 'NONE',  ( 1.000000000000000000, 0.000000000000000000, -2.990902544787603621E-15 ) ) ;
#343 = MECHANICAL_CONTEXT ( 'NONE', #391, 'mechanical' ) ;
#344 = DIRECTION ( 'NONE',  ( 1.000000000000000000, 0.000000000000000000, -3.510749891857823562E-15 ) ) ;
#345 = EDGE_LOOP ( 'NONE', ( #265 ) ) ;
#346 = EDGE_CURVE ( 'NONE', #269, #269, #106, .T. ) ;
#347 = DIRECTION ( 'NONE',  ( 1.000000000000000000, 0.000000000000000000, -3.491481338843133355E-15 ) ) ;
#348 = CC_DESIGN_SECURITY_CLASSIFICATION ( #272, ( #313 ) ) ;
#349 = AXIS2_PLACEMENT_3D ( 'NONE', #370, #164, #281 ) ;
#350 = CARTESIAN_POINT ( 'NONE',  ( 0.3240741737109458231, 0.000000000000000000, 4.758819045102508305 ) ) ;
#351 = EDGE_LOOP ( 'NONE', ( #176 ) ) ;
#352 = EDGE_LOOP ( 'NONE', ( #7 ) ) ;
#353 = EDGE_CURVE ( 'NONE', #116, #116, #364, .T. ) ;
#354 = DIRECTION ( 'NONE',  ( -1.000000000000000000, 0.000000000000000000, 3.510749891857823562E-15 ) ) ;
#355 = ORIENTED_EDGE ( 'NONE', *, *, #228, .F. ) ;
#356 = ORIENTED_EDGE ( 'NONE', *, *, #187, .F. ) ;
#357 = AXIS2_PLACEMENT_3D ( 'NONE', #184, #301, #216 ) ;
#358 = VERTEX_POINT ( 'NONE', #22 ) ;
#359 = APPROVAL_PERSON_ORGANIZATION ( #253, #45, #35 ) ;
#360 = CIRCLE ( 'NONE', #274, 0.3240741737109292808 ) ;
#361 = EDGE_CURVE ( 'NONE', #358, #358, #292, .T. ) ;
#362 = DIRECTION ( 'NONE',  ( 1.000000000000000000, 0.000000000000000000, -3.390106918826424590E-15 ) ) ;
#363 = DIRECTION ( 'NONE',  ( 3.491481338843133355E-15, -0.000000000000000000, 1.000000000000000000 ) ) ;
#364 = CIRCLE ( 'NONE', #199, 0.2868430139592783590 ) ;
#365 = DIRECTION ( 'NONE',  ( 1.000000000000000000, 0.000000000000000000, -3.544202687863989290E-15 ) ) ;
#366 = CONICAL_SURFACE ( 'NONE', #240, 1.499999999999996447, 0.7853981633974501664 ) ;
#367 = SECURITY_CLASSIFICATION_LEVEL ( 'unclassified' ) ;
#368 = DIRECTION ( 'NONE',  ( -3.491481338843133355E-15, 0.000000000000000000, -1.000000000000000000 ) ) ;
#369 = PERSON_AND_ORGANIZATION ( #298, #83 ) ;
#370 = CARTESIAN_POINT ( 'NONE',  ( 1.326762908760390423E-13, 0.000000000000000000, 38.00000000000000000 ) ) ;
#371 = APPROVAL_STATUS ( 'not_yet_approved' ) ;
#372 = FACE_BOUND ( 'NONE', #385, .T. ) ;
#373 = PERSON_AND_ORGANIZATION ( #298, #83 ) ;
#374 = DIRECTION ( 'NONE',  ( 3.491481338843133355E-15, -0.000000000000000000, 1.000000000000000000 ) ) ;
#375 = ADVANCED_FACE ( 'NONE', ( #194, #317 ), #169, .T. ) ;
#376 = EDGE_LOOP ( 'NONE', ( #51 ) ) ;
#377 = DATE_AND_TIME ( #92, #189 ) ;
#378 = CARTESIAN_POINT ( 'NONE',  ( 0.000000000000000000, 0.000000000000000000, 0.000000000000000000 ) ) ;
#379 = CC_DESIGN_APPROVAL ( #24, ( #79 ) ) ;
#380 = CONICAL_SURFACE ( 'NONE', #84, 0.3517949192431112926, 1.047197551196587861 ) ;
#381 = FACE_OUTER_BOUND ( 'NONE', #139, .T. ) ;
#382 = CYLINDRICAL_SURFACE ( 'NONE', #257, 0.3517949192431112926 ) ;
#383 = EDGE_LOOP ( 'NONE', ( #143 ) ) ;
#384 = AXIS2_PLACEMENT_3D ( 'NONE', #58, #91, #208 ) ;
#385 = EDGE_LOOP ( 'NONE', ( #287 ) ) ;
#386 = ORIENTED_EDGE ( 'NONE', *, *, #114, .F. ) ;
#387 = CYLINDRICAL_SURFACE ( 'NONE', #341, 0.3517949192431112926 ) ;
#388 = AXIS2_PLACEMENT_3D ( 'NONE', #43, #161, #6 ) ;
#389 = FACE_OUTER_BOUND ( 'NONE', #345, .T. ) ;
#390 = ADVANCED_FACE ( 'NONE', ( #381, #80 ), #382, .T. ) ;
#391 = APPLICATION_CONTEXT ( 'configuration controlled 3d designs of mechanical parts and assemblies' ) ;
#392 = DIRECTION ( 'NONE',  ( 1.000000000000000000, 0.000000000000000000, 0.000000000000000000 ) ) ;
#393 = DIRECTION ( 'NONE',  ( 3.491481338843133355E-15, -0.000000000000000000, 1.000000000000000000 ) ) ;
#394 = AXIS2_PLACEMENT_3D ( 'NONE', #136, #339, #9 ) ;
#395 = CALENDAR_DATE ( 2023, 27, 9 ) ;
ENDSEC;
END-ISO-10303-21;
