ISO-10303-21;
HEADER;
FILE_DESCRIPTION (( 'STEP AP203' ),
    '1' );
FILE_NAME ('961179.step',
    '2023-09-27T08:31:42',
    ( '' ),
    ( '' ),
    'SwSTEP 2.0',
    'SolidWorks 2022',
    '' );
FILE_SCHEMA (( 'CONFIG_CONTROL_DESIGN' ));
ENDSEC;

DATA;
#1 = DIRECTION ( 'NONE',  ( 1.000000000000000000, 0.000000000000000000, -3.491481338843133355E-15 ) ) ;
#2 = EDGE_CURVE ( 'NONE', #161, #161, #230, .T. ) ;
#3 = DIRECTION ( 'NONE',  ( 1.000000000000000000, 0.000000000000000000, 0.000000000000000000 ) ) ;
#4 = COORDINATED_UNIVERSAL_TIME_OFFSET ( 1, 0, .AHEAD. ) ;
#5 = AXIS2_PLACEMENT_3D ( 'NONE', #19, #139, #112 ) ;
#6 = VERTEX_POINT ( 'NONE', #129 ) ;
#7 = ORIENTED_EDGE ( 'NONE', *, *, #237, .F. ) ;
#8 = CARTESIAN_POINT ( 'NONE',  ( 1.500000000000030198, 0.000000000000000000, 8.628055753010762885 ) ) ;
#9 = VERTEX_POINT ( 'NONE', #274 ) ;
#10 = ORIENTED_EDGE ( 'NONE', *, *, #237, .T. ) ;
#11 = CIRCLE ( 'NONE', #62, 0.4550000000000000155 ) ;
#12 = AXIS2_PLACEMENT_3D ( 'NONE', #201, #55, #328 ) ;
#13 = DIRECTION ( 'NONE',  ( 3.491481338843133355E-15, -0.000000000000000000, 1.000000000000000000 ) ) ;
#14 = ORIENTED_EDGE ( 'NONE', *, *, #105, .F. ) ;
#15 = DIRECTION ( 'NONE',  ( 1.000000000000000000, 0.000000000000000000, -5.782411586589388010E-15 ) ) ;
#16 = CARTESIAN_POINT ( 'NONE',  ( 0.000000000000000000, 0.000000000000000000, 0.000000000000000000 ) ) ;
#17 = AXIS2_PLACEMENT_3D ( 'NONE', #150, #232, #156 ) ;
#18 = ADVANCED_FACE ( 'NONE', ( #346, #78 ), #192, .T. ) ;
#19 = CARTESIAN_POINT ( 'NONE',  ( -5.299492682495181773E-33, 0.000000000000000000, -1.517835029944944240E-18 ) ) ;
#20 = CARTESIAN_POINT ( 'NONE',  ( 1.326762908760390423E-13, 0.000000000000000000, 38.00000000000000000 ) ) ;
#21 = AXIS2_PLACEMENT_3D ( 'NONE', #295, #142, #50 ) ;
#22 = AXIS2_PLACEMENT_3D ( 'NONE', #149, #265, #206 ) ;
#23 = DIRECTION ( 'NONE',  ( 3.491481338843133355E-15, -0.000000000000000000, 1.000000000000000000 ) ) ;
#24 = EDGE_CURVE ( 'NONE', #9, #9, #47, .T. ) ;
#25 = DIRECTION ( 'NONE',  ( 1.000000000000000000, 0.000000000000000000, -3.489968719595545908E-15 ) ) ;
#26 = CARTESIAN_POINT ( 'NONE',  ( 3.012469565213523249E-14, 0.000000000000000000, 8.628055753010768214 ) ) ;
#27 = CIRCLE ( 'NONE', #389, 0.4550000000000000155 ) ;
#28 = CC_DESIGN_DATE_AND_TIME_ASSIGNMENT ( #241, #372, ( #40 ) ) ;
#29 = FACE_BOUND ( 'NONE', #252, .T. ) ;
#30 = SECURITY_CLASSIFICATION_LEVEL ( 'unclassified' ) ;
#31 = EDGE_LOOP ( 'NONE', ( #279 ) ) ;
#32 = FACE_OUTER_BOUND ( 'NONE', #44, .T. ) ;
#33 = PERSON_AND_ORGANIZATION ( #267, #63 ) ;
#34 = CARTESIAN_POINT ( 'NONE',  ( 0.3106624327025943044, 0.000000000000000000, 0.4687499999999958367 ) ) ;
#35 = DATE_AND_TIME ( #370, #155 ) ;
#36 = AXIS2_PLACEMENT_3D ( 'NONE', #289, #373, #261 ) ;
#37 = CIRCLE ( 'NONE', #49, 0.3106624327025925836 ) ;
#38 = ORIENTED_EDGE ( 'NONE', *, *, #366, .T. ) ;
#39 = ADVANCED_BREP_SHAPE_REPRESENTATION ( '961179', ( #144, #103 ), #231 ) ;
#40 = PRODUCT_DEFINITION ( 'UNKNOWN', '', #83, #315 ) ;
#41 = ORIENTED_EDGE ( 'NONE', *, *, #98, .F. ) ;
#42 = ORIENTED_EDGE ( 'NONE', *, *, #184, .F. ) ;
#43 = EDGE_CURVE ( 'NONE', #6, #6, #208, .T. ) ;
#44 = EDGE_LOOP ( 'NONE', ( #133 ) ) ;
#45 = ORIENTED_EDGE ( 'NONE', *, *, #386, .F. ) ;
#46 = CARTESIAN_POINT ( 'NONE',  ( 4.000655700757801179E-16, 0.000000000000000000, 0.1145833333333345916 ) ) ;
#47 = CIRCLE ( 'NONE', #217, 0.4550000000000000155 ) ;
#48 = DIRECTION ( 'NONE',  ( -1.000000000000000000, 0.000000000000000000, 3.514721328387074684E-15 ) ) ;
#49 = AXIS2_PLACEMENT_3D ( 'NONE', #305, #125, #25 ) ;
#50 = DIRECTION ( 'NONE',  ( 1.000000000000000000, 0.000000000000000000, 0.000000000000000000 ) ) ;
#51 = CARTESIAN_POINT ( 'NONE',  ( 1.345675099345788088E-15, 0.000000000000000000, 0.3854166666666658525 ) ) ;
#52 = FACE_OUTER_BOUND ( 'NONE', #317, .T. ) ;
#53 = CC_DESIGN_DATE_AND_TIME_ASSIGNMENT ( #97, #361, ( #257 ) ) ;
#54 = DIRECTION ( 'NONE',  ( 3.491481338843133355E-15, -0.000000000000000000, 1.000000000000000000 ) ) ;
#55 = DIRECTION ( 'NONE',  ( -3.491481338843133355E-15, 0.000000000000000000, -1.000000000000000000 ) ) ;
#56 = PERSON_AND_ORGANIZATION_ROLE ( 'creator' ) ;
#57 = ADVANCED_FACE ( 'NONE', ( #115, #52 ), #154, .T. ) ;
#58 = DIRECTION ( 'NONE',  ( 3.491481338843133355E-15, -0.000000000000000000, 1.000000000000000000 ) ) ;
#59 = COORDINATED_UNIVERSAL_TIME_OFFSET ( 1, 0, .AHEAD. ) ;
#60 = APPROVAL_PERSON_ORGANIZATION ( #120, #176, #93 ) ;
#61 = EDGE_LOOP ( 'NONE', ( #100 ) ) ;
#62 = AXIS2_PLACEMENT_3D ( 'NONE', #85, #143, #111 ) ;
#63 = ORGANIZATION ( 'UNSPECIFIED', 'UNSPECIFIED', '' ) ;
#64 = FACE_OUTER_BOUND ( 'NONE', #214, .T. ) ;
#65 = PERSON_AND_ORGANIZATION_ROLE ( 'creator' ) ;
#66 = CARTESIAN_POINT ( 'NONE',  ( 1.344220315454606500E-14, 0.000000000000000000, 3.850000000000000089 ) ) ;
#67 = PERSON_AND_ORGANIZATION_ROLE ( 'design_owner' ) ;
#68 = ORIENTED_EDGE ( 'NONE', *, *, #24, .F. ) ;
#69 = CARTESIAN_POINT ( 'NONE',  ( 1.200000000000126299, 0.000000000000000000, 37.99999999999999289 ) ) ;
#70 = CARTESIAN_POINT ( 'NONE',  ( 0.2550000000000017808, 0.000000000000000000, 0.4999999999999995559 ) ) ;
#71 = EDGE_LOOP ( 'NONE', ( #164 ) ) ;
#72 = EDGE_CURVE ( 'NONE', #248, #248, #376, .T. ) ;
#73 = AXIS2_PLACEMENT_3D ( 'NONE', #26, #87, #297 ) ;
#74 = ORIENTED_EDGE ( 'NONE', *, *, #366, .F. ) ;
#75 = ADVANCED_FACE ( 'NONE', ( #390, #199 ), #262, .T. ) ;
#76 = EDGE_LOOP ( 'NONE', ( #14 ) ) ;
#77 = CIRCLE ( 'NONE', #347, 0.2550000000000000044 ) ;
#78 = FACE_OUTER_BOUND ( 'NONE', #304, .T. ) ;
#79 = MECHANICAL_CONTEXT ( 'NONE', #138, 'mechanical' ) ;
#80 = FACE_OUTER_BOUND ( 'NONE', #183, .T. ) ;
#81 = DIRECTION ( 'NONE',  ( 3.491481338843133355E-15, -0.000000000000000000, 1.000000000000000000 ) ) ;
#82 = DIRECTION ( 'NONE',  ( 3.491481338843133355E-15, -0.000000000000000000, 1.000000000000000000 ) ) ;
#83 = PRODUCT_DEFINITION_FORMATION_WITH_SPECIFIED_SOURCE ( 'ANY', '', #86, .NOT_KNOWN. ) ;
#84 = DIRECTION ( 'NONE',  ( -3.491481338843133355E-15, 0.000000000000000000, -1.000000000000000000 ) ) ;
#85 = CARTESIAN_POINT ( 'NONE',  ( 1.272935904786564295E-15, 0.000000000000000000, 0.3645833333333348136 ) ) ;
#86 = PRODUCT ( '961179', '961179', '', ( #79 ) ) ;
#87 = DIRECTION ( 'NONE',  ( 3.491481338843133355E-15, -0.000000000000000000, 1.000000000000000000 ) ) ;
#88 = AXIS2_PLACEMENT_3D ( 'NONE', #329, #331, #327 ) ;
#89 = DIRECTION ( 'NONE',  ( 1.000000000000000000, 0.000000000000000000, -3.489968719595544330E-15 ) ) ;
#90 = PERSON_AND_ORGANIZATION ( #267, #63 ) ;
#91 = FACE_OUTER_BOUND ( 'NONE', #61, .T. ) ;
#92 = DIRECTION ( 'NONE',  ( -3.491481338843133355E-15, 0.000000000000000000, -1.000000000000000000 ) ) ;
#93 = APPROVAL_ROLE ( '' ) ;
#94 = CONICAL_SURFACE ( 'NONE', #114, 0.4550000000000000155, 1.047197551196612286 ) ;
#95 = CIRCLE ( 'NONE', #73, 1.500000000000000000 ) ;
#96 = FACE_OUTER_BOUND ( 'NONE', #254, .T. ) ;
#97 = DATE_AND_TIME ( #159, #269 ) ;
#98 = EDGE_CURVE ( 'NONE', #245, #245, #354, .T. ) ;
#99 = CARTESIAN_POINT ( 'NONE',  ( 0.4550000000000005151, 0.000000000000000000, 0.1354166666666640206 ) ) ;
#100 = ORIENTED_EDGE ( 'NONE', *, *, #184, .T. ) ;
#101 = ORIENTED_EDGE ( 'NONE', *, *, #308, .F. ) ;
#102 = AXIS2_PLACEMENT_3D ( 'NONE', #194, #290, #145 ) ;
#103 = AXIS2_PLACEMENT_3D ( 'NONE', #197, #147, #348 ) ;
#104 = EDGE_LOOP ( 'NONE', ( #7 ) ) ;
#105 = EDGE_CURVE ( 'NONE', #212, #212, #11, .T. ) ;
#106 = EDGE_LOOP ( 'NONE', ( #165 ) ) ;
#107 = EDGE_LOOP ( 'NONE', ( #157 ) ) ;
#108 = AXIS2_PLACEMENT_3D ( 'NONE', #353, #82, #171 ) ;
#109 = DIRECTION ( 'NONE',  ( 1.000000000000000000, 0.000000000000000000, -4.625929269271490844E-15 ) ) ;
#110 = ADVANCED_FACE ( 'NONE', ( #350, #356 ), #94, .T. ) ;
#111 = DIRECTION ( 'NONE',  ( 1.000000000000000000, 0.000000000000000000, -3.455149780448310626E-15 ) ) ;
#112 = DIRECTION ( 'NONE',  ( 1.000000000000000000, 0.000000000000000000, -3.491481338843133355E-15 ) ) ;
#113 = CC_DESIGN_APPROVAL ( #170, ( #83 ) ) ;
#114 = AXIS2_PLACEMENT_3D ( 'NONE', #325, #84, #48 ) ;
#115 = FACE_BOUND ( 'NONE', #343, .T. ) ;
#116 = DIRECTION ( 'NONE',  ( 3.491481338843133355E-15, -0.000000000000000000, 1.000000000000000000 ) ) ;
#117 = FACE_BOUND ( 'NONE', #137, .T. ) ;
#118 = PRODUCT_RELATED_PRODUCT_CATEGORY ( 'detail', '', ( #86 ) ) ;
#119 = DIRECTION ( 'NONE',  ( 3.491481338843133355E-15, -0.000000000000000000, 1.000000000000000000 ) ) ;
#120 = PERSON_AND_ORGANIZATION ( #267, #63 ) ;
#121 = FACE_BOUND ( 'NONE', #186, .T. ) ;
#122 = APPROVAL_ROLE ( '' ) ;
#123 = FACE_OUTER_BOUND ( 'NONE', #312, .T. ) ;
#124 = CALENDAR_DATE ( 2023, 27, 9 ) ;
#125 = DIRECTION ( 'NONE',  ( 3.491481338843133355E-15, -0.000000000000000000, 1.000000000000000000 ) ) ;
#126 = APPROVAL_DATE_TIME ( #332, #176 ) ;
#127 = EDGE_CURVE ( 'NONE', #281, #281, #367, .T. ) ;
#128 =( LENGTH_UNIT ( ) NAMED_UNIT ( * ) SI_UNIT ( .MILLI., .METRE. ) );
#129 = CARTESIAN_POINT ( 'NONE',  ( 0.2550000000000130496, 0.000000000000000000, 3.849999999999998312 ) ) ;
#130 = EDGE_LOOP ( 'NONE', ( #381 ) ) ;
#131 =( NAMED_UNIT ( * ) PLANE_ANGLE_UNIT ( ) SI_UNIT ( $, .RADIAN. ) );
#132 = CARTESIAN_POINT ( 'NONE',  ( 0.2565358449660651297, 0.000000000000000000, -8.956901154433715261E-16 ) ) ;
#133 = ORIENTED_EDGE ( 'NONE', *, *, #386, .T. ) ;
#134 = AXIS2_PLACEMENT_3D ( 'NONE', #227, #116, #255 ) ;
#135 = CIRCLE ( 'NONE', #226, 1.499999999999996447 ) ;
#136 = DIRECTION ( 'NONE',  ( 1.000000000000000000, 0.000000000000000000, -3.489968719595545908E-15 ) ) ;
#137 = EDGE_LOOP ( 'NONE', ( #215 ) ) ;
#138 = APPLICATION_CONTEXT ( 'configuration controlled 3d designs of mechanical parts and assemblies' ) ;
#139 = DIRECTION ( 'NONE',  ( 3.491481338843133355E-15, -0.000000000000000000, 1.000000000000000000 ) ) ;
#140 = ADVANCED_FACE ( 'NONE', ( #293, #384 ), #198, .T. ) ;
#141 = CC_DESIGN_APPROVAL ( #205, ( #257 ) ) ;
#142 = DIRECTION ( 'NONE',  ( 3.491481338843133355E-15, -0.000000000000000000, 1.000000000000000000 ) ) ;
#143 = DIRECTION ( 'NONE',  ( 3.491481338843133355E-15, -0.000000000000000000, 1.000000000000000000 ) ) ;
#144 = MANIFOLD_SOLID_BREP ( 'Corps-Déplacer/Copier1', #326 ) ;
#145 = DIRECTION ( 'NONE',  ( 1.000000000000000000, 0.000000000000000000, -3.401418580346686440E-15 ) ) ;
#146 = CC_DESIGN_PERSON_AND_ORGANIZATION_ASSIGNMENT ( #90, #181, ( #257 ) ) ;
#147 = DIRECTION ( 'NONE',  ( 0.000000000000000000, 0.000000000000000000, 1.000000000000000000 ) ) ;
#148 = DIRECTION ( 'NONE',  ( 1.000000000000000000, 0.000000000000000000, -3.514721328387074684E-15 ) ) ;
#149 = CARTESIAN_POINT ( 'NONE',  ( 1.745740669421566678E-15, 0.3106624327025925836, 0.5000000000000000000 ) ) ;
#150 = CARTESIAN_POINT ( 'NONE',  ( 1.326762908760390423E-13, 0.000000000000000000, 38.00000000000000000 ) ) ;
#151 = EDGE_CURVE ( 'NONE', #336, #336, #77, .T. ) ;
#152 = FACE_OUTER_BOUND ( 'NONE', #107, .T. ) ;
#153 = PERSON_AND_ORGANIZATION_ROLE ( 'design_supplier' ) ;
#154 = CONICAL_SURFACE ( 'NONE', #388, 0.4550000000000000155, 1.047197551196612064 ) ;
#155 = LOCAL_TIME ( 10, 31, 42.00000000000000000, #395 ) ;
#156 = DIRECTION ( 'NONE',  ( 1.000000000000000000, 0.000000000000000000, 0.000000000000000000 ) ) ;
#157 = ORIENTED_EDGE ( 'NONE', *, *, #72, .F. ) ;
#158 = CARTESIAN_POINT ( 'NONE',  ( 1.636631877582708111E-15, 0.000000000000000000, 0.4687499999999969469 ) ) ;
#159 = CALENDAR_DATE ( 2023, 27, 9 ) ;
#160 = VERTEX_POINT ( 'NONE', #273 ) ;
#161 = VERTEX_POINT ( 'NONE', #283 ) ;
#162 = APPLICATION_PROTOCOL_DEFINITION ( 'international standard', 'config_control_design', 1994, #351 ) ;
#163 = VERTEX_POINT ( 'NONE', #253 ) ;
#164 = ORIENTED_EDGE ( 'NONE', *, *, #323, .F. ) ;
#165 = ORIENTED_EDGE ( 'NONE', *, *, #127, .T. ) ;
#166 = CIRCLE ( 'NONE', #310, 0.3106624327025926946 ) ;
#167 = EDGE_LOOP ( 'NONE', ( #371 ) ) ;
#168 = DIRECTION ( 'NONE',  ( 3.491481338843133355E-15, -0.000000000000000000, 1.000000000000000000 ) ) ;
#169 = FACE_OUTER_BOUND ( 'NONE', #31, .T. ) ;
#170 = APPROVAL ( #363, 'UNSPECIFIED' ) ;
#171 = DIRECTION ( 'NONE',  ( 1.000000000000000000, 0.000000000000000000, -3.489968719595544330E-15 ) ) ;
#172 = DIRECTION ( 'NONE',  ( -3.491481338843133355E-15, 0.000000000000000000, -1.000000000000000000 ) ) ;
#173 = AXIS2_PLACEMENT_3D ( 'NONE', #352, #81, #15 ) ;
#174 = CARTESIAN_POINT ( 'NONE',  ( 1.745740669421568255E-15, 0.000000000000000000, 0.5000000000000004441 ) ) ;
#175 = CYLINDRICAL_SURFACE ( 'NONE', #368, 0.4550000000000000155 ) ;
#176 = APPROVAL ( #330, 'UNSPECIFIED' ) ;
#177 = FACE_OUTER_BOUND ( 'NONE', #71, .T. ) ;
#178 = CC_DESIGN_APPROVAL ( #176, ( #40 ) ) ;
#179 = AXIS2_PLACEMENT_3D ( 'NONE', #228, #320, #357 ) ;
#180 = CARTESIAN_POINT ( 'NONE',  ( 1.434586502065868293E-14, 0.000000000000000000, 4.108819045102511502 ) ) ;
#181 = PERSON_AND_ORGANIZATION_ROLE ( 'classification_officer' ) ;
#182 = DATE_AND_TIME ( #307, #209 ) ;
#183 = EDGE_LOOP ( 'NONE', ( #374 ) ) ;
#184 = EDGE_CURVE ( 'NONE', #375, #375, #256, .T. ) ;
#185 = CARTESIAN_POINT ( 'NONE',  ( 0.4550000000000012368, 0.000000000000000000, 0.3645833333333332593 ) ) ;
#186 = EDGE_LOOP ( 'NONE', ( #42 ) ) ;
#187 = CARTESIAN_POINT ( 'NONE',  ( 0.3106624327025936383, 0.000000000000000000, 0.2812499999999956701 ) ) ;
#188 = EDGE_LOOP ( 'NONE', ( #68 ) ) ;
#189 = AXIS2_PLACEMENT_3D ( 'NONE', #16, #259, #324 ) ;
#190 = AXIS2_PLACEMENT_3D ( 'NONE', #234, #92, #358 ) ;
#191 = CC_DESIGN_PERSON_AND_ORGANIZATION_ASSIGNMENT ( #303, #153, ( #83 ) ) ;
#192 = CYLINDRICAL_SURFACE ( 'NONE', #36, 0.3106624327025926391 ) ;
#193 = FACE_OUTER_BOUND ( 'NONE', #220, .T. ) ;
#194 = CARTESIAN_POINT ( 'NONE',  ( 1.344220315454606184E-14, 0.000000000000000000, 3.849999999999999201 ) ) ;
#195 = AXIS2_PLACEMENT_3D ( 'NONE', #286, #13, #136 ) ;
#196 = FACE_OUTER_BOUND ( 'NONE', #249, .T. ) ;
#197 = CARTESIAN_POINT ( 'NONE',  ( 0.000000000000000000, 0.000000000000000000, 0.000000000000000000 ) ) ;
#198 = CYLINDRICAL_SURFACE ( 'NONE', #21, 0.3106624327025926391 ) ;
#199 = FACE_BOUND ( 'NONE', #106, .T. ) ;
#200 = AXIS2_PLACEMENT_3D ( 'NONE', #360, #394, #89 ) ;
#201 = CARTESIAN_POINT ( 'NONE',  ( 1.326762908760390423E-13, 1.199999999999993516, 38.00000000000000000 ) ) ;
#202 = APPROVAL_DATE_TIME ( #182, #205 ) ;
#203 = CARTESIAN_POINT ( 'NONE',  ( 1.326762908760390423E-13, 0.000000000000000000, 38.00000000000000000 ) ) ;
#204 = ORIENTED_EDGE ( 'NONE', *, *, #151, .T. ) ;
#205 = APPROVAL ( #272, 'UNSPECIFIED' ) ;
#206 = DIRECTION ( 'NONE',  ( -1.000000000000000000, 0.000000000000000000, 3.491481338843133355E-15 ) ) ;
#207 = PERSON_AND_ORGANIZATION ( #267, #63 ) ;
#208 = CIRCLE ( 'NONE', #102, 0.2549999999999995604 ) ;
#209 = LOCAL_TIME ( 10, 31, 42.00000000000000000, #4 ) ;
#210 = FACE_OUTER_BOUND ( 'NONE', #76, .T. ) ;
#211 = PERSON_AND_ORGANIZATION ( #267, #63 ) ;
#212 = VERTEX_POINT ( 'NONE', #185 ) ;
#213 = PERSON_AND_ORGANIZATION ( #267, #63 ) ;
#214 = EDGE_LOOP ( 'NONE', ( #338 ) ) ;
#215 = ORIENTED_EDGE ( 'NONE', *, *, #98, .T. ) ;
#216 = ADVANCED_FACE ( 'NONE', ( #169 ), #225, .F. ) ;
#217 = AXIS2_PLACEMENT_3D ( 'NONE', #46, #387, #322 ) ;
#218 = LOCAL_TIME ( 10, 31, 42.00000000000000000, #59 ) ;
#219 = ORIENTED_EDGE ( 'NONE', *, *, #2, .F. ) ;
#220 = EDGE_LOOP ( 'NONE', ( #204 ) ) ;
#221 = EDGE_LOOP ( 'NONE', ( #45 ) ) ;
#222 = FACE_OUTER_BOUND ( 'NONE', #221, .T. ) ;
#223 = DIRECTION ( 'NONE',  ( 1.000000000000000000, 0.000000000000000000, -3.401418580346680523E-15 ) ) ;
#224 = APPLICATION_PROTOCOL_DEFINITION ( 'international standard', 'config_control_design', 1994, #138 ) ;
#225 = PLANE ( 'NONE',  #5 ) ;
#226 = AXIS2_PLACEMENT_3D ( 'NONE', #302, #119, #270 ) ;
#227 = CARTESIAN_POINT ( 'NONE',  ( 0.000000000000000000, 0.000000000000000000, 0.000000000000000000 ) ) ;
#228 = CARTESIAN_POINT ( 'NONE',  ( 1.434586502065868293E-14, 0.000000000000000000, 4.108819045102511502 ) ) ;
#229 = CYLINDRICAL_SURFACE ( 'NONE', #88, 0.4550000000000000155 ) ;
#230 = CIRCLE ( 'NONE', #195, 0.3106624327025925836 ) ;
#231 =( GEOMETRIC_REPRESENTATION_CONTEXT ( 3 ) GLOBAL_UNCERTAINTY_ASSIGNED_CONTEXT ( ( #247 ) ) GLOBAL_UNIT_ASSIGNED_CONTEXT ( ( #128, #131, #342 ) ) REPRESENTATION_CONTEXT ( 'NONE', 'WORKASPACE' ) );
#232 = DIRECTION ( 'NONE',  ( 3.491481338843133355E-15, -0.000000000000000000, 1.000000000000000000 ) ) ;
#233 = COORDINATED_UNIVERSAL_TIME_OFFSET ( 1, 0, .AHEAD. ) ;
#234 = CARTESIAN_POINT ( 'NONE',  ( 1.316288464743861212E-13, 0.000000000000000000, 37.69999999999999574 ) ) ;
#235 = PERSON_AND_ORGANIZATION ( #267, #63 ) ;
#236 = PRODUCT_DEFINITION_SHAPE ( 'NONE', 'NONE',  #40 ) ;
#237 = EDGE_CURVE ( 'NONE', #280, #280, #276, .T. ) ;
#238 = PLANE ( 'NONE',  #22 ) ;
#239 = ORIENTED_EDGE ( 'NONE', *, *, #323, .T. ) ;
#240 = CARTESIAN_POINT ( 'NONE',  ( 1.345675099345788088E-15, 0.000000000000000000, 0.3854166666666658525 ) ) ;
#241 = DATE_AND_TIME ( #124, #287 ) ;
#242 = ORIENTED_EDGE ( 'NONE', *, *, #333, .T. ) ;
#243 = VERTEX_POINT ( 'NONE', #278 ) ;
#244 = CC_DESIGN_PERSON_AND_ORGANIZATION_ASSIGNMENT ( #213, #67, ( #86 ) ) ;
#245 = VERTEX_POINT ( 'NONE', #339 ) ;
#246 = EDGE_LOOP ( 'NONE', ( #101 ) ) ;
#247 = UNCERTAINTY_MEASURE_WITH_UNIT (LENGTH_MEASURE( 1.000000000000000082E-05 ), #128, 'distance_accuracy_value', 'NONE');
#248 = VERTEX_POINT ( 'NONE', #99 ) ;
#249 = EDGE_LOOP ( 'NONE', ( #239 ) ) ;
#250 = AXIS2_PLACEMENT_3D ( 'NONE', #264, #168, #148 ) ;
#251 = AXIS2_PLACEMENT_3D ( 'NONE', #66, #23, #1 ) ;
#252 = EDGE_LOOP ( 'NONE', ( #282 ) ) ;
#253 = CARTESIAN_POINT ( 'NONE',  ( 0.3106624327025943044, 0.000000000000000000, 0.4999999999999993339 ) ) ;
#254 = EDGE_LOOP ( 'NONE', ( #74 ) ) ;
#255 = DIRECTION ( 'NONE',  ( 1.000000000000000000, 0.000000000000000000, -3.491481338843133355E-15 ) ) ;
#256 = CIRCLE ( 'NONE', #173, 1.199999999999993516 ) ;
#257 = SECURITY_CLASSIFICATION ( '', '', #30 ) ;
#258 = CC_DESIGN_PERSON_AND_ORGANIZATION_ASSIGNMENT ( #235, #65, ( #40 ) ) ;
#259 = DIRECTION ( 'NONE',  ( 3.491481338843133355E-15, -0.000000000000000000, 1.000000000000000000 ) ) ;
#260 = DIRECTION ( 'NONE',  ( 3.491481338843133355E-15, -0.000000000000000000, 1.000000000000000000 ) ) ;
#261 = DIRECTION ( 'NONE',  ( 1.000000000000000000, 0.000000000000000000, 0.000000000000000000 ) ) ;
#262 = CONICAL_SURFACE ( 'NONE', #134, 0.2565358449660651297, 1.047197551196595189 ) ;
#263 = CONICAL_SURFACE ( 'NONE', #190, 1.499999999999996447, 0.7853981633974501664 ) ;
#264 = CARTESIAN_POINT ( 'NONE',  ( 4.728047646350040591E-16, 0.000000000000000000, 0.1354166666666656305 ) ) ;
#265 = DIRECTION ( 'NONE',  ( -3.491481338843133355E-15, 0.000000000000000000, -1.000000000000000000 ) ) ;
#266 = DIRECTION ( 'NONE',  ( 3.491481338843133355E-15, -0.000000000000000000, 1.000000000000000000 ) ) ;
#267 = PERSON ( 'UNSPECIFIED', 'UNSPECIFIED', 'UNSPECIFIED', ('UNSPECIFIED'), ('UNSPECIFIED'), ('UNSPECIFIED') ) ;
#268 = ADVANCED_FACE ( 'NONE', ( #222, #196 ), #294, .T. ) ;
#269 = LOCAL_TIME ( 10, 31, 42.00000000000000000, #306 ) ;
#270 = DIRECTION ( 'NONE',  ( 1.000000000000000000, 0.000000000000000000, -4.625929269271496366E-15 ) ) ;
#271 = DIRECTION ( 'NONE',  ( 1.000000000000000000, 0.000000000000000000, -3.000481595618963838E-15 ) ) ;
#272 = APPROVAL_STATUS ( 'not_yet_approved' ) ;
#273 = CARTESIAN_POINT ( 'NONE',  ( 1.500000000000127898, 0.000000000000000000, 37.69999999999998863 ) ) ;
#274 = CARTESIAN_POINT ( 'NONE',  ( 0.4550000000000004041, 0.000000000000000000, 0.1145833333333330095 ) ) ;
#275 = APPROVAL_DATE_TIME ( #35, #170 ) ;
#276 = CIRCLE ( 'NONE', #108, 0.3106624327025926946 ) ;
#277 = ADVANCED_FACE ( 'NONE', ( #80, #193 ), #318, .T. ) ;
#278 = CARTESIAN_POINT ( 'NONE',  ( 0.4550000000000013478, 0.000000000000000000, 0.3854166666666642982 ) ) ;
#279 = ORIENTED_EDGE ( 'NONE', *, *, #127, .F. ) ;
#280 = VERTEX_POINT ( 'NONE', #187 ) ;
#281 = VERTEX_POINT ( 'NONE', #132 ) ;
#282 = ORIENTED_EDGE ( 'NONE', *, *, #151, .F. ) ;
#283 = CARTESIAN_POINT ( 'NONE',  ( 0.3106624327025933607, 0.000000000000000000, 0.2187499999999956424 ) ) ;
#284 = CONICAL_SURFACE ( 'NONE', #200, 0.3106624327025926946, 1.047197551196575871 ) ;
#285 = ADVANCED_FACE ( 'NONE', ( #210, #362 ), #284, .T. ) ;
#286 = CARTESIAN_POINT ( 'NONE',  ( 7.637615428719239830E-16, 0.000000000000000000, 0.2187499999999967248 ) ) ;
#287 = LOCAL_TIME ( 10, 31, 42.00000000000000000, #233 ) ;
#288 = EDGE_LOOP ( 'NONE', ( #379 ) ) ;
#289 = CARTESIAN_POINT ( 'NONE',  ( 1.326762908760390423E-13, 0.000000000000000000, 38.00000000000000000 ) ) ;
#290 = DIRECTION ( 'NONE',  ( 3.491481338843133355E-15, -0.000000000000000000, 1.000000000000000000 ) ) ;
#291 = CONICAL_SURFACE ( 'NONE', #321, 0.2890741737109295828, 0.2617993877991428020 ) ;
#292 = ADVANCED_FACE ( 'NONE', ( #91 ), #391, .F. ) ;
#293 = FACE_OUTER_BOUND ( 'NONE', #104, .T. ) ;
#294 = CYLINDRICAL_SURFACE ( 'NONE', #309, 1.499999999999998224 ) ;
#295 = CARTESIAN_POINT ( 'NONE',  ( 1.326762908760390423E-13, 0.000000000000000000, 38.00000000000000000 ) ) ;
#296 = ADVANCED_FACE ( 'NONE', ( #177, #117 ), #291, .T. ) ;
#297 = DIRECTION ( 'NONE',  ( 1.000000000000000000, 0.000000000000000000, -3.469446951953614189E-15 ) ) ;
#298 = DIRECTION ( 'NONE',  ( 3.491481338843133355E-15, -0.000000000000000000, 1.000000000000000000 ) ) ;
#299 = FACE_OUTER_BOUND ( 'NONE', #288, .T. ) ;
#300 = CALENDAR_DATE ( 2023, 27, 9 ) ;
#301 = APPROVAL_PERSON_ORGANIZATION ( #33, #170, #122 ) ;
#302 = CARTESIAN_POINT ( 'NONE',  ( 1.316288464743861212E-13, 0.000000000000000000, 37.69999999999999574 ) ) ;
#303 = PERSON_AND_ORGANIZATION ( #267, #63 ) ;
#304 = EDGE_LOOP ( 'NONE', ( #242 ) ) ;
#305 = CARTESIAN_POINT ( 'NONE',  ( 1.745740669421568255E-15, 0.000000000000000000, 0.5000000000000004441 ) ) ;
#306 = COORDINATED_UNIVERSAL_TIME_OFFSET ( 1, 0, .AHEAD. ) ;
#307 = CALENDAR_DATE ( 2023, 27, 9 ) ;
#308 = EDGE_CURVE ( 'NONE', #163, #163, #37, .T. ) ;
#309 = AXIS2_PLACEMENT_3D ( 'NONE', #20, #383, #109 ) ;
#310 = AXIS2_PLACEMENT_3D ( 'NONE', #158, #54, #334 ) ;
#311 = EDGE_LOOP ( 'NONE', ( #219 ) ) ;
#312 = EDGE_LOOP ( 'NONE', ( #344 ) ) ;
#313 = ADVANCED_FACE ( 'NONE', ( #152, #299 ), #229, .T. ) ;
#314 = EDGE_LOOP ( 'NONE', ( #41 ) ) ;
#315 = DESIGN_CONTEXT ( 'detailed design', #351, 'design' ) ;
#316 = ORIENTED_EDGE ( 'NONE', *, *, #2, .T. ) ;
#317 = EDGE_LOOP ( 'NONE', ( #38 ) ) ;
#318 = CYLINDRICAL_SURFACE ( 'NONE', #17, 0.2549999999999997824 ) ;
#319 = ADVANCED_FACE ( 'NONE', ( #121, #32 ), #263, .T. ) ;
#320 = DIRECTION ( 'NONE',  ( 3.491481338843133355E-15, -0.000000000000000000, 1.000000000000000000 ) ) ;
#321 = AXIS2_PLACEMENT_3D ( 'NONE', #180, #298, #271 ) ;
#322 = DIRECTION ( 'NONE',  ( 1.000000000000000000, 0.000000000000000000, -3.484935554417692655E-15 ) ) ;
#323 = EDGE_CURVE ( 'NONE', #380, #380, #95, .T. ) ;
#324 = DIRECTION ( 'NONE',  ( 1.000000000000000000, 0.000000000000000000, -3.491481338843133355E-15 ) ) ;
#325 = CARTESIAN_POINT ( 'NONE',  ( 4.728047646350040591E-16, 0.000000000000000000, 0.1354166666666656305 ) ) ;
#326 = CLOSED_SHELL ( 'NONE', ( #216, #75, #313, #110, #140, #285, #349, #57, #18, #392, #277, #382, #296, #268, #319, #292 ) ) ;
#327 = DIRECTION ( 'NONE',  ( 1.000000000000000000, 0.000000000000000000, 0.000000000000000000 ) ) ;
#328 = DIRECTION ( 'NONE',  ( -1.000000000000000000, 0.000000000000000000, 3.491481338843133355E-15 ) ) ;
#329 = CARTESIAN_POINT ( 'NONE',  ( 1.326762908760390423E-13, 0.000000000000000000, 38.00000000000000000 ) ) ;
#330 = APPROVAL_STATUS ( 'not_yet_approved' ) ;
#331 = DIRECTION ( 'NONE',  ( 3.491481338843133355E-15, -0.000000000000000000, 1.000000000000000000 ) ) ;
#332 = DATE_AND_TIME ( #300, #218 ) ;
#333 = EDGE_CURVE ( 'NONE', #345, #345, #166, .T. ) ;
#334 = DIRECTION ( 'NONE',  ( 1.000000000000000000, 0.000000000000000000, -3.489968719595544330E-15 ) ) ;
#335 = APPROVAL_ROLE ( '' ) ;
#336 = VERTEX_POINT ( 'NONE', #70 ) ;
#337 = SHAPE_DEFINITION_REPRESENTATION ( #236, #39 ) ;
#338 = ORIENTED_EDGE ( 'NONE', *, *, #105, .T. ) ;
#339 = CARTESIAN_POINT ( 'NONE',  ( 0.2890741737109439602, 0.000000000000000000, 4.108819045102510614 ) ) ;
#340 = TOROIDAL_SURFACE ( 'NONE', #251, 1.254999999999999671, 0.9999999999999995559 ) ;
#341 = ORIENTED_EDGE ( 'NONE', *, *, #333, .F. ) ;
#342 =( NAMED_UNIT ( * ) SI_UNIT ( $, .STERADIAN. ) SOLID_ANGLE_UNIT ( ) );
#343 = EDGE_LOOP ( 'NONE', ( #341 ) ) ;
#344 = ORIENTED_EDGE ( 'NONE', *, *, #308, .T. ) ;
#345 = VERTEX_POINT ( 'NONE', #34 ) ;
#346 = FACE_OUTER_BOUND ( 'NONE', #246, .T. ) ;
#347 = AXIS2_PLACEMENT_3D ( 'NONE', #174, #260, #223 ) ;
#348 = DIRECTION ( 'NONE',  ( 1.000000000000000000, 0.000000000000000000, 0.000000000000000000 ) ) ;
#349 = ADVANCED_FACE ( 'NONE', ( #96, #64 ), #175, .T. ) ;
#350 = FACE_BOUND ( 'NONE', #311, .T. ) ;
#351 = APPLICATION_CONTEXT ( 'configuration controlled 3d designs of mechanical parts and assemblies' ) ;
#352 = CARTESIAN_POINT ( 'NONE',  ( 1.326762908760390423E-13, 0.000000000000000000, 38.00000000000000000 ) ) ;
#353 = CARTESIAN_POINT ( 'NONE',  ( 9.819791265496200149E-16, 0.000000000000000000, 0.2812499999999967804 ) ) ;
#354 = CIRCLE ( 'NONE', #179, 0.2890741737109295828 ) ;
#355 = CC_DESIGN_PERSON_AND_ORGANIZATION_ASSIGNMENT ( #207, #56, ( #83 ) ) ;
#356 = FACE_OUTER_BOUND ( 'NONE', #167, .T. ) ;
#357 = DIRECTION ( 'NONE',  ( 1.000000000000000000, 0.000000000000000000, -3.000481595618963838E-15 ) ) ;
#358 = DIRECTION ( 'NONE',  ( -1.000000000000000000, 0.000000000000000000, 4.625929269271496366E-15 ) ) ;
#359 = CC_DESIGN_SECURITY_CLASSIFICATION ( #257, ( #83 ) ) ;
#360 = CARTESIAN_POINT ( 'NONE',  ( 9.819791265496200149E-16, 0.000000000000000000, 0.2812499999999967804 ) ) ;
#361 = DATE_TIME_ROLE ( 'classification_date' ) ;
#362 = FACE_BOUND ( 'NONE', #365, .T. ) ;
#363 = APPROVAL_STATUS ( 'not_yet_approved' ) ;
#364 = FACE_OUTER_BOUND ( 'NONE', #130, .T. ) ;
#365 = EDGE_LOOP ( 'NONE', ( #10 ) ) ;
#366 = EDGE_CURVE ( 'NONE', #243, #243, #27, .T. ) ;
#367 = CIRCLE ( 'NONE', #189, 0.2565358449660651297 ) ;
#368 = AXIS2_PLACEMENT_3D ( 'NONE', #203, #266, #3 ) ;
#369 = FACE_OUTER_BOUND ( 'NONE', #314, .T. ) ;
#370 = CALENDAR_DATE ( 2023, 27, 9 ) ;
#371 = ORIENTED_EDGE ( 'NONE', *, *, #72, .T. ) ;
#372 = DATE_TIME_ROLE ( 'creation_date' ) ;
#373 = DIRECTION ( 'NONE',  ( 3.491481338843133355E-15, -0.000000000000000000, 1.000000000000000000 ) ) ;
#374 = ORIENTED_EDGE ( 'NONE', *, *, #43, .F. ) ;
#375 = VERTEX_POINT ( 'NONE', #69 ) ;
#376 = CIRCLE ( 'NONE', #250, 0.4550000000000000155 ) ;
#377 = APPROVAL_PERSON_ORGANIZATION ( #211, #205, #335 ) ;
#378 = EDGE_LOOP ( 'NONE', ( #316 ) ) ;
#379 = ORIENTED_EDGE ( 'NONE', *, *, #24, .T. ) ;
#380 = VERTEX_POINT ( 'NONE', #8 ) ;
#381 = ORIENTED_EDGE ( 'NONE', *, *, #43, .T. ) ;
#382 = ADVANCED_FACE ( 'NONE', ( #369, #364 ), #340, .F. ) ;
#383 = DIRECTION ( 'NONE',  ( 3.491481338843133355E-15, -0.000000000000000000, 1.000000000000000000 ) ) ;
#384 = FACE_OUTER_BOUND ( 'NONE', #378, .T. ) ;
#385 = DIRECTION ( 'NONE',  ( -1.000000000000000000, 0.000000000000000000, 3.455149780448310626E-15 ) ) ;
#386 = EDGE_CURVE ( 'NONE', #160, #160, #135, .T. ) ;
#387 = DIRECTION ( 'NONE',  ( 3.491481338843133355E-15, -0.000000000000000000, 1.000000000000000000 ) ) ;
#388 = AXIS2_PLACEMENT_3D ( 'NONE', #51, #172, #385 ) ;
#389 = AXIS2_PLACEMENT_3D ( 'NONE', #240, #58, #393 ) ;
#390 = FACE_OUTER_BOUND ( 'NONE', #188, .T. ) ;
#391 = PLANE ( 'NONE',  #12 ) ;
#392 = ADVANCED_FACE ( 'NONE', ( #29, #123 ), #238, .F. ) ;
#393 = DIRECTION ( 'NONE',  ( 1.000000000000000000, 0.000000000000000000, -3.455149780448310626E-15 ) ) ;
#394 = DIRECTION ( 'NONE',  ( 3.491481338843133355E-15, -0.000000000000000000, 1.000000000000000000 ) ) ;
#395 = COORDINATED_UNIVERSAL_TIME_OFFSET ( 1, 0, .AHEAD. ) ;
ENDSEC;
END-ISO-10303-21;
