ISO-10303-21;
HEADER;
FILE_DESCRIPTION (( 'STEP AP203' ),
    '1' );
FILE_NAME ('961178.step',
    '2023-09-27T08:31:41',
    ( '' ),
    ( '' ),
    'SwSTEP 2.0',
    'SolidWorks 2022',
    '' );
FILE_SCHEMA (( 'CONFIG_CONTROL_DESIGN' ));
ENDSEC;

DATA;
#1 = DIRECTION ( 'NONE',  ( 3.491481338843133355E-15, -0.000000000000000000, 1.000000000000000000 ) ) ;
#2 = EDGE_CURVE ( 'NONE', #142, #142, #289, .T. ) ;
#3 = FACE_OUTER_BOUND ( 'NONE', #16, .T. ) ;
#4 = PERSON_AND_ORGANIZATION ( #308, #381 ) ;
#5 = DIRECTION ( 'NONE',  ( 3.491481338843133355E-15, -0.000000000000000000, 1.000000000000000000 ) ) ;
#6 = CIRCLE ( 'NONE', #132, 0.1599999999999995592 ) ;
#7 = AXIS2_PLACEMENT_3D ( 'NONE', #371, #215, #304 ) ;
#8 = DATE_TIME_ROLE ( 'classification_date' ) ;
#9 = FACE_BOUND ( 'NONE', #179, .T. ) ;
#10 = ORIENTED_EDGE ( 'NONE', *, *, #182, .F. ) ;
#11 = AXIS2_PLACEMENT_3D ( 'NONE', #55, #183, #88 ) ;
#12 = CONICAL_SURFACE ( 'NONE', #124, 1.499999999999996447, 0.7853981633974501664 ) ;
#13 = AXIS2_PLACEMENT_3D ( 'NONE', #361, #30, #259 ) ;
#14 = ORIENTED_EDGE ( 'NONE', *, *, #222, .F. ) ;
#15 = ADVANCED_FACE ( 'NONE', ( #234, #386 ), #77, .T. ) ;
#16 = EDGE_LOOP ( 'NONE', ( #110 ) ) ;
#17 = DIRECTION ( 'NONE',  ( 1.000000000000000000, 0.000000000000000000, 0.000000000000000000 ) ) ;
#18 = EDGE_LOOP ( 'NONE', ( #106 ) ) ;
#19 = AXIS2_PLACEMENT_3D ( 'NONE', #300, #5, #188 ) ;
#20 = DIRECTION ( 'NONE',  ( 1.000000000000000000, 0.000000000000000000, -3.388131789017201356E-15 ) ) ;
#21 = EDGE_CURVE ( 'NONE', #191, #191, #243, .T. ) ;
#22 = CARTESIAN_POINT ( 'NONE',  ( 0.3550000000000012590, 0.000000000000000000, 0.3854166666666646313 ) ) ;
#23 = ORIENTED_EDGE ( 'NONE', *, *, #240, .F. ) ;
#24 = CARTESIAN_POINT ( 'NONE',  ( 1.207640215041065256E-14, 0.000000000000000000, 3.458819045102513812 ) ) ;
#25 = DESIGN_CONTEXT ( 'detailed design', #173, 'design' ) ;
#26 = AXIS2_PLACEMENT_3D ( 'NONE', #218, #373, #133 ) ;
#27 = APPROVAL_ROLE ( '' ) ;
#28 = CARTESIAN_POINT ( 'NONE',  ( 0.000000000000000000, 0.000000000000000000, 0.000000000000000000 ) ) ;
#29 = CC_DESIGN_PERSON_AND_ORGANIZATION_ASSIGNMENT ( #66, #214, ( #334 ) ) ;
#30 = DIRECTION ( 'NONE',  ( 3.491481338843133355E-15, -0.000000000000000000, 1.000000000000000000 ) ) ;
#31 = CARTESIAN_POINT ( 'NONE',  ( 0.2106624327025935772, 0.000000000000000000, 0.2812499999999960032 ) ) ;
#32 = FACE_OUTER_BOUND ( 'NONE', #287, .T. ) ;
#33 = AXIS2_PLACEMENT_3D ( 'NONE', #108, #317, #378 ) ;
#34 = CIRCLE ( 'NONE', #311, 1.199999999999993516 ) ;
#35 = DIRECTION ( 'NONE',  ( 3.491481338843133355E-15, -0.000000000000000000, 1.000000000000000000 ) ) ;
#36 = ADVANCED_FACE ( 'NONE', ( #365, #208 ), #318, .T. ) ;
#37 = DIRECTION ( 'NONE',  ( 1.000000000000000000, 0.000000000000000000, 0.000000000000000000 ) ) ;
#38 = APPROVAL_STATUS ( 'not_yet_approved' ) ;
#39 = CARTESIAN_POINT ( 'NONE',  ( 1.326762908760390423E-13, 0.000000000000000000, 38.00000000000000000 ) ) ;
#40 = AXIS2_PLACEMENT_3D ( 'NONE', #359, #391, #121 ) ;
#41 = FACE_OUTER_BOUND ( 'NONE', #196, .T. ) ;
#42 = AXIS2_PLACEMENT_3D ( 'NONE', #128, #160, #271 ) ;
#43 = EDGE_CURVE ( 'NONE', #225, #225, #150, .T. ) ;
#44 = CARTESIAN_POINT ( 'NONE',  ( 0.1940741737109416554, 0.000000000000000000, 3.458819045102512924 ) ) ;
#45 = ORIENTED_EDGE ( 'NONE', *, *, #2, .F. ) ;
#46 = AXIS2_PLACEMENT_3D ( 'NONE', #392, #230, #232 ) ;
#47 = DIRECTION ( 'NONE',  ( 3.491481338843133355E-15, -0.000000000000000000, 1.000000000000000000 ) ) ;
#48 = CARTESIAN_POINT ( 'NONE',  ( 0.2106624327025933829, 0.000000000000000000, 0.2187499999999960032 ) ) ;
#49 = ADVANCED_FACE ( 'NONE', ( #114, #332 ), #296, .T. ) ;
#50 = AXIS2_PLACEMENT_3D ( 'NONE', #313, #192, #382 ) ;
#51 = CARTESIAN_POINT ( 'NONE',  ( 1.636631877582708111E-15, 0.000000000000000000, 0.4687499999999969469 ) ) ;
#52 = FACE_OUTER_BOUND ( 'NONE', #263, .T. ) ;
#53 = DIRECTION ( 'NONE',  ( -1.000000000000000000, 0.000000000000000000, 3.512204220727691237E-15 ) ) ;
#54 = AXIS2_PLACEMENT_3D ( 'NONE', #221, #35, #275 ) ;
#55 = CARTESIAN_POINT ( 'NONE',  ( 2.909311942816014978E-14, 0.000000000000000000, 8.332600579729822599 ) ) ;
#56 = CARTESIAN_POINT ( 'NONE',  ( 0.1600000000000107170, 0.000000000000000000, 3.200000000000001066 ) ) ;
#57 = CARTESIAN_POINT ( 'NONE',  ( 1.345675099345788088E-15, 0.000000000000000000, 0.3854166666666658525 ) ) ;
#58 = COORDINATED_UNIVERSAL_TIME_OFFSET ( 1, 0, .AHEAD. ) ;
#59 = DIRECTION ( 'NONE',  ( 3.491481338843133355E-15, -0.000000000000000000, 1.000000000000000000 ) ) ;
#60 = DIRECTION ( 'NONE',  ( 1.000000000000000000, 0.000000000000000000, -3.491481338843133355E-15 ) ) ;
#61 = DATE_AND_TIME ( #219, #326 ) ;
#62 = FACE_BOUND ( 'NONE', #75, .T. ) ;
#63 = SECURITY_CLASSIFICATION_LEVEL ( 'unclassified' ) ;
#64 = PLANE ( 'NONE',  #227 ) ;
#65 = ADVANCED_FACE ( 'NONE', ( #204 ), #330, .F. ) ;
#66 = PERSON_AND_ORGANIZATION ( #308, #381 ) ;
#67 = APPROVAL_PERSON_ORGANIZATION ( #96, #210, #274 ) ;
#68 = FACE_BOUND ( 'NONE', #154, .T. ) ;
#69 = FACE_OUTER_BOUND ( 'NONE', #315, .T. ) ;
#70 = ORIENTED_EDGE ( 'NONE', *, *, #240, .T. ) ;
#71 = ORIENTED_EDGE ( 'NONE', *, *, #166, .F. ) ;
#72 = EDGE_LOOP ( 'NONE', ( #199 ) ) ;
#73 = AXIS2_PLACEMENT_3D ( 'NONE', #92, #59, #60 ) ;
#74 = CARTESIAN_POINT ( 'NONE',  ( 0.3550000000000003153, 0.000000000000000000, 0.1145833333333333565 ) ) ;
#75 = EDGE_LOOP ( 'NONE', ( #175 ) ) ;
#76 = PRODUCT_DEFINITION_SHAPE ( 'NONE', 'NONE',  #216 ) ;
#77 = CYLINDRICAL_SURFACE ( 'NONE', #13, 0.1599999999999997813 ) ;
#78 = CC_DESIGN_APPROVAL ( #210, ( #334 ) ) ;
#79 = PERSON_AND_ORGANIZATION ( #308, #381 ) ;
#80 = ORIENTED_EDGE ( 'NONE', *, *, #197, .F. ) ;
#81 = PERSON_AND_ORGANIZATION ( #308, #381 ) ;
#82 = FACE_OUTER_BOUND ( 'NONE', #193, .T. ) ;
#83 = EDGE_CURVE ( 'NONE', #252, #252, #103, .T. ) ;
#84 = CALENDAR_DATE ( 2023, 27, 9 ) ;
#85 = ORIENTED_EDGE ( 'NONE', *, *, #282, .T. ) ;
#86 = APPROVAL_PERSON_ORGANIZATION ( #244, #113, #99 ) ;
#87 = AXIS2_PLACEMENT_3D ( 'NONE', #129, #213, #242 ) ;
#88 = DIRECTION ( 'NONE',  ( 1.000000000000000000, 0.000000000000000000, -3.469446951953614189E-15 ) ) ;
#89 = ADVANCED_FACE ( 'NONE', ( #52, #337 ), #177, .T. ) ;
#90 = DATE_TIME_ROLE ( 'creation_date' ) ;
#91 = DIRECTION ( 'NONE',  ( -3.491481338843133355E-15, 0.000000000000000000, -1.000000000000000000 ) ) ;
#92 = CARTESIAN_POINT ( 'NONE',  ( 0.000000000000000000, 0.000000000000000000, 0.000000000000000000 ) ) ;
#93 = AXIS2_PLACEMENT_3D ( 'NONE', #28, #152, #265 ) ;
#94 = CC_DESIGN_APPROVAL ( #113, ( #209 ) ) ;
#95 = CARTESIAN_POINT ( 'NONE',  ( 1.326762908760390423E-13, 0.000000000000000000, 38.00000000000000000 ) ) ;
#96 = PERSON_AND_ORGANIZATION ( #308, #381 ) ;
#97 = DIRECTION ( 'NONE',  ( 3.491481338843133355E-15, -0.000000000000000000, 1.000000000000000000 ) ) ;
#98 = ADVANCED_FACE ( 'NONE', ( #149, #82 ), #194, .T. ) ;
#99 = APPROVAL_ROLE ( '' ) ;
#100 = FACE_OUTER_BOUND ( 'NONE', #350, .T. ) ;
#101 = AXIS2_PLACEMENT_3D ( 'NONE', #95, #1, #309 ) ;
#102 = CYLINDRICAL_SURFACE ( 'NONE', #310, 0.2106624327025926058 ) ;
#103 = CIRCLE ( 'NONE', #237, 0.1940741737109295539 ) ;
#104 = AXIS2_PLACEMENT_3D ( 'NONE', #246, #273, #339 ) ;
#105 = CC_DESIGN_PERSON_AND_ORGANIZATION_ASSIGNMENT ( #79, #362, ( #119 ) ) ;
#106 = ORIENTED_EDGE ( 'NONE', *, *, #280, .T. ) ;
#107 = ORIENTED_EDGE ( 'NONE', *, *, #355, .T. ) ;
#108 = CARTESIAN_POINT ( 'NONE',  ( 1.326762908760390423E-13, 1.199999999999993516, 38.00000000000000000 ) ) ;
#109 = LOCAL_TIME ( 10, 31, 41.00000000000000000, #364 ) ;
#110 = ORIENTED_EDGE ( 'NONE', *, *, #166, .T. ) ;
#111 = DIRECTION ( 'NONE',  ( 1.000000000000000000, 0.000000000000000000, -4.625929269271496366E-15 ) ) ;
#112 = ORIENTED_EDGE ( 'NONE', *, *, #197, .T. ) ;
#113 = APPROVAL ( #301, 'UNSPECIFIED' ) ;
#114 = FACE_OUTER_BOUND ( 'NONE', #321, .T. ) ;
#115 = DIRECTION ( 'NONE',  ( 1.000000000000000000, 0.000000000000000000, -3.602642915508840499E-15 ) ) ;
#116 = AXIS2_PLACEMENT_3D ( 'NONE', #255, #320, #111 ) ;
#117 = MECHANICAL_CONTEXT ( 'NONE', #233, 'mechanical' ) ;
#118 = CC_DESIGN_PERSON_AND_ORGANIZATION_ASSIGNMENT ( #238, #185, ( #216 ) ) ;
#119 = PRODUCT ( '961178', '961178', '', ( #117 ) ) ;
#120 = FACE_OUTER_BOUND ( 'NONE', #226, .T. ) ;
#121 = DIRECTION ( 'NONE',  ( 1.000000000000000000, 0.000000000000000000, 0.000000000000000000 ) ) ;
#122 = DIRECTION ( 'NONE',  ( 3.491481338843133355E-15, -0.000000000000000000, 1.000000000000000000 ) ) ;
#123 = EDGE_CURVE ( 'NONE', #168, #168, #327, .T. ) ;
#124 = AXIS2_PLACEMENT_3D ( 'NONE', #347, #184, #302 ) ;
#125 = CIRCLE ( 'NONE', #104, 0.3549999999999999267 ) ;
#126 = DIRECTION ( 'NONE',  ( 3.491481338843133355E-15, -0.000000000000000000, 1.000000000000000000 ) ) ;
#127 = MANIFOLD_SOLID_BREP ( 'Corps-Déplacer/Copier1', #346 ) ;
#128 = CARTESIAN_POINT ( 'NONE',  ( 1.745740669421568255E-15, 0.000000000000000000, 0.5000000000000004441 ) ) ;
#129 = CARTESIAN_POINT ( 'NONE',  ( 7.637615428719239830E-16, 0.000000000000000000, 0.2187499999999967248 ) ) ;
#130 = AXIS2_PLACEMENT_3D ( 'NONE', #57, #206, #53 ) ;
#131 = CALENDAR_DATE ( 2023, 27, 9 ) ;
#132 = AXIS2_PLACEMENT_3D ( 'NONE', #137, #47, #195 ) ;
#133 = DIRECTION ( 'NONE',  ( 1.000000000000000000, 0.000000000000000000, -3.602642915508840499E-15 ) ) ;
#134 = CC_DESIGN_PERSON_AND_ORGANIZATION_ASSIGNMENT ( #4, #344, ( #334 ) ) ;
#135 = SHAPE_DEFINITION_REPRESENTATION ( #76, #316 ) ;
#136 = CARTESIAN_POINT ( 'NONE',  ( 1.117274028429802674E-14, 0.000000000000000000, 3.200000000000000178 ) ) ;
#137 = CARTESIAN_POINT ( 'NONE',  ( 1.117274028429803147E-14, 0.000000000000000000, 3.200000000000001510 ) ) ;
#138 = ORIENTED_EDGE ( 'NONE', *, *, #222, .T. ) ;
#139 = ORIENTED_EDGE ( 'NONE', *, *, #2, .T. ) ;
#140 = CARTESIAN_POINT ( 'NONE',  ( 0.2106624327025943266, 0.000000000000000000, 0.4999999999999996669 ) ) ;
#141 = ORIENTED_EDGE ( 'NONE', *, *, #280, .F. ) ;
#142 = VERTEX_POINT ( 'NONE', #356 ) ;
#143 = EDGE_LOOP ( 'NONE', ( #107 ) ) ;
#144 = PLANE ( 'NONE',  #33 ) ;
#145 = CC_DESIGN_PERSON_AND_ORGANIZATION_ASSIGNMENT ( #338, #162, ( #209 ) ) ;
#146 = DIRECTION ( 'NONE',  ( 3.491481338843133355E-15, -0.000000000000000000, 1.000000000000000000 ) ) ;
#147 = CARTESIAN_POINT ( 'NONE',  ( 0.3550000000000011480, 0.000000000000000000, 0.3645833333333335924 ) ) ;
#148 = CARTESIAN_POINT ( 'NONE',  ( 1.207640215041065256E-14, 0.000000000000000000, 3.458819045102513812 ) ) ;
#149 = FACE_BOUND ( 'NONE', #256, .T. ) ;
#150 = CIRCLE ( 'NONE', #376, 0.2106624327025926058 ) ;
#151 = LOCAL_TIME ( 10, 31, 41.00000000000000000, #372 ) ;
#152 = DIRECTION ( 'NONE',  ( 3.491481338843133355E-15, -0.000000000000000000, 1.000000000000000000 ) ) ;
#153 = VERTEX_POINT ( 'NONE', #147 ) ;
#154 = EDGE_LOOP ( 'NONE', ( #45 ) ) ;
#155 = COORDINATED_UNIVERSAL_TIME_OFFSET ( 1, 0, .AHEAD. ) ;
#156 = FACE_OUTER_BOUND ( 'NONE', #298, .T. ) ;
#157 = CIRCLE ( 'NONE', #87, 0.2106624327025926058 ) ;
#158 = FACE_OUTER_BOUND ( 'NONE', #248, .T. ) ;
#159 = DATE_AND_TIME ( #368, #151 ) ;
#160 = DIRECTION ( 'NONE',  ( 3.491481338843133355E-15, -0.000000000000000000, 1.000000000000000000 ) ) ;
#161 = ADVANCED_FACE ( 'NONE', ( #120, #345 ), #395, .T. ) ;
#162 = PERSON_AND_ORGANIZATION_ROLE ( 'classification_officer' ) ;
#163 = DIRECTION ( 'NONE',  ( -1.000000000000000000, 0.000000000000000000, 3.491481338843133355E-15 ) ) ;
#164 = CIRCLE ( 'NONE', #26, 0.2106624327025926058 ) ;
#165 = FACE_BOUND ( 'NONE', #211, .T. ) ;
#166 = EDGE_CURVE ( 'NONE', #284, #284, #277, .T. ) ;
#167 = LOCAL_TIME ( 10, 31, 41.00000000000000000, #212 ) ;
#168 = VERTEX_POINT ( 'NONE', #353 ) ;
#169 = EDGE_LOOP ( 'NONE', ( #71 ) ) ;
#170 = FACE_OUTER_BOUND ( 'NONE', #202, .T. ) ;
#171 = ORIENTED_EDGE ( 'NONE', *, *, #43, .T. ) ;
#172 = VERTEX_POINT ( 'NONE', #357 ) ;
#173 = APPLICATION_CONTEXT ( 'configuration controlled 3d designs of mechanical parts and assemblies' ) ;
#174 = ORIENTED_EDGE ( 'NONE', *, *, #182, .T. ) ;
#175 = ORIENTED_EDGE ( 'NONE', *, *, #123, .T. ) ;
#176 = ADVANCED_FACE ( 'NONE', ( #68, #3 ), #64, .F. ) ;
#177 = CYLINDRICAL_SURFACE ( 'NONE', #366, 0.3549999999999999267 ) ;
#178 = APPROVAL_STATUS ( 'not_yet_approved' ) ;
#179 = EDGE_LOOP ( 'NONE', ( #80 ) ) ;
#180 = AXIS2_PLACEMENT_3D ( 'NONE', #136, #279, #269 ) ;
#181 = EDGE_LOOP ( 'NONE', ( #236 ) ) ;
#182 = EDGE_CURVE ( 'NONE', #198, #198, #217, .T. ) ;
#183 = DIRECTION ( 'NONE',  ( 3.491481338843133355E-15, -0.000000000000000000, 1.000000000000000000 ) ) ;
#184 = DIRECTION ( 'NONE',  ( -3.491481338843133355E-15, 0.000000000000000000, -1.000000000000000000 ) ) ;
#185 = PERSON_AND_ORGANIZATION_ROLE ( 'creator' ) ;
#186 = DIRECTION ( 'NONE',  ( 1.000000000000000000, 0.000000000000000000, -3.512204220727690448E-15 ) ) ;
#187 = CALENDAR_DATE ( 2023, 27, 9 ) ;
#188 = DIRECTION ( 'NONE',  ( 1.000000000000000000, 0.000000000000000000, -3.512204220727691237E-15 ) ) ;
#189 = CIRCLE ( 'NONE', #19, 0.3549999999999999267 ) ;
#190 = EDGE_CURVE ( 'NONE', #322, #322, #157, .T. ) ;
#191 = VERTEX_POINT ( 'NONE', #377 ) ;
#192 = DIRECTION ( 'NONE',  ( 3.491481338843133355E-15, -0.000000000000000000, 1.000000000000000000 ) ) ;
#193 = EDGE_LOOP ( 'NONE', ( #138 ) ) ;
#194 = CONICAL_SURFACE ( 'NONE', #130, 0.3549999999999999267, 1.047197551196611842 ) ;
#195 = DIRECTION ( 'NONE',  ( 1.000000000000000000, 0.000000000000000000, -2.710505431213768579E-15 ) ) ;
#196 = EDGE_LOOP ( 'NONE', ( #224 ) ) ;
#197 = EDGE_CURVE ( 'NONE', #172, #172, #34, .T. ) ;
#198 = VERTEX_POINT ( 'NONE', #74 ) ;
#199 = ORIENTED_EDGE ( 'NONE', *, *, #83, .T. ) ;
#200 = EDGE_LOOP ( 'NONE', ( #174 ) ) ;
#201 = CIRCLE ( 'NONE', #116, 1.499999999999996447 ) ;
#202 = EDGE_LOOP ( 'NONE', ( #348 ) ) ;
#203 = APPLICATION_PROTOCOL_DEFINITION ( 'international standard', 'config_control_design', 1994, #173 ) ;
#204 = FACE_OUTER_BOUND ( 'NONE', #285, .T. ) ;
#205 = VERTEX_POINT ( 'NONE', #22 ) ;
#206 = DIRECTION ( 'NONE',  ( -3.491481338843133355E-15, 0.000000000000000000, -1.000000000000000000 ) ) ;
#207 =( LENGTH_UNIT ( ) NAMED_UNIT ( * ) SI_UNIT ( .MILLI., .METRE. ) );
#208 = FACE_BOUND ( 'NONE', #72, .T. ) ;
#209 = SECURITY_CLASSIFICATION ( '', '', #63 ) ;
#210 = APPROVAL ( #38, 'UNSPECIFIED' ) ;
#211 = EDGE_LOOP ( 'NONE', ( #281 ) ) ;
#212 = COORDINATED_UNIVERSAL_TIME_OFFSET ( 1, 0, .AHEAD. ) ;
#213 = DIRECTION ( 'NONE',  ( 3.491481338843133355E-15, -0.000000000000000000, 1.000000000000000000 ) ) ;
#214 = PERSON_AND_ORGANIZATION_ROLE ( 'creator' ) ;
#215 = DIRECTION ( 'NONE',  ( -3.491481338843133355E-15, 0.000000000000000000, -1.000000000000000000 ) ) ;
#216 = PRODUCT_DEFINITION ( 'UNKNOWN', '', #334, #25 ) ;
#217 = CIRCLE ( 'NONE', #54, 0.3549999999999999822 ) ;
#218 = CARTESIAN_POINT ( 'NONE',  ( 9.819791265496200149E-16, 0.000000000000000000, 0.2812499999999967804 ) ) ;
#219 = CALENDAR_DATE ( 2023, 27, 9 ) ;
#220 = DIRECTION ( 'NONE',  ( 1.000000000000000000, 0.000000000000000000, -5.782411586589388010E-15 ) ) ;
#221 = CARTESIAN_POINT ( 'NONE',  ( 4.000655700757801179E-16, 0.000000000000000000, 0.1145833333333345916 ) ) ;
#222 = EDGE_CURVE ( 'NONE', #205, #205, #189, .T. ) ;
#223 = CARTESIAN_POINT ( 'NONE',  ( 1.326762908760390423E-13, 0.000000000000000000, 38.00000000000000000 ) ) ;
#224 = ORIENTED_EDGE ( 'NONE', *, *, #83, .F. ) ;
#225 = VERTEX_POINT ( 'NONE', #349 ) ;
#226 = EDGE_LOOP ( 'NONE', ( #354 ) ) ;
#227 = AXIS2_PLACEMENT_3D ( 'NONE', #369, #91, #163 ) ;
#228 = FACE_OUTER_BOUND ( 'NONE', #251, .T. ) ;
#229 = ADVANCED_FACE ( 'NONE', ( #165, #32 ), #249, .T. ) ;
#230 = DIRECTION ( 'NONE',  ( 3.491481338843133355E-15, -0.000000000000000000, 1.000000000000000000 ) ) ;
#231 = AXIS2_PLACEMENT_3D ( 'NONE', #148, #266, #292 ) ;
#232 = DIRECTION ( 'NONE',  ( 1.000000000000000000, 0.000000000000000000, -3.602642915508840499E-15 ) ) ;
#233 = APPLICATION_CONTEXT ( 'configuration controlled 3d designs of mechanical parts and assemblies' ) ;
#234 = FACE_OUTER_BOUND ( 'NONE', #358, .T. ) ;
#235 = DIRECTION ( 'NONE',  ( 3.491481338843133355E-15, -0.000000000000000000, 1.000000000000000000 ) ) ;
#236 = ORIENTED_EDGE ( 'NONE', *, *, #21, .F. ) ;
#237 = AXIS2_PLACEMENT_3D ( 'NONE', #24, #122, #384 ) ;
#238 = PERSON_AND_ORGANIZATION ( #308, #381 ) ;
#239 = FACE_OUTER_BOUND ( 'NONE', #143, .T. ) ;
#240 = EDGE_CURVE ( 'NONE', #153, #153, #125, .T. ) ;
#241 = FACE_OUTER_BOUND ( 'NONE', #169, .T. ) ;
#242 = DIRECTION ( 'NONE',  ( 1.000000000000000000, 0.000000000000000000, -3.473977097097810537E-15 ) ) ;
#243 = CIRCLE ( 'NONE', #11, 1.500000000000000000 ) ;
#244 = PERSON_AND_ORGANIZATION ( #308, #381 ) ;
#245 = DIRECTION ( 'NONE',  ( 3.491481338843133355E-15, -0.000000000000000000, 1.000000000000000000 ) ) ;
#246 = CARTESIAN_POINT ( 'NONE',  ( 1.272935904786564295E-15, 0.000000000000000000, 0.3645833333333348136 ) ) ;
#247 = ADVANCED_FACE ( 'NONE', ( #241, #156 ), #370, .T. ) ;
#248 = EDGE_LOOP ( 'NONE', ( #112 ) ) ;
#249 = CONICAL_SURFACE ( 'NONE', #7, 0.3549999999999999822, 1.047197551196612064 ) ;
#250 = FACE_OUTER_BOUND ( 'NONE', #288, .T. ) ;
#251 = EDGE_LOOP ( 'NONE', ( #141 ) ) ;
#252 = VERTEX_POINT ( 'NONE', #44 ) ;
#253 = EDGE_LOOP ( 'NONE', ( #70 ) ) ;
#254 = LOCAL_TIME ( 10, 31, 41.00000000000000000, #58 ) ;
#255 = CARTESIAN_POINT ( 'NONE',  ( 1.316288464743861212E-13, 0.000000000000000000, 37.69999999999999574 ) ) ;
#256 = EDGE_LOOP ( 'NONE', ( #363 ) ) ;
#257 = DIRECTION ( 'NONE',  ( 1.000000000000000000, 0.000000000000000000, -3.491481338843133355E-15 ) ) ;
#258 = APPLICATION_PROTOCOL_DEFINITION ( 'international standard', 'config_control_design', 1994, #233 ) ;
#259 = DIRECTION ( 'NONE',  ( 1.000000000000000000, 0.000000000000000000, 0.000000000000000000 ) ) ;
#260 = VERTEX_POINT ( 'NONE', #294 ) ;
#261 = AXIS2_PLACEMENT_3D ( 'NONE', #39, #126, #37 ) ;
#262 =( GEOMETRIC_REPRESENTATION_CONTEXT ( 3 ) GLOBAL_UNCERTAINTY_ASSIGNED_CONTEXT ( ( #293 ) ) GLOBAL_UNIT_ASSIGNED_CONTEXT ( ( #207, #329, #299 ) ) REPRESENTATION_CONTEXT ( 'NONE', 'WORKASPACE' ) );
#263 = EDGE_LOOP ( 'NONE', ( #14 ) ) ;
#264 = VERTEX_POINT ( 'NONE', #56 ) ;
#265 = DIRECTION ( 'NONE',  ( 1.000000000000000000, 0.000000000000000000, -3.491481338843133355E-15 ) ) ;
#266 = DIRECTION ( 'NONE',  ( 3.491481338843133355E-15, -0.000000000000000000, 1.000000000000000000 ) ) ;
#267 = AXIS2_PLACEMENT_3D ( 'NONE', #390, #328, #20 ) ;
#268 = DATE_AND_TIME ( #187, #167 ) ;
#269 = DIRECTION ( 'NONE',  ( 1.000000000000000000, 0.000000000000000000, -3.491481338843132961E-15 ) ) ;
#270 = AXIS2_PLACEMENT_3D ( 'NONE', #367, #335, #257 ) ;
#271 = DIRECTION ( 'NONE',  ( 1.000000000000000000, 0.000000000000000000, -3.602642915508840499E-15 ) ) ;
#272 = APPROVAL_DATE_TIME ( #61, #210 ) ;
#273 = DIRECTION ( 'NONE',  ( 3.491481338843133355E-15, -0.000000000000000000, 1.000000000000000000 ) ) ;
#274 = APPROVAL_ROLE ( '' ) ;
#275 = DIRECTION ( 'NONE',  ( 1.000000000000000000, 0.000000000000000000, -3.474028087893693774E-15 ) ) ;
#276 = APPROVAL_PERSON_ORGANIZATION ( #81, #385, #27 ) ;
#277 = CIRCLE ( 'NONE', #42, 0.2106624327025925780 ) ;
#278 = AXIS2_PLACEMENT_3D ( 'NONE', #305, #245, #186 ) ;
#279 = DIRECTION ( 'NONE',  ( 3.491481338843133355E-15, -0.000000000000000000, 1.000000000000000000 ) ) ;
#280 = EDGE_CURVE ( 'NONE', #389, #389, #164, .T. ) ;
#281 = ORIENTED_EDGE ( 'NONE', *, *, #190, .F. ) ;
#282 = EDGE_CURVE ( 'NONE', #291, #291, #283, .T. ) ;
#283 = CIRCLE ( 'NONE', #278, 0.3549999999999999822 ) ;
#284 = VERTEX_POINT ( 'NONE', #140 ) ;
#285 = EDGE_LOOP ( 'NONE', ( #325 ) ) ;
#286 = CYLINDRICAL_SURFACE ( 'NONE', #50, 1.499999999999998224 ) ;
#287 = EDGE_LOOP ( 'NONE', ( #85 ) ) ;
#288 = EDGE_LOOP ( 'NONE', ( #323 ) ) ;
#289 = CIRCLE ( 'NONE', #267, 0.1600000000000000033 ) ;
#290 = ADVANCED_FACE ( 'NONE', ( #342, #62 ), #394, .T. ) ;
#291 = VERTEX_POINT ( 'NONE', #336 ) ;
#292 = DIRECTION ( 'NONE',  ( 1.000000000000000000, 0.000000000000000000, -4.469228034845714395E-15 ) ) ;
#293 = UNCERTAINTY_MEASURE_WITH_UNIT (LENGTH_MEASURE( 1.000000000000000082E-05 ), #207, 'distance_accuracy_value', 'NONE');
#294 = CARTESIAN_POINT ( 'NONE',  ( 1.500000000000127898, 0.000000000000000000, 37.69999999999998863 ) ) ;
#295 = CARTESIAN_POINT ( 'NONE',  ( 1.326762908760390423E-13, 0.000000000000000000, 38.00000000000000000 ) ) ;
#296 = CONICAL_SURFACE ( 'NONE', #46, 0.2106624327025926058, 1.047197551196575871 ) ;
#297 = DIRECTION ( 'NONE',  ( 1.000000000000000000, 0.000000000000000000, 0.000000000000000000 ) ) ;
#298 = EDGE_LOOP ( 'NONE', ( #171 ) ) ;
#299 =( NAMED_UNIT ( * ) SI_UNIT ( $, .STERADIAN. ) SOLID_ANGLE_UNIT ( ) );
#300 = CARTESIAN_POINT ( 'NONE',  ( 1.345675099345788088E-15, 0.000000000000000000, 0.3854166666666658525 ) ) ;
#301 = APPROVAL_STATUS ( 'not_yet_approved' ) ;
#302 = DIRECTION ( 'NONE',  ( -1.000000000000000000, 0.000000000000000000, 4.625929269271496366E-15 ) ) ;
#303 = DATE_AND_TIME ( #131, #254 ) ;
#304 = DIRECTION ( 'NONE',  ( -1.000000000000000000, 0.000000000000000000, 3.512204220727690448E-15 ) ) ;
#305 = CARTESIAN_POINT ( 'NONE',  ( 4.728047646350040591E-16, 0.000000000000000000, 0.1354166666666656305 ) ) ;
#306 = ADVANCED_FACE ( 'NONE', ( #41, #100 ), #319, .F. ) ;
#307 = APPROVAL_DATE_TIME ( #268, #113 ) ;
#308 = PERSON ( 'UNSPECIFIED', 'UNSPECIFIED', 'UNSPECIFIED', ('UNSPECIFIED'), ('UNSPECIFIED'), ('UNSPECIFIED') ) ;
#309 = DIRECTION ( 'NONE',  ( 1.000000000000000000, 0.000000000000000000, 0.000000000000000000 ) ) ;
#310 = AXIS2_PLACEMENT_3D ( 'NONE', #223, #351, #17 ) ;
#311 = AXIS2_PLACEMENT_3D ( 'NONE', #340, #97, #220 ) ;
#312 = APPROVAL_DATE_TIME ( #333, #385 ) ;
#313 = CARTESIAN_POINT ( 'NONE',  ( 1.326762908760390423E-13, 0.000000000000000000, 38.00000000000000000 ) ) ;
#314 = ADVANCED_FACE ( 'NONE', ( #9, #239 ), #12, .T. ) ;
#315 = EDGE_LOOP ( 'NONE', ( #383 ) ) ;
#316 = ADVANCED_BREP_SHAPE_REPRESENTATION ( '961178', ( #127, #40 ), #262 ) ;
#317 = DIRECTION ( 'NONE',  ( -3.491481338843133355E-15, 0.000000000000000000, -1.000000000000000000 ) ) ;
#318 = CONICAL_SURFACE ( 'NONE', #231, 0.1940741737109295539, 0.2617993877991428020 ) ;
#319 = TOROIDAL_SURFACE ( 'NONE', #180, 1.159999999999999476, 1.000000000000000000 ) ;
#320 = DIRECTION ( 'NONE',  ( 3.491481338843133355E-15, -0.000000000000000000, 1.000000000000000000 ) ) ;
#321 = EDGE_LOOP ( 'NONE', ( #23 ) ) ;
#322 = VERTEX_POINT ( 'NONE', #48 ) ;
#323 = ORIENTED_EDGE ( 'NONE', *, *, #190, .T. ) ;
#324 = CC_DESIGN_DATE_AND_TIME_ASSIGNMENT ( #159, #90, ( #216 ) ) ;
#325 = ORIENTED_EDGE ( 'NONE', *, *, #123, .F. ) ;
#326 = LOCAL_TIME ( 10, 31, 41.00000000000000000, #155 ) ;
#327 = CIRCLE ( 'NONE', #93, 0.1565358449660652629 ) ;
#328 = DIRECTION ( 'NONE',  ( 3.491481338843133355E-15, -0.000000000000000000, 1.000000000000000000 ) ) ;
#329 =( NAMED_UNIT ( * ) PLANE_ANGLE_UNIT ( ) SI_UNIT ( $, .RADIAN. ) );
#330 = PLANE ( 'NONE',  #270 ) ;
#331 = ADVANCED_FACE ( 'NONE', ( #158 ), #144, .F. ) ;
#332 = FACE_BOUND ( 'NONE', #18, .T. ) ;
#333 = DATE_AND_TIME ( #84, #109 ) ;
#334 = PRODUCT_DEFINITION_FORMATION_WITH_SPECIFIED_SOURCE ( 'ANY', '', #119, .NOT_KNOWN. ) ;
#335 = DIRECTION ( 'NONE',  ( 3.491481338843133355E-15, -0.000000000000000000, 1.000000000000000000 ) ) ;
#336 = CARTESIAN_POINT ( 'NONE',  ( 0.3550000000000004263, 0.000000000000000000, 0.1354166666666643815 ) ) ;
#337 = FACE_OUTER_BOUND ( 'NONE', #253, .T. ) ;
#338 = PERSON_AND_ORGANIZATION ( #308, #381 ) ;
#339 = DIRECTION ( 'NONE',  ( 1.000000000000000000, 0.000000000000000000, -3.512204220727691237E-15 ) ) ;
#340 = CARTESIAN_POINT ( 'NONE',  ( 1.326762908760390423E-13, 0.000000000000000000, 38.00000000000000000 ) ) ;
#341 = CC_DESIGN_APPROVAL ( #385, ( #216 ) ) ;
#342 = FACE_OUTER_BOUND ( 'NONE', #352, .T. ) ;
#343 = CC_DESIGN_DATE_AND_TIME_ASSIGNMENT ( #303, #8, ( #209 ) ) ;
#344 = PERSON_AND_ORGANIZATION_ROLE ( 'design_supplier' ) ;
#345 = FACE_OUTER_BOUND ( 'NONE', #200, .T. ) ;
#346 = CLOSED_SHELL ( 'NONE', ( #65, #290, #161, #229, #379, #49, #89, #98, #247, #176, #15, #306, #36, #393, #314, #331 ) ) ;
#347 = CARTESIAN_POINT ( 'NONE',  ( 1.316288464743861212E-13, 0.000000000000000000, 37.69999999999999574 ) ) ;
#348 = ORIENTED_EDGE ( 'NONE', *, *, #355, .F. ) ;
#349 = CARTESIAN_POINT ( 'NONE',  ( 0.2106624327025942434, 0.000000000000000000, 0.4687499999999961697 ) ) ;
#350 = EDGE_LOOP ( 'NONE', ( #375 ) ) ;
#351 = DIRECTION ( 'NONE',  ( 3.491481338843133355E-15, -0.000000000000000000, 1.000000000000000000 ) ) ;
#352 = EDGE_LOOP ( 'NONE', ( #10 ) ) ;
#353 = CARTESIAN_POINT ( 'NONE',  ( 0.1565358449660652629, 0.000000000000000000, -5.465419815590586836E-16 ) ) ;
#354 = ORIENTED_EDGE ( 'NONE', *, *, #282, .F. ) ;
#355 = EDGE_CURVE ( 'NONE', #260, #260, #201, .T. ) ;
#356 = CARTESIAN_POINT ( 'NONE',  ( 0.1600000000000017519, 0.000000000000000000, 0.4999999999999998890 ) ) ;
#357 = CARTESIAN_POINT ( 'NONE',  ( 1.200000000000126299, 0.000000000000000000, 37.99999999999999289 ) ) ;
#358 = EDGE_LOOP ( 'NONE', ( #380 ) ) ;
#359 = CARTESIAN_POINT ( 'NONE',  ( 0.000000000000000000, 0.000000000000000000, 0.000000000000000000 ) ) ;
#360 = EDGE_CURVE ( 'NONE', #264, #264, #6, .T. ) ;
#361 = CARTESIAN_POINT ( 'NONE',  ( 1.326762908760390423E-13, 0.000000000000000000, 38.00000000000000000 ) ) ;
#362 = PERSON_AND_ORGANIZATION_ROLE ( 'design_owner' ) ;
#363 = ORIENTED_EDGE ( 'NONE', *, *, #43, .F. ) ;
#364 = COORDINATED_UNIVERSAL_TIME_OFFSET ( 1, 0, .AHEAD. ) ;
#365 = FACE_OUTER_BOUND ( 'NONE', #181, .T. ) ;
#366 = AXIS2_PLACEMENT_3D ( 'NONE', #295, #146, #297 ) ;
#367 = CARTESIAN_POINT ( 'NONE',  ( -1.591172025856341336E-35, 0.000000000000000000, -4.557297809827504131E-21 ) ) ;
#368 = CALENDAR_DATE ( 2023, 27, 9 ) ;
#369 = CARTESIAN_POINT ( 'NONE',  ( 1.745740669421566678E-15, 0.2106624327025925780, 0.5000000000000000000 ) ) ;
#370 = CYLINDRICAL_SURFACE ( 'NONE', #101, 0.2106624327025925780 ) ;
#371 = CARTESIAN_POINT ( 'NONE',  ( 4.728047646350040591E-16, 0.000000000000000000, 0.1354166666666656305 ) ) ;
#372 = COORDINATED_UNIVERSAL_TIME_OFFSET ( 1, 0, .AHEAD. ) ;
#373 = DIRECTION ( 'NONE',  ( 3.491481338843133355E-15, -0.000000000000000000, 1.000000000000000000 ) ) ;
#374 = PRODUCT_RELATED_PRODUCT_CATEGORY ( 'detail', '', ( #119 ) ) ;
#375 = ORIENTED_EDGE ( 'NONE', *, *, #360, .T. ) ;
#376 = AXIS2_PLACEMENT_3D ( 'NONE', #51, #235, #115 ) ;
#377 = CARTESIAN_POINT ( 'NONE',  ( 1.500000000000029088, 0.000000000000000000, 8.332600579729817269 ) ) ;
#378 = DIRECTION ( 'NONE',  ( -1.000000000000000000, 0.000000000000000000, 3.491481338843133355E-15 ) ) ;
#379 = ADVANCED_FACE ( 'NONE', ( #228, #250 ), #102, .T. ) ;
#380 = ORIENTED_EDGE ( 'NONE', *, *, #360, .F. ) ;
#381 = ORGANIZATION ( 'UNSPECIFIED', 'UNSPECIFIED', '' ) ;
#382 = DIRECTION ( 'NONE',  ( 1.000000000000000000, 0.000000000000000000, -4.625929269271490844E-15 ) ) ;
#383 = ORIENTED_EDGE ( 'NONE', *, *, #21, .T. ) ;
#384 = DIRECTION ( 'NONE',  ( 1.000000000000000000, 0.000000000000000000, -4.469228034845714395E-15 ) ) ;
#385 = APPROVAL ( #178, 'UNSPECIFIED' ) ;
#386 = FACE_OUTER_BOUND ( 'NONE', #388, .T. ) ;
#387 = CC_DESIGN_SECURITY_CLASSIFICATION ( #209, ( #334 ) ) ;
#388 = EDGE_LOOP ( 'NONE', ( #139 ) ) ;
#389 = VERTEX_POINT ( 'NONE', #31 ) ;
#390 = CARTESIAN_POINT ( 'NONE',  ( 1.745740669421568255E-15, 0.000000000000000000, 0.5000000000000004441 ) ) ;
#391 = DIRECTION ( 'NONE',  ( 0.000000000000000000, 0.000000000000000000, 1.000000000000000000 ) ) ;
#392 = CARTESIAN_POINT ( 'NONE',  ( 9.819791265496200149E-16, 0.000000000000000000, 0.2812499999999967804 ) ) ;
#393 = ADVANCED_FACE ( 'NONE', ( #170, #69 ), #286, .T. ) ;
#394 = CONICAL_SURFACE ( 'NONE', #73, 0.1565358449660652629, 1.047197551196594745 ) ;
#395 = CYLINDRICAL_SURFACE ( 'NONE', #261, 0.3549999999999999822 ) ;
ENDSEC;
END-ISO-10303-21;
