ISO-10303-21;
HEADER;
FILE_DESCRIPTION (( 'STEP AP203' ),
    '1' );
FILE_NAME ('961177.step',
    '2023-09-27T08:31:41',
    ( '' ),
    ( '' ),
    'SwSTEP 2.0',
    'SolidWorks 2022',
    '' );
FILE_SCHEMA (( 'CONFIG_CONTROL_DESIGN' ));
ENDSEC;

DATA;
#1 = VERTEX_POINT ( 'NONE', #290 ) ;
#2 = FACE_OUTER_BOUND ( 'NONE', #381, .T. ) ;
#3 = CARTESIAN_POINT ( 'NONE',  ( 0.1413822604694587315, 0.000000000000000000, -4.936335240725743484E-16 ) ) ;
#4 = AXIS2_PLACEMENT_3D ( 'NONE', #216, #271, #335 ) ;
#5 = VERTEX_POINT ( 'NONE', #279 ) ;
#6 = PRODUCT_DEFINITION_SHAPE ( 'NONE', 'NONE',  #354 ) ;
#7 = DESIGN_CONTEXT ( 'detailed design', #37, 'design' ) ;
#8 = DIRECTION ( 'NONE',  ( 1.000000000000000000, 0.000000000000000000, -2.990902544787603621E-15 ) ) ;
#9 = APPLICATION_CONTEXT ( 'configuration controlled 3d designs of mechanical parts and assemblies' ) ;
#10 = DIRECTION ( 'NONE',  ( 1.000000000000000000, 0.000000000000000000, -3.422063879522750519E-15 ) ) ;
#11 = AXIS2_PLACEMENT_3D ( 'NONE', #85, #82, #27 ) ;
#12 = AXIS2_PLACEMENT_3D ( 'NONE', #100, #254, #127 ) ;
#13 = ORIENTED_EDGE ( 'NONE', *, *, #224, .T. ) ;
#14 = FACE_OUTER_BOUND ( 'NONE', #75, .T. ) ;
#15 = VERTEX_POINT ( 'NONE', #355 ) ;
#16 = UNCERTAINTY_MEASURE_WITH_UNIT (LENGTH_MEASURE( 1.000000000000000082E-05 ), #117, 'distance_accuracy_value', 'NONE');
#17 = DIRECTION ( 'NONE',  ( 3.491481338843133355E-15, -0.000000000000000000, 1.000000000000000000 ) ) ;
#18 = EDGE_CURVE ( 'NONE', #5, #5, #197, .T. ) ;
#19 = CONICAL_SURFACE ( 'NONE', #318, 0.3200000000000000067, 1.047197551196607845 ) ;
#20 = AXIS2_PLACEMENT_3D ( 'NONE', #225, #282, #308 ) ;
#21 = DIRECTION ( 'NONE',  ( 1.000000000000000000, 0.000000000000000000, -3.422063879522750519E-15 ) ) ;
#22 = EDGE_LOOP ( 'NONE', ( #235 ) ) ;
#23 = DATE_AND_TIME ( #294, #160 ) ;
#24 = DIRECTION ( 'NONE',  ( 3.491481338843133355E-15, -0.000000000000000000, 1.000000000000000000 ) ) ;
#25 = EDGE_LOOP ( 'NONE', ( #238 ) ) ;
#26 =( NAMED_UNIT ( * ) PLANE_ANGLE_UNIT ( ) SI_UNIT ( $, .RADIAN. ) );
#27 = DIRECTION ( 'NONE',  ( 1.000000000000000000, 0.000000000000000000, -3.422063879522751308E-15 ) ) ;
#28 = ORIENTED_EDGE ( 'NONE', *, *, #382, .F. ) ;
#29 = AXIS2_PLACEMENT_3D ( 'NONE', #203, #199, #231 ) ;
#30 = CARTESIAN_POINT ( 'NONE',  ( 1.326762908760390423E-13, 0.000000000000000000, 38.00000000000000000 ) ) ;
#31 = APPROVAL_ROLE ( '' ) ;
#32 = CYLINDRICAL_SURFACE ( 'NONE', #163, 1.499999999999998224 ) ;
#33 = APPROVAL_DATE_TIME ( #64, #126 ) ;
#34 = VERTEX_POINT ( 'NONE', #277 ) ;
#35 = EDGE_CURVE ( 'NONE', #39, #39, #310, .T. ) ;
#36 = DIRECTION ( 'NONE',  ( 3.491481338843133355E-15, -0.000000000000000000, 1.000000000000000000 ) ) ;
#37 = APPLICATION_CONTEXT ( 'configuration controlled 3d designs of mechanical parts and assemblies' ) ;
#38 = CARTESIAN_POINT ( 'NONE',  ( 1.316288464743861212E-13, 0.000000000000000000, 37.69999999999999574 ) ) ;
#39 = VERTEX_POINT ( 'NONE', #3 ) ;
#40 = EDGE_CURVE ( 'NONE', #311, #311, #253, .T. ) ;
#41 = DIRECTION ( 'NONE',  ( 1.000000000000000000, 0.000000000000000000, -2.421794611735978956E-15 ) ) ;
#42 = CC_DESIGN_APPROVAL ( #320, ( #180 ) ) ;
#43 = CYLINDRICAL_SURFACE ( 'NONE', #312, 0.1449999999999998790 ) ;
#44 = ADVANCED_FACE ( 'NONE', ( #323, #255 ), #48, .T. ) ;
#45 = CONICAL_SURFACE ( 'NONE', #74, 0.1900961894323334456, 1.047197551196607845 ) ;
#46 = EDGE_LOOP ( 'NONE', ( #324 ) ) ;
#47 = CIRCLE ( 'NONE', #291, 0.3200000000000000067 ) ;
#48 = CYLINDRICAL_SURFACE ( 'NONE', #377, 0.1900961894323334178 ) ;
#49 = DIRECTION ( 'NONE',  ( 1.000000000000000000, 0.000000000000000000, -3.422063879522750913E-15 ) ) ;
#50 = ORIENTED_EDGE ( 'NONE', *, *, #165, .F. ) ;
#51 = CARTESIAN_POINT ( 'NONE',  ( 4.255242881715084554E-16, 0.000000000000000000, 0.1218750000000004552 ) ) ;
#52 = TOROIDAL_SURFACE ( 'NONE', #189, 1.144999999999999796, 1.000000000000000000 ) ;
#53 = COORDINATED_UNIVERSAL_TIME_OFFSET ( 1, 0, .AHEAD. ) ;
#54 = EDGE_LOOP ( 'NONE', ( #133 ) ) ;
#55 = CARTESIAN_POINT ( 'NONE',  ( 1.211107589411223913E-15, 0.000000000000000000, 0.3468750000000034306 ) ) ;
#56 = CC_DESIGN_PERSON_AND_ORGANIZATION_ASSIGNMENT ( #307, #338, ( #260 ) ) ;
#57 = DATE_AND_TIME ( #387, #326 ) ;
#58 = DIRECTION ( 'NONE',  ( 3.491481338843133355E-15, -0.000000000000000000, 1.000000000000000000 ) ) ;
#59 = EDGE_LOOP ( 'NONE', ( #145 ) ) ;
#60 = AXIS2_PLACEMENT_3D ( 'NONE', #259, #376, #8 ) ;
#61 = APPROVAL_PERSON_ORGANIZATION ( #137, #391, #88 ) ;
#62 = EDGE_CURVE ( 'NONE', #283, #283, #138, .T. ) ;
#63 = FACE_OUTER_BOUND ( 'NONE', #87, .T. ) ;
#64 = DATE_AND_TIME ( #123, #313 ) ;
#65 = VERTEX_POINT ( 'NONE', #186 ) ;
#66 = CIRCLE ( 'NONE', #341, 0.1900961894323334456 ) ;
#67 = DIRECTION ( 'NONE',  ( 1.000000000000000000, 0.000000000000000000, -3.422063879522750519E-15 ) ) ;
#68 = DIRECTION ( 'NONE',  ( 3.491481338843133355E-15, -0.000000000000000000, 1.000000000000000000 ) ) ;
#69 = SHAPE_DEFINITION_REPRESENTATION ( #6, #316 ) ;
#70 = ADVANCED_FACE ( 'NONE', ( #315, #345 ), #45, .T. ) ;
#71 = CONICAL_SURFACE ( 'NONE', #278, 0.1790741737109295129, 0.2617993877991427465 ) ;
#72 = EDGE_LOOP ( 'NONE', ( #181 ) ) ;
#73 = ORIENTED_EDGE ( 'NONE', *, *, #113, .T. ) ;
#74 = AXIS2_PLACEMENT_3D ( 'NONE', #371, #104, #10 ) ;
#75 = EDGE_LOOP ( 'NONE', ( #209 ) ) ;
#76 = CC_DESIGN_APPROVAL ( #391, ( #354 ) ) ;
#77 = EDGE_LOOP ( 'NONE', ( #73 ) ) ;
#78 = DATE_TIME_ROLE ( 'creation_date' ) ;
#79 = CARTESIAN_POINT ( 'NONE',  ( 1.326762908760390423E-13, 0.000000000000000000, 38.00000000000000000 ) ) ;
#80 = ORIENTED_EDGE ( 'NONE', *, *, #370, .F. ) ;
#81 = VERTEX_POINT ( 'NONE', #245 ) ;
#82 = DIRECTION ( 'NONE',  ( 3.491481338843133355E-15, -0.000000000000000000, 1.000000000000000000 ) ) ;
#83 = AXIS2_PLACEMENT_3D ( 'NONE', #229, #373, #349 ) ;
#84 = CIRCLE ( 'NONE', #217, 0.3200000000000000067 ) ;
#85 = CARTESIAN_POINT ( 'NONE',  ( 1.571166602479406657E-15, 0.000000000000000000, 0.4499999999999990119 ) ) ;
#86 = CC_DESIGN_PERSON_AND_ORGANIZATION_ASSIGNMENT ( #300, #153, ( #180 ) ) ;
#87 = EDGE_LOOP ( 'NONE', ( #204 ) ) ;
#88 = APPROVAL_ROLE ( '' ) ;
#89 = CARTESIAN_POINT ( 'NONE',  ( 1.326762908760390423E-13, 1.199999999999993516, 38.00000000000000000 ) ) ;
#90 = ORIENTED_EDGE ( 'NONE', *, *, #343, .T. ) ;
#91 = DIRECTION ( 'NONE',  ( -1.000000000000000000, 0.000000000000000000, 3.491481338843133355E-15 ) ) ;
#92 = APPROVAL_PERSON_ORGANIZATION ( #99, #126, #31 ) ;
#93 = ADVANCED_FACE ( 'NONE', ( #14, #257 ), #43, .T. ) ;
#94 = DIRECTION ( 'NONE',  ( 1.000000000000000000, 0.000000000000000000, -4.625929269271496366E-15 ) ) ;
#95 = DATE_TIME_ROLE ( 'classification_date' ) ;
#96 = VERTEX_POINT ( 'NONE', #219 ) ;
#97 = PERSON_AND_ORGANIZATION ( #210, #103 ) ;
#98 = LOCAL_TIME ( 10, 31, 41.00000000000000000, #236 ) ;
#99 = PERSON_AND_ORGANIZATION ( #210, #103 ) ;
#100 = CARTESIAN_POINT ( 'NONE',  ( 1.102895774875770782E-14, 0.000000000000000000, 3.158819045102512213 ) ) ;
#101 = DIRECTION ( 'NONE',  ( -1.000000000000000000, 0.000000000000000000, 4.625929269271496366E-15 ) ) ;
#102 = ADVANCED_FACE ( 'NONE', ( #228, #261 ), #270, .T. ) ;
#103 = ORGANIZATION ( 'UNSPECIFIED', 'UNSPECIFIED', '' ) ;
#104 = DIRECTION ( 'NONE',  ( 3.491481338843133355E-15, -0.000000000000000000, 1.000000000000000000 ) ) ;
#105 = ORIENTED_EDGE ( 'NONE', *, *, #62, .T. ) ;
#106 = CARTESIAN_POINT ( 'NONE',  ( 6.873853885847389211E-16, 0.000000000000000000, 0.1968749999999991340 ) ) ;
#107 = CIRCLE ( 'NONE', #20, 0.3200000000000000067 ) ;
#108 = DIRECTION ( 'NONE',  ( -1.000000000000000000, 0.000000000000000000, 3.472835083742631390E-15 ) ) ;
#109 = EDGE_LOOP ( 'NONE', ( #207 ) ) ;
#110 = PERSON_AND_ORGANIZATION_ROLE ( 'creator' ) ;
#111 = FACE_OUTER_BOUND ( 'NONE', #213, .T. ) ;
#112 = VERTEX_POINT ( 'NONE', #149 ) ;
#113 = EDGE_CURVE ( 'NONE', #185, #185, #230, .T. ) ;
#114 = FACE_OUTER_BOUND ( 'NONE', #25, .T. ) ;
#115 = AXIS2_PLACEMENT_3D ( 'NONE', #388, #218, #336 ) ;
#116 = EDGE_LOOP ( 'NONE', ( #289 ) ) ;
#117 =( LENGTH_UNIT ( ) NAMED_UNIT ( * ) SI_UNIT ( .MILLI., .METRE. ) );
#118 = DIRECTION ( 'NONE',  ( 1.000000000000000000, 0.000000000000000000, -3.557538378468061424E-15 ) ) ;
#119 = ORIENTED_EDGE ( 'NONE', *, *, #296, .F. ) ;
#120 = VERTEX_POINT ( 'NONE', #178 ) ;
#121 = FACE_OUTER_BOUND ( 'NONE', #72, .T. ) ;
#122 = CYLINDRICAL_SURFACE ( 'NONE', #4, 0.3200000000000000067 ) ;
#123 = CALENDAR_DATE ( 2023, 27, 9 ) ;
#124 = AXIS2_PLACEMENT_3D ( 'NONE', #38, #252, #101 ) ;
#125 = FACE_BOUND ( 'NONE', #142, .T. ) ;
#126 = APPROVAL ( #222, 'UNSPECIFIED' ) ;
#127 = DIRECTION ( 'NONE',  ( 1.000000000000000000, 0.000000000000000000, -2.421794611735978956E-15 ) ) ;
#128 = AXIS2_PLACEMENT_3D ( 'NONE', #158, #280, #220 ) ;
#129 = CARTESIAN_POINT ( 'NONE',  ( 0.1900961894323341117, 0.000000000000000000, 0.1968749999999984956 ) ) ;
#130 = ADVANCED_FACE ( 'NONE', ( #226, #344 ), #317, .T. ) ;
#131 = DIRECTION ( 'NONE',  ( 1.000000000000000000, 0.000000000000000000, 0.000000000000000000 ) ) ;
#132 = CIRCLE ( 'NONE', #369, 1.500000000000000000 ) ;
#133 = ORIENTED_EDGE ( 'NONE', *, *, #35, .T. ) ;
#134 = DIRECTION ( 'NONE',  ( 1.000000000000000000, 0.000000000000000000, 0.000000000000000000 ) ) ;
#135 = ADVANCED_FACE ( 'NONE', ( #258, #63 ), #19, .T. ) ;
#136 = DIRECTION ( 'NONE',  ( -3.491481338843133355E-15, 0.000000000000000000, -1.000000000000000000 ) ) ;
#137 = PERSON_AND_ORGANIZATION ( #210, #103 ) ;
#138 = CIRCLE ( 'NONE', #169, 0.1900961894323334178 ) ;
#139 = ORIENTED_EDGE ( 'NONE', *, *, #256, .T. ) ;
#140 = AXIS2_PLACEMENT_3D ( 'NONE', #303, #179, #361 ) ;
#141 =( NAMED_UNIT ( * ) SI_UNIT ( $, .STERADIAN. ) SOLID_ANGLE_UNIT ( ) );
#142 = EDGE_LOOP ( 'NONE', ( #90 ) ) ;
#143 = CARTESIAN_POINT ( 'NONE',  ( 0.3200000000000012279, 0.000000000000000000, 0.3468750000000022649 ) ) ;
#144 = FACE_BOUND ( 'NONE', #172, .T. ) ;
#145 = ORIENTED_EDGE ( 'NONE', *, *, #347, .F. ) ;
#146 = DIRECTION ( 'NONE',  ( 1.000000000000000000, 0.000000000000000000, 0.000000000000000000 ) ) ;
#147 = CONICAL_SURFACE ( 'NONE', #140, 0.1413822604694587315, 1.047197551196589194 ) ;
#148 = EDGE_LOOP ( 'NONE', ( #119 ) ) ;
#149 = CARTESIAN_POINT ( 'NONE',  ( 0.1450000000000015721, 0.000000000000000000, 0.4499999999999985123 ) ) ;
#150 = CARTESIAN_POINT ( 'NONE',  ( 1.571166602479406657E-15, 0.000000000000000000, 0.4499999999999990119 ) ) ;
#151 = PRODUCT ( '961177', '961177', '', ( #263 ) ) ;
#152 = DIRECTION ( 'NONE',  ( -3.491481338843133355E-15, 0.000000000000000000, -1.000000000000000000 ) ) ;
#153 = PERSON_AND_ORGANIZATION_ROLE ( 'creator' ) ;
#154 = COORDINATED_UNIVERSAL_TIME_OFFSET ( 1, 0, .AHEAD. ) ;
#155 = LOCAL_TIME ( 10, 31, 41.00000000000000000, #367 ) ;
#156 = FACE_OUTER_BOUND ( 'NONE', #175, .T. ) ;
#157 = PRODUCT_RELATED_PRODUCT_CATEGORY ( 'detail', '', ( #151 ) ) ;
#158 = CARTESIAN_POINT ( 'NONE',  ( -2.699088555599100722E-34, 0.000000000000000000, -7.730496868396313232E-20 ) ) ;
#159 = CARTESIAN_POINT ( 'NONE',  ( 1.326762908760390423E-13, 0.000000000000000000, 38.00000000000000000 ) ) ;
#160 = LOCAL_TIME ( 10, 31, 41.00000000000000000, #53 ) ;
#161 = EDGE_CURVE ( 'NONE', #34, #34, #193, .T. ) ;
#162 = ORIENTED_EDGE ( 'NONE', *, *, #40, .T. ) ;
#163 = AXIS2_PLACEMENT_3D ( 'NONE', #159, #36, #395 ) ;
#164 = CARTESIAN_POINT ( 'NONE',  ( 1.326762908760390423E-13, 0.000000000000000000, 38.00000000000000000 ) ) ;
#165 = EDGE_CURVE ( 'NONE', #96, #96, #132, .T. ) ;
#166 = DIRECTION ( 'NONE',  ( 3.491481338843133355E-15, -0.000000000000000000, 1.000000000000000000 ) ) ;
#167 = ORIENTED_EDGE ( 'NONE', *, *, #35, .F. ) ;
#168 = APPROVAL_ROLE ( '' ) ;
#169 = AXIS2_PLACEMENT_3D ( 'NONE', #106, #285, #49 ) ;
#170 = CONICAL_SURFACE ( 'NONE', #124, 1.499999999999996447, 0.7853981633974501664 ) ;
#171 = CC_DESIGN_PERSON_AND_ORGANIZATION_ASSIGNMENT ( #97, #188, ( #180 ) ) ;
#172 = EDGE_LOOP ( 'NONE', ( #242 ) ) ;
#173 = DIRECTION ( 'NONE',  ( 0.000000000000000000, 0.000000000000000000, 1.000000000000000000 ) ) ;
#174 = DIRECTION ( 'NONE',  ( 3.491481338843133355E-15, -0.000000000000000000, 1.000000000000000000 ) ) ;
#175 = EDGE_LOOP ( 'NONE', ( #50 ) ) ;
#176 = CARTESIAN_POINT ( 'NONE',  ( 0.000000000000000000, 0.000000000000000000, 0.000000000000000000 ) ) ;
#177 = DIRECTION ( 'NONE',  ( 3.491481338843133355E-15, -0.000000000000000000, 1.000000000000000000 ) ) ;
#178 = CARTESIAN_POINT ( 'NONE',  ( 0.1790741737109405596, 0.000000000000000000, 3.158819045102511769 ) ) ;
#179 = DIRECTION ( 'NONE',  ( 3.491481338843133355E-15, -0.000000000000000000, 1.000000000000000000 ) ) ;
#180 = PRODUCT_DEFINITION_FORMATION_WITH_SPECIFIED_SOURCE ( 'ANY', '', #151, .NOT_KNOWN. ) ;
#181 = ORIENTED_EDGE ( 'NONE', *, *, #18, .T. ) ;
#182 = PERSON_AND_ORGANIZATION ( #210, #103 ) ;
#183 = ADVANCED_FACE ( 'NONE', ( #383, #247 ), #147, .T. ) ;
#184 = DIRECTION ( 'NONE',  ( 1.000000000000000000, 0.000000000000000000, -3.364765362886048502E-15 ) ) ;
#185 = VERTEX_POINT ( 'NONE', #366 ) ;
#186 = CARTESIAN_POINT ( 'NONE',  ( 0.1900961894323343615, 0.000000000000000000, 0.2531249999999992117 ) ) ;
#187 = AXIS2_PLACEMENT_3D ( 'NONE', #319, #200, #351 ) ;
#188 = PERSON_AND_ORGANIZATION_ROLE ( 'design_supplier' ) ;
#189 = AXIS2_PLACEMENT_3D ( 'NONE', #206, #174, #385 ) ;
#190 = DATE_AND_TIME ( #304, #155 ) ;
#191 = CARTESIAN_POINT ( 'NONE',  ( 1.145642314307898202E-15, 0.000000000000000000, 0.3281249999999985567 ) ) ;
#192 = DIRECTION ( 'NONE',  ( 1.000000000000000000, 0.000000000000000000, -3.557538378468061424E-15 ) ) ;
#193 = CIRCLE ( 'NONE', #11, 0.1900961894323333901 ) ;
#194 = CIRCLE ( 'NONE', #12, 0.1790741737109295129 ) ;
#195 = EDGE_LOOP ( 'NONE', ( #244 ) ) ;
#196 = CARTESIAN_POINT ( 'NONE',  ( 1.326762908760390423E-13, 0.000000000000000000, 38.00000000000000000 ) ) ;
#197 = CIRCLE ( 'NONE', #83, 1.199999999999993516 ) ;
#198 = AXIS2_PLACEMENT_3D ( 'NONE', #89, #152, #91 ) ;
#199 = DIRECTION ( 'NONE',  ( 3.491481338843133355E-15, -0.000000000000000000, 1.000000000000000000 ) ) ;
#200 = DIRECTION ( 'NONE',  ( 3.491481338843133355E-15, -0.000000000000000000, 1.000000000000000000 ) ) ;
#201 = PERSON_AND_ORGANIZATION ( #210, #103 ) ;
#202 = CC_DESIGN_PERSON_AND_ORGANIZATION_ASSIGNMENT ( #201, #110, ( #354 ) ) ;
#203 = CARTESIAN_POINT ( 'NONE',  ( 0.000000000000000000, 0.000000000000000000, 0.000000000000000000 ) ) ;
#204 = ORIENTED_EDGE ( 'NONE', *, *, #296, .T. ) ;
#205 = PERSON_AND_ORGANIZATION_ROLE ( 'design_owner' ) ;
#206 = CARTESIAN_POINT ( 'NONE',  ( 1.012529588264508515E-14, 0.000000000000000000, 2.899999999999999911 ) ) ;
#207 = ORIENTED_EDGE ( 'NONE', *, *, #214, .F. ) ;
#208 = CYLINDRICAL_SURFACE ( 'NONE', #221, 0.1900961894323334178 ) ;
#209 = ORIENTED_EDGE ( 'NONE', *, *, #113, .F. ) ;
#210 = PERSON ( 'UNSPECIFIED', 'UNSPECIFIED', 'UNSPECIFIED', ('UNSPECIFIED'), ('UNSPECIFIED'), ('UNSPECIFIED') ) ;
#211 = APPROVAL_DATE_TIME ( #57, #391 ) ;
#212 = PLANE ( 'NONE',  #198 ) ;
#213 = EDGE_LOOP ( 'NONE', ( #384 ) ) ;
#214 = EDGE_CURVE ( 'NONE', #65, #65, #66, .T. ) ;
#215 = APPLICATION_PROTOCOL_DEFINITION ( 'international standard', 'config_control_design', 1994, #9 ) ;
#216 = CARTESIAN_POINT ( 'NONE',  ( 1.326762908760390423E-13, 0.000000000000000000, 38.00000000000000000 ) ) ;
#217 = AXIS2_PLACEMENT_3D ( 'NONE', #55, #177, #118 ) ;
#218 = DIRECTION ( 'NONE',  ( -3.491481338843133355E-15, 0.000000000000000000, -1.000000000000000000 ) ) ;
#219 = CARTESIAN_POINT ( 'NONE',  ( 1.500000000000028200, 0.000000000000000000, 8.088581341843351424 ) ) ;
#220 = DIRECTION ( 'NONE',  ( 1.000000000000000000, 0.000000000000000000, -3.491481338843133355E-15 ) ) ;
#221 = AXIS2_PLACEMENT_3D ( 'NONE', #30, #329, #274 ) ;
#222 = APPROVAL_STATUS ( 'not_yet_approved' ) ;
#223 = DIRECTION ( 'NONE',  ( 3.491481338843133355E-15, -0.000000000000000000, 1.000000000000000000 ) ) ;
#224 = EDGE_CURVE ( 'NONE', #1, #1, #356, .T. ) ;
#225 = CARTESIAN_POINT ( 'NONE',  ( 4.255242881715084554E-16, 0.000000000000000000, 0.1218750000000004552 ) ) ;
#226 = FACE_OUTER_BOUND ( 'NONE', #268, .T. ) ;
#227 = CC_DESIGN_PERSON_AND_ORGANIZATION_ASSIGNMENT ( #182, #205, ( #151 ) ) ;
#228 = FACE_BOUND ( 'NONE', #299, .T. ) ;
#229 = CARTESIAN_POINT ( 'NONE',  ( 1.326762908760390423E-13, 0.000000000000000000, 38.00000000000000000 ) ) ;
#230 = CIRCLE ( 'NONE', #60, 0.1449999999999997402 ) ;
#231 = DIRECTION ( 'NONE',  ( 1.000000000000000000, 0.000000000000000000, -3.491481338843132961E-15 ) ) ;
#232 = ADVANCED_FACE ( 'NONE', ( #121 ), #212, .F. ) ;
#233 = CALENDAR_DATE ( 2023, 27, 9 ) ;
#234 = ORIENTED_EDGE ( 'NONE', *, *, #40, .F. ) ;
#235 = ORIENTED_EDGE ( 'NONE', *, *, #18, .F. ) ;
#236 = COORDINATED_UNIVERSAL_TIME_OFFSET ( 1, 0, .AHEAD. ) ;
#237 = FACE_OUTER_BOUND ( 'NONE', #46, .T. ) ;
#238 = ORIENTED_EDGE ( 'NONE', *, *, #161, .F. ) ;
#239 = AXIS2_PLACEMENT_3D ( 'NONE', #359, #58, #94 ) ;
#240 = FACE_OUTER_BOUND ( 'NONE', #116, .T. ) ;
#241 = AXIS2_PLACEMENT_3D ( 'NONE', #250, #68, #67 ) ;
#242 = ORIENTED_EDGE ( 'NONE', *, *, #256, .F. ) ;
#243 = ADVANCED_FACE ( 'NONE', ( #144, #240 ), #392, .F. ) ;
#244 = ORIENTED_EDGE ( 'NONE', *, *, #165, .T. ) ;
#245 = CARTESIAN_POINT ( 'NONE',  ( 0.3200000000000011724, 0.000000000000000000, 0.3281249999999973910 ) ) ;
#246 = FACE_OUTER_BOUND ( 'NONE', #287, .T. ) ;
#247 = FACE_BOUND ( 'NONE', #54, .T. ) ;
#248 = CC_DESIGN_APPROVAL ( #126, ( #260 ) ) ;
#249 = ADVANCED_FACE ( 'NONE', ( #267, #237 ), #122, .T. ) ;
#250 = CARTESIAN_POINT ( 'NONE',  ( 1.472968689824454378E-15, 0.000000000000000000, 0.4218750000000021094 ) ) ;
#251 = FACE_OUTER_BOUND ( 'NONE', #272, .T. ) ;
#252 = DIRECTION ( 'NONE',  ( -3.491481338843133355E-15, 0.000000000000000000, -1.000000000000000000 ) ) ;
#253 = CIRCLE ( 'NONE', #187, 0.3200000000000000067 ) ;
#254 = DIRECTION ( 'NONE',  ( 3.491481338843133355E-15, -0.000000000000000000, 1.000000000000000000 ) ) ;
#255 = FACE_OUTER_BOUND ( 'NONE', #346, .T. ) ;
#256 = EDGE_CURVE ( 'NONE', #112, #112, #302, .T. ) ;
#257 = FACE_OUTER_BOUND ( 'NONE', #389, .T. ) ;
#258 = FACE_BOUND ( 'NONE', #59, .T. ) ;
#259 = CARTESIAN_POINT ( 'NONE',  ( 1.012529588264508515E-14, 0.000000000000000000, 2.899999999999999911 ) ) ;
#260 = SECURITY_CLASSIFICATION ( '', '', #393 ) ;
#261 = FACE_OUTER_BOUND ( 'NONE', #352, .T. ) ;
#262 = EDGE_LOOP ( 'NONE', ( #80 ) ) ;
#263 = MECHANICAL_CONTEXT ( 'NONE', #9, 'mechanical' ) ;
#264 = CARTESIAN_POINT ( 'NONE',  ( 8.837812138946677361E-16, 0.000000000000000000, 0.2531249999999998779 ) ) ;
#265 = ORIENTED_EDGE ( 'NONE', *, *, #347, .T. ) ;
#266 = VERTEX_POINT ( 'NONE', #143 ) ;
#267 = FACE_OUTER_BOUND ( 'NONE', #148, .T. ) ;
#268 = EDGE_LOOP ( 'NONE', ( #28 ) ) ;
#269 = APPROVAL_STATUS ( 'not_yet_approved' ) ;
#270 = CONICAL_SURFACE ( 'NONE', #301, 0.3200000000000000067, 1.047197551196608067 ) ;
#271 = DIRECTION ( 'NONE',  ( 3.491481338843133355E-15, -0.000000000000000000, 1.000000000000000000 ) ) ;
#272 = EDGE_LOOP ( 'NONE', ( #167 ) ) ;
#273 = APPLICATION_PROTOCOL_DEFINITION ( 'international standard', 'config_control_design', 1994, #37 ) ;
#274 = DIRECTION ( 'NONE',  ( 1.000000000000000000, 0.000000000000000000, 0.000000000000000000 ) ) ;
#275 = CARTESIAN_POINT ( 'NONE',  ( 1.211107589411223913E-15, 0.000000000000000000, 0.3468750000000034306 ) ) ;
#276 = ADVANCED_FACE ( 'NONE', ( #111, #292 ), #52, .F. ) ;
#277 = CARTESIAN_POINT ( 'NONE',  ( 0.1900961894323349721, 0.000000000000000000, 0.4499999999999983458 ) ) ;
#278 = AXIS2_PLACEMENT_3D ( 'NONE', #340, #223, #41 ) ;
#279 = CARTESIAN_POINT ( 'NONE',  ( 1.200000000000126299, 0.000000000000000000, 37.99999999999999289 ) ) ;
#280 = DIRECTION ( 'NONE',  ( 3.491481338843133355E-15, -0.000000000000000000, 1.000000000000000000 ) ) ;
#281 = ADVANCED_FACE ( 'NONE', ( #114, #246 ), #208, .T. ) ;
#282 = DIRECTION ( 'NONE',  ( 3.491481338843133355E-15, -0.000000000000000000, 1.000000000000000000 ) ) ;
#283 = VERTEX_POINT ( 'NONE', #129 ) ;
#284 = CC_DESIGN_DATE_AND_TIME_ASSIGNMENT ( #190, #95, ( #260 ) ) ;
#285 = DIRECTION ( 'NONE',  ( 3.491481338843133355E-15, -0.000000000000000000, 1.000000000000000000 ) ) ;
#286 = DIRECTION ( 'NONE',  ( 3.491481338843133355E-15, -0.000000000000000000, 1.000000000000000000 ) ) ;
#287 = EDGE_LOOP ( 'NONE', ( #265 ) ) ;
#288 = EDGE_LOOP ( 'NONE', ( #234 ) ) ;
#289 = ORIENTED_EDGE ( 'NONE', *, *, #161, .T. ) ;
#290 = CARTESIAN_POINT ( 'NONE',  ( 1.500000000000127898, 0.000000000000000000, 37.69999999999998863 ) ) ;
#291 = AXIS2_PLACEMENT_3D ( 'NONE', #191, #368, #192 ) ;
#292 = FACE_OUTER_BOUND ( 'NONE', #77, .T. ) ;
#293 = ORIENTED_EDGE ( 'NONE', *, *, #62, .F. ) ;
#294 = CALENDAR_DATE ( 2023, 27, 9 ) ;
#295 = DIRECTION ( 'NONE',  ( 3.491481338843133355E-15, -0.000000000000000000, 1.000000000000000000 ) ) ;
#296 = EDGE_CURVE ( 'NONE', #266, #266, #84, .T. ) ;
#297 = VERTEX_POINT ( 'NONE', #353 ) ;
#298 = FACE_OUTER_BOUND ( 'NONE', #375, .T. ) ;
#299 = EDGE_LOOP ( 'NONE', ( #293 ) ) ;
#300 = PERSON_AND_ORGANIZATION ( #210, #103 ) ;
#301 = AXIS2_PLACEMENT_3D ( 'NONE', #51, #136, #108 ) ;
#302 = CIRCLE ( 'NONE', #378, 0.1449999999999999900 ) ;
#303 = CARTESIAN_POINT ( 'NONE',  ( 0.000000000000000000, 0.000000000000000000, 0.000000000000000000 ) ) ;
#304 = CALENDAR_DATE ( 2023, 27, 9 ) ;
#305 = ADVANCED_FACE ( 'NONE', ( #298, #306 ), #32, .T. ) ;
#306 = FACE_OUTER_BOUND ( 'NONE', #195, .T. ) ;
#307 = PERSON_AND_ORGANIZATION ( #210, #103 ) ;
#308 = DIRECTION ( 'NONE',  ( 1.000000000000000000, 0.000000000000000000, -3.472835083742631390E-15 ) ) ;
#309 = PLANE ( 'NONE',  #128 ) ;
#310 = CIRCLE ( 'NONE', #29, 0.1413822604694587315 ) ;
#311 = VERTEX_POINT ( 'NONE', #337 ) ;
#312 = AXIS2_PLACEMENT_3D ( 'NONE', #79, #17, #131 ) ;
#313 = LOCAL_TIME ( 10, 31, 41.00000000000000000, #154 ) ;
#314 = ADVANCED_FACE ( 'NONE', ( #251 ), #309, .F. ) ;
#315 = FACE_OUTER_BOUND ( 'NONE', #262, .T. ) ;
#316 = ADVANCED_BREP_SHAPE_REPRESENTATION ( '961177', ( #330, #394 ), #348 ) ;
#317 = CYLINDRICAL_SURFACE ( 'NONE', #363, 0.3200000000000000067 ) ;
#318 = AXIS2_PLACEMENT_3D ( 'NONE', #275, #327, #365 ) ;
#319 = CARTESIAN_POINT ( 'NONE',  ( 3.600590130682069033E-16, 0.000000000000000000, 0.1031250000000025202 ) ) ;
#320 = APPROVAL ( #322, 'UNSPECIFIED' ) ;
#321 = DIRECTION ( 'NONE',  ( 1.000000000000000000, 0.000000000000000000, 0.000000000000000000 ) ) ;
#322 = APPROVAL_STATUS ( 'not_yet_approved' ) ;
#323 = FACE_OUTER_BOUND ( 'NONE', #109, .T. ) ;
#324 = ORIENTED_EDGE ( 'NONE', *, *, #370, .T. ) ;
#325 = PERSON_AND_ORGANIZATION ( #210, #103 ) ;
#326 = LOCAL_TIME ( 10, 31, 41.00000000000000000, #379 ) ;
#327 = DIRECTION ( 'NONE',  ( -3.491481338843133355E-15, 0.000000000000000000, -1.000000000000000000 ) ) ;
#328 = ADVANCED_FACE ( 'NONE', ( #156, #125 ), #71, .T. ) ;
#329 = DIRECTION ( 'NONE',  ( 3.491481338843133355E-15, -0.000000000000000000, 1.000000000000000000 ) ) ;
#330 = MANIFOLD_SOLID_BREP ( 'Corps-Déplacer/Copier1', #339 ) ;
#331 = ORIENTED_EDGE ( 'NONE', *, *, #224, .F. ) ;
#332 = APPROVAL_DATE_TIME ( #23, #320 ) ;
#333 = CARTESIAN_POINT ( 'NONE',  ( 2.824113081276083143E-14, 0.000000000000000000, 8.088581341843356753 ) ) ;
#334 = APPROVAL_PERSON_ORGANIZATION ( #325, #320, #168 ) ;
#335 = DIRECTION ( 'NONE',  ( 1.000000000000000000, 0.000000000000000000, 0.000000000000000000 ) ) ;
#336 = DIRECTION ( 'NONE',  ( -1.000000000000000000, 0.000000000000000000, 3.491481338843133355E-15 ) ) ;
#337 = CARTESIAN_POINT ( 'NONE',  ( 0.3200000000000003952, 0.000000000000000000, 0.1031250000000014100 ) ) ;
#338 = PERSON_AND_ORGANIZATION_ROLE ( 'classification_officer' ) ;
#339 = CLOSED_SHELL ( 'NONE', ( #314, #183, #130, #102, #44, #70, #249, #135, #281, #243, #93, #276, #328, #305, #362, #232 ) ) ;
#340 = CARTESIAN_POINT ( 'NONE',  ( 1.102895774875770782E-14, 0.000000000000000000, 3.158819045102512213 ) ) ;
#341 = AXIS2_PLACEMENT_3D ( 'NONE', #264, #295, #21 ) ;
#342 = FACE_BOUND ( 'NONE', #22, .T. ) ;
#343 = EDGE_CURVE ( 'NONE', #120, #120, #194, .T. ) ;
#344 = FACE_OUTER_BOUND ( 'NONE', #360, .T. ) ;
#345 = FACE_BOUND ( 'NONE', #386, .T. ) ;
#346 = EDGE_LOOP ( 'NONE', ( #105 ) ) ;
#347 = EDGE_CURVE ( 'NONE', #297, #297, #364, .T. ) ;
#348 =( GEOMETRIC_REPRESENTATION_CONTEXT ( 3 ) GLOBAL_UNCERTAINTY_ASSIGNED_CONTEXT ( ( #16 ) ) GLOBAL_UNIT_ASSIGNED_CONTEXT ( ( #117, #26, #141 ) ) REPRESENTATION_CONTEXT ( 'NONE', 'WORKASPACE' ) );
#349 = DIRECTION ( 'NONE',  ( 1.000000000000000000, 0.000000000000000000, -5.782411586589388010E-15 ) ) ;
#350 = DATE_AND_TIME ( #233, #98 ) ;
#351 = DIRECTION ( 'NONE',  ( 1.000000000000000000, 0.000000000000000000, -3.472835083742631390E-15 ) ) ;
#352 = EDGE_LOOP ( 'NONE', ( #358 ) ) ;
#353 = CARTESIAN_POINT ( 'NONE',  ( 0.1900961894323349166, 0.000000000000000000, 0.4218750000000014433 ) ) ;
#354 = PRODUCT_DEFINITION ( 'UNKNOWN', '', #180, #7 ) ;
#355 = CARTESIAN_POINT ( 'NONE',  ( 0.3200000000000004508, 0.000000000000000000, 0.1218749999999993450 ) ) ;
#356 = CIRCLE ( 'NONE', #239, 1.499999999999996447 ) ;
#357 = DIRECTION ( 'NONE',  ( 3.491481338843133355E-15, -0.000000000000000000, 1.000000000000000000 ) ) ;
#358 = ORIENTED_EDGE ( 'NONE', *, *, #382, .T. ) ;
#359 = CARTESIAN_POINT ( 'NONE',  ( 1.316288464743861212E-13, 0.000000000000000000, 37.69999999999999574 ) ) ;
#360 = EDGE_LOOP ( 'NONE', ( #162 ) ) ;
#361 = DIRECTION ( 'NONE',  ( 1.000000000000000000, 0.000000000000000000, -3.491481338843132961E-15 ) ) ;
#362 = ADVANCED_FACE ( 'NONE', ( #342, #2 ), #170, .T. ) ;
#363 = AXIS2_PLACEMENT_3D ( 'NONE', #164, #286, #134 ) ;
#364 = CIRCLE ( 'NONE', #241, 0.1900961894323334456 ) ;
#365 = DIRECTION ( 'NONE',  ( -1.000000000000000000, 0.000000000000000000, 3.557538378468061424E-15 ) ) ;
#366 = CARTESIAN_POINT ( 'NONE',  ( 0.1450000000000098710, 0.000000000000000000, 2.899999999999999467 ) ) ;
#367 = COORDINATED_UNIVERSAL_TIME_OFFSET ( 1, 0, .AHEAD. ) ;
#368 = DIRECTION ( 'NONE',  ( 3.491481338843133355E-15, -0.000000000000000000, 1.000000000000000000 ) ) ;
#369 = AXIS2_PLACEMENT_3D ( 'NONE', #333, #24, #390 ) ;
#370 = EDGE_CURVE ( 'NONE', #81, #81, #47, .T. ) ;
#371 = CARTESIAN_POINT ( 'NONE',  ( 8.837812138946677361E-16, 0.000000000000000000, 0.2531249999999998779 ) ) ;
#372 = CC_DESIGN_SECURITY_CLASSIFICATION ( #260, ( #180 ) ) ;
#373 = DIRECTION ( 'NONE',  ( 3.491481338843133355E-15, -0.000000000000000000, 1.000000000000000000 ) ) ;
#374 = CC_DESIGN_DATE_AND_TIME_ASSIGNMENT ( #350, #78, ( #354 ) ) ;
#375 = EDGE_LOOP ( 'NONE', ( #331 ) ) ;
#376 = DIRECTION ( 'NONE',  ( 3.491481338843133355E-15, -0.000000000000000000, 1.000000000000000000 ) ) ;
#377 = AXIS2_PLACEMENT_3D ( 'NONE', #196, #166, #321 ) ;
#378 = AXIS2_PLACEMENT_3D ( 'NONE', #150, #357, #184 ) ;
#379 = COORDINATED_UNIVERSAL_TIME_OFFSET ( 1, 0, .AHEAD. ) ;
#380 = ORIENTED_EDGE ( 'NONE', *, *, #214, .T. ) ;
#381 = EDGE_LOOP ( 'NONE', ( #13 ) ) ;
#382 = EDGE_CURVE ( 'NONE', #15, #15, #107, .T. ) ;
#383 = FACE_OUTER_BOUND ( 'NONE', #288, .T. ) ;
#384 = ORIENTED_EDGE ( 'NONE', *, *, #343, .F. ) ;
#385 = DIRECTION ( 'NONE',  ( 1.000000000000000000, 0.000000000000000000, -3.491481338843133355E-15 ) ) ;
#386 = EDGE_LOOP ( 'NONE', ( #380 ) ) ;
#387 = CALENDAR_DATE ( 2023, 27, 9 ) ;
#388 = CARTESIAN_POINT ( 'NONE',  ( 1.571166602479410010E-15, 0.1900961894323333901, 0.4500000000000000111 ) ) ;
#389 = EDGE_LOOP ( 'NONE', ( #139 ) ) ;
#390 = DIRECTION ( 'NONE',  ( 1.000000000000000000, 0.000000000000000000, -3.469446951953614189E-15 ) ) ;
#391 = APPROVAL ( #269, 'UNSPECIFIED' ) ;
#392 = PLANE ( 'NONE',  #115 ) ;
#393 = SECURITY_CLASSIFICATION_LEVEL ( 'unclassified' ) ;
#394 = AXIS2_PLACEMENT_3D ( 'NONE', #176, #173, #146 ) ;
#395 = DIRECTION ( 'NONE',  ( 1.000000000000000000, 0.000000000000000000, -4.625929269271490844E-15 ) ) ;
ENDSEC;
END-ISO-10303-21;
