ISO-10303-21;
HEADER;
FILE_DESCRIPTION (( 'STEP AP203' ),
    '1' );
FILE_NAME ('961176.step',
    '2023-09-27T08:31:40',
    ( '' ),
    ( '' ),
    'SwSTEP 2.0',
    'SolidWorks 2022',
    '' );
FILE_SCHEMA (( 'CONFIG_CONTROL_DESIGN' ));
ENDSEC;

DATA;
#1 = DATE_AND_TIME ( #26, #245 ) ;
#2 = CYLINDRICAL_SURFACE ( 'NONE', #3, 1.499999999999998224 ) ;
#3 = AXIS2_PLACEMENT_3D ( 'NONE', #128, #246, #284 ) ;
#4 = ADVANCED_FACE ( 'NONE', ( #61 ), #239, .F. ) ;
#5 = EDGE_LOOP ( 'NONE', ( #213 ) ) ;
#6 = APPROVAL_ROLE ( '' ) ;
#7 = FACE_OUTER_BOUND ( 'NONE', #266, .T. ) ;
#8 = EDGE_LOOP ( 'NONE', ( #102 ) ) ;
#9 = CARTESIAN_POINT ( 'NONE',  ( 6.110092342975536620E-16, 0.000000000000000000, 0.1750000000000015432 ) ) ;
#10 = AXIS2_PLACEMENT_3D ( 'NONE', #214, #86, #123 ) ;
#11 = ORIENTED_EDGE ( 'NONE', *, *, #79, .T. ) ;
#12 = DIRECTION ( 'NONE',  ( 3.491481338843133355E-15, -0.000000000000000000, 1.000000000000000000 ) ) ;
#13 = CARTESIAN_POINT ( 'NONE',  ( 1.326762908760390423E-13, 0.000000000000000000, 38.00000000000000000 ) ) ;
#14 = AXIS2_PLACEMENT_3D ( 'NONE', #160, #225, #381 ) ;
#15 = DIRECTION ( 'NONE',  ( 3.491481338843133355E-15, -0.000000000000000000, 1.000000000000000000 ) ) ;
#16 =( LENGTH_UNIT ( ) NAMED_UNIT ( * ) SI_UNIT ( .MILLI., .METRE. ) );
#17 = VERTEX_POINT ( 'NONE', #144 ) ;
#18 = VERTEX_POINT ( 'NONE', #227 ) ;
#19 = ORIENTED_EDGE ( 'NONE', *, *, #167, .T. ) ;
#20 = CARTESIAN_POINT ( 'NONE',  ( 7.855833012397154573E-16, 0.000000000000000000, 0.2250000000000029754 ) ) ;
#21 = ORIENTED_EDGE ( 'NONE', *, *, #210, .T. ) ;
#22 = CARTESIAN_POINT ( 'NONE',  ( 0.000000000000000000, 0.000000000000000000, 0.000000000000000000 ) ) ;
#23 = AXIS2_PLACEMENT_3D ( 'NONE', #386, #356, #84 ) ;
#24 = LOCAL_TIME ( 10, 31, 40.00000000000000000, #212 ) ;
#25 = CC_DESIGN_DATE_AND_TIME_ASSIGNMENT ( #152, #130, ( #308 ) ) ;
#26 = CALENDAR_DATE ( 2023, 27, 9 ) ;
#27 = AXIS2_PLACEMENT_3D ( 'NONE', #69, #139, #133 ) ;
#28 = EDGE_LOOP ( 'NONE', ( #29 ) ) ;
#29 = ORIENTED_EDGE ( 'NONE', *, *, #118, .F. ) ;
#30 = COORDINATED_UNIVERSAL_TIME_OFFSET ( 1, 0, .AHEAD. ) ;
#31 = ORIENTED_EDGE ( 'NONE', *, *, #66, .F. ) ;
#32 = FACE_OUTER_BOUND ( 'NONE', #40, .T. ) ;
#33 = AXIS2_PLACEMENT_3D ( 'NONE', #249, #164, #371 ) ;
#34 = EDGE_LOOP ( 'NONE', ( #11 ) ) ;
#35 = EDGE_LOOP ( 'NONE', ( #334 ) ) ;
#36 = FACE_OUTER_BOUND ( 'NONE', #34, .T. ) ;
#37 = DIRECTION ( 'NONE',  ( 1.000000000000000000, 0.000000000000000000, 0.000000000000000000 ) ) ;
#38 = CIRCLE ( 'NONE', #114, 0.1695299461620741188 ) ;
#39 = CONICAL_SURFACE ( 'NONE', #135, 0.2850000000000000866, 1.047197551196602738 ) ;
#40 = EDGE_LOOP ( 'NONE', ( #111 ) ) ;
#41 = DIRECTION ( 'NONE',  ( 3.491481338843133355E-15, -0.000000000000000000, 1.000000000000000000 ) ) ;
#42 = CARTESIAN_POINT ( 'NONE',  ( 0.2850000000000011968, 0.000000000000000000, 0.3083333333333330706 ) ) ;
#43 = DIRECTION ( 'NONE',  ( -1.000000000000000000, 0.000000000000000000, 4.625929269271496366E-15 ) ) ;
#44 = APPROVAL ( #177, 'UNSPECIFIED' ) ;
#45 = FACE_OUTER_BOUND ( 'NONE', #178, .T. ) ;
#46 = CARTESIAN_POINT ( 'NONE',  ( 9.981513347104761503E-15, 0.000000000000000000, 2.858819045102510614 ) ) ;
#47 = PLANE ( 'NONE',  #216 ) ;
#48 = DIRECTION ( 'NONE',  ( -3.491481338843133355E-15, 0.000000000000000000, -1.000000000000000000 ) ) ;
#49 = CARTESIAN_POINT ( 'NONE',  ( 0.2850000000000004197, 0.000000000000000000, 0.09166666666666252461 ) ) ;
#50 = FACE_OUTER_BOUND ( 'NONE', #151, .T. ) ;
#51 = AXIS2_PLACEMENT_3D ( 'NONE', #345, #217, #43 ) ;
#52 = ADVANCED_FACE ( 'NONE', ( #305, #32 ), #369, .T. ) ;
#53 = APPROVAL_STATUS ( 'not_yet_approved' ) ;
#54 = DIRECTION ( 'NONE',  ( 1.000000000000000000, 0.000000000000000000, -3.517438708421116646E-15 ) ) ;
#55 = DIRECTION ( 'NONE',  ( 3.491481338843133355E-15, -0.000000000000000000, 1.000000000000000000 ) ) ;
#56 = LOCAL_TIME ( 10, 31, 40.00000000000000000, #57 ) ;
#57 = COORDINATED_UNIVERSAL_TIME_OFFSET ( 1, 0, .AHEAD. ) ;
#58 = APPROVAL_PERSON_ORGANIZATION ( #205, #44, #363 ) ;
#59 = CARTESIAN_POINT ( 'NONE',  ( 1.326762908760390423E-13, 1.199999999999993516, 38.00000000000000000 ) ) ;
#60 = APPROVAL_ROLE ( '' ) ;
#61 = FACE_OUTER_BOUND ( 'NONE', #311, .T. ) ;
#62 = MECHANICAL_CONTEXT ( 'NONE', #93, 'mechanical' ) ;
#63 = AXIS2_PLACEMENT_3D ( 'NONE', #253, #316, #314 ) ;
#64 = ORIENTED_EDGE ( 'NONE', *, *, #66, .T. ) ;
#65 = DIRECTION ( 'NONE',  ( 3.491481338843133355E-15, -0.000000000000000000, 1.000000000000000000 ) ) ;
#66 = EDGE_CURVE ( 'NONE', #383, #383, #261, .T. ) ;
#67 = CARTESIAN_POINT ( 'NONE',  ( 1.326762908760390423E-13, 0.000000000000000000, 38.00000000000000000 ) ) ;
#68 = EDGE_LOOP ( 'NONE', ( #72 ) ) ;
#69 = CARTESIAN_POINT ( 'NONE',  ( 9.077851480992146724E-15, 0.000000000000000000, 2.600000000000000089 ) ) ;
#70 = AXIS2_PLACEMENT_3D ( 'NONE', #134, #65, #105 ) ;
#71 = VERTEX_POINT ( 'NONE', #42 ) ;
#72 = ORIENTED_EDGE ( 'NONE', *, *, #204, .T. ) ;
#73 = APPROVAL ( #122, 'UNSPECIFIED' ) ;
#74 = CYLINDRICAL_SURFACE ( 'NONE', #201, 0.2850000000000000866 ) ;
#75 = ORIENTED_EDGE ( 'NONE', *, *, #186, .T. ) ;
#76 = CYLINDRICAL_SURFACE ( 'NONE', #237, 0.1249999999999997918 ) ;
#77 = VERTEX_POINT ( 'NONE', #292 ) ;
#78 = DIRECTION ( 'NONE',  ( 3.491481338843133355E-15, -0.000000000000000000, 1.000000000000000000 ) ) ;
#79 = EDGE_CURVE ( 'NONE', #257, #257, #38, .T. ) ;
#80 = APPROVAL_PERSON_ORGANIZATION ( #330, #224, #6 ) ;
#81 = DIRECTION ( 'NONE',  ( 1.000000000000000000, 0.000000000000000000, 0.000000000000000000 ) ) ;
#82 = DIRECTION ( 'NONE',  ( 0.000000000000000000, 0.000000000000000000, 1.000000000000000000 ) ) ;
#83 = FACE_OUTER_BOUND ( 'NONE', #228, .T. ) ;
#84 = DIRECTION ( 'NONE',  ( 1.000000000000000000, 0.000000000000000000, -3.469446951953617344E-15 ) ) ;
#85 = CIRCLE ( 'NONE', #100, 1.199999999999993516 ) ;
#86 = DIRECTION ( 'NONE',  ( 3.491481338843133355E-15, -0.000000000000000000, 1.000000000000000000 ) ) ;
#87 = SHAPE_DEFINITION_REPRESENTATION ( #198, #97 ) ;
#88 = PERSON_AND_ORGANIZATION_ROLE ( 'design_owner' ) ;
#89 = EDGE_CURVE ( 'NONE', #17, #17, #262, .T. ) ;
#90 = AXIS2_PLACEMENT_3D ( 'NONE', #296, #55, #300 ) ;
#91 = EDGE_LOOP ( 'NONE', ( #341 ) ) ;
#92 = CONICAL_SURFACE ( 'NONE', #63, 0.2850000000000000866, 1.047197551196603404 ) ;
#93 = APPLICATION_CONTEXT ( 'configuration controlled 3d designs of mechanical parts and assemblies' ) ;
#94 = ORIENTED_EDGE ( 'NONE', *, *, #89, .F. ) ;
#95 = PERSON_AND_ORGANIZATION_ROLE ( 'classification_officer' ) ;
#96 = ORIENTED_EDGE ( 'NONE', *, *, #79, .F. ) ;
#97 = ADVANCED_BREP_SHAPE_REPRESENTATION ( '961176', ( #302, #207 ), #353 ) ;
#98 = CC_DESIGN_PERSON_AND_ORGANIZATION_ASSIGNMENT ( #392, #301, ( #308 ) ) ;
#99 = CARTESIAN_POINT ( 'NONE',  ( 9.981513347104761503E-15, 0.000000000000000000, 2.858819045102510614 ) ) ;
#100 = AXIS2_PLACEMENT_3D ( 'NONE', #13, #41, #339 ) ;
#101 = CC_DESIGN_APPROVAL ( #44, ( #294 ) ) ;
#102 = ORIENTED_EDGE ( 'NONE', *, *, #89, .T. ) ;
#103 = CARTESIAN_POINT ( 'NONE',  ( 1.326762908760390423E-13, 0.000000000000000000, 38.00000000000000000 ) ) ;
#104 = EDGE_LOOP ( 'NONE', ( #343 ) ) ;
#105 = DIRECTION ( 'NONE',  ( 1.000000000000000000, 0.000000000000000000, -3.517438708421111913E-15 ) ) ;
#106 = CIRCLE ( 'NONE', #387, 0.2850000000000000866 ) ;
#107 = FACE_OUTER_BOUND ( 'NONE', #197, .T. ) ;
#108 = ORIENTED_EDGE ( 'NONE', *, *, #388, .F. ) ;
#109 = DIRECTION ( 'NONE',  ( 1.000000000000000000, 0.000000000000000000, -2.726280821563714055E-15 ) ) ;
#110 = CARTESIAN_POINT ( 'NONE',  ( 0.2850000000000011413, 0.000000000000000000, 0.2916666666666682395 ) ) ;
#111 = ORIENTED_EDGE ( 'NONE', *, *, #161, .T. ) ;
#112 = CARTESIAN_POINT ( 'NONE',  ( 0.1250000000000087708, 0.000000000000000000, 2.599999999999997868 ) ) ;
#113 =( NAMED_UNIT ( * ) SI_UNIT ( $, .STERADIAN. ) SOLID_ANGLE_UNIT ( ) );
#114 = AXIS2_PLACEMENT_3D ( 'NONE', #361, #303, #54 ) ;
#115 = APPROVAL_PERSON_ORGANIZATION ( #247, #73, #60 ) ;
#116 = DIRECTION ( 'NONE',  ( 3.491481338843133355E-15, -0.000000000000000000, 1.000000000000000000 ) ) ;
#117 = FACE_OUTER_BOUND ( 'NONE', #121, .T. ) ;
#118 = EDGE_CURVE ( 'NONE', #385, #385, #127, .T. ) ;
#119 = VERTEX_POINT ( 'NONE', #235 ) ;
#120 = AXIS2_PLACEMENT_3D ( 'NONE', #20, #259, #145 ) ;
#121 = EDGE_LOOP ( 'NONE', ( #184 ) ) ;
#122 = APPROVAL_STATUS ( 'not_yet_approved' ) ;
#123 = DIRECTION ( 'NONE',  ( 1.000000000000000000, 0.000000000000000000, 0.000000000000000000 ) ) ;
#124 = PERSON_AND_ORGANIZATION ( #270, #222 ) ;
#125 = DIRECTION ( 'NONE',  ( 3.491481338843133355E-15, -0.000000000000000000, 1.000000000000000000 ) ) ;
#126 = PERSON_AND_ORGANIZATION ( #270, #222 ) ;
#127 = CIRCLE ( 'NONE', #364, 0.1249999999999996808 ) ;
#128 = CARTESIAN_POINT ( 'NONE',  ( 1.326762908760390423E-13, 0.000000000000000000, 38.00000000000000000 ) ) ;
#129 = CIRCLE ( 'NONE', #268, 0.1262286759728516172 ) ;
#130 = DATE_TIME_ROLE ( 'creation_date' ) ;
#131 = EDGE_LOOP ( 'NONE', ( #276 ) ) ;
#132 = ADVANCED_FACE ( 'NONE', ( #154, #273 ), #2, .T. ) ;
#133 = DIRECTION ( 'NONE',  ( 1.000000000000000000, 0.000000000000000000, -3.491481338843132961E-15 ) ) ;
#134 = CARTESIAN_POINT ( 'NONE',  ( 1.309305502066176192E-15, 0.000000000000000000, 0.3750000000000003331 ) ) ;
#135 = AXIS2_PLACEMENT_3D ( 'NONE', #226, #48, #320 ) ;
#136 = FACE_OUTER_BOUND ( 'NONE', #220, .T. ) ;
#137 = VERTEX_POINT ( 'NONE', #169 ) ;
#138 = ORIENTED_EDGE ( 'NONE', *, *, #312, .T. ) ;
#139 = DIRECTION ( 'NONE',  ( 3.491481338843133355E-15, -0.000000000000000000, 1.000000000000000000 ) ) ;
#140 = DIRECTION ( 'NONE',  ( 3.491481338843133355E-15, -0.000000000000000000, 1.000000000000000000 ) ) ;
#141 = AXIS2_PLACEMENT_3D ( 'NONE', #280, #315, #189 ) ;
#142 = DIRECTION ( 'NONE',  ( 3.491481338843133355E-15, -0.000000000000000000, 1.000000000000000000 ) ) ;
#143 = EDGE_LOOP ( 'NONE', ( #64 ) ) ;
#144 = CARTESIAN_POINT ( 'NONE',  ( 1.500000000000027534, 0.000000000000000000, 7.863222357994729350 ) ) ;
#145 = DIRECTION ( 'NONE',  ( 1.000000000000000000, 0.000000000000000000, -3.517438708421111913E-15 ) ) ;
#146 = EDGE_LOOP ( 'NONE', ( #336 ) ) ;
#147 = AXIS2_PLACEMENT_3D ( 'NONE', #373, #218, #277 ) ;
#148 = DIRECTION ( 'NONE',  ( 3.491481338843133355E-15, -0.000000000000000000, 1.000000000000000000 ) ) ;
#149 = ADVANCED_FACE ( 'NONE', ( #378, #107 ), #221, .T. ) ;
#150 = PERSON_AND_ORGANIZATION ( #270, #222 ) ;
#151 = EDGE_LOOP ( 'NONE', ( #31 ) ) ;
#152 = DATE_AND_TIME ( #209, #56 ) ;
#153 = PERSON_AND_ORGANIZATION ( #270, #222 ) ;
#154 = FACE_OUTER_BOUND ( 'NONE', #286, .T. ) ;
#155 = ORIENTED_EDGE ( 'NONE', *, *, #333, .T. ) ;
#156 = ADVANCED_FACE ( 'NONE', ( #165, #287 ), #92, .T. ) ;
#157 = DESIGN_CONTEXT ( 'detailed design', #299, 'design' ) ;
#158 = FACE_OUTER_BOUND ( 'NONE', #91, .T. ) ;
#159 = EDGE_LOOP ( 'NONE', ( #155 ) ) ;
#160 = CARTESIAN_POINT ( 'NONE',  ( 1.396592535537253539E-15, 0.1695299461620741188, 0.4000000000000000777 ) ) ;
#161 = EDGE_CURVE ( 'NONE', #137, #137, #194, .T. ) ;
#162 = CONICAL_SURFACE ( 'NONE', #33, 0.1262286759728516172, 1.047197551196616505 ) ;
#163 = EDGE_LOOP ( 'NONE', ( #208 ) ) ;
#164 = DIRECTION ( 'NONE',  ( 3.491481338843133355E-15, -0.000000000000000000, 1.000000000000000000 ) ) ;
#165 = FACE_BOUND ( 'NONE', #163, .T. ) ;
#166 = CYLINDRICAL_SURFACE ( 'NONE', #380, 0.2850000000000000866 ) ;
#167 = EDGE_CURVE ( 'NONE', #372, #372, #323, .T. ) ;
#168 = CIRCLE ( 'NONE', #251, 0.1695299461620743409 ) ;
#169 = CARTESIAN_POINT ( 'NONE',  ( 0.1695299461620747294, 0.000000000000000000, 0.1750000000000009603 ) ) ;
#170 = FACE_OUTER_BOUND ( 'NONE', #274, .T. ) ;
#171 = DIRECTION ( 'NONE',  ( 3.491481338843133355E-15, -0.000000000000000000, 1.000000000000000000 ) ) ;
#172 = FACE_BOUND ( 'NONE', #331, .T. ) ;
#173 = PRODUCT_RELATED_PRODUCT_CATEGORY ( 'detail', '', ( #258 ) ) ;
#174 = AXIS2_PLACEMENT_3D ( 'NONE', #390, #116, #81 ) ;
#175 = DIRECTION ( 'NONE',  ( 1.000000000000000000, 0.000000000000000000, -2.726280821563714055E-15 ) ) ;
#176 =( NAMED_UNIT ( * ) PLANE_ANGLE_UNIT ( ) SI_UNIT ( $, .RADIAN. ) );
#177 = APPROVAL_STATUS ( 'not_yet_approved' ) ;
#178 = EDGE_LOOP ( 'NONE', ( #138 ) ) ;
#179 = CONICAL_SURFACE ( 'NONE', #318, 0.1590741737109294673, 0.2617993877991427465 ) ;
#180 = DIRECTION ( 'NONE',  ( 1.000000000000000000, 0.000000000000000000, -3.469446951953622866E-15 ) ) ;
#181 = PERSON_AND_ORGANIZATION_ROLE ( 'creator' ) ;
#182 = CC_DESIGN_PERSON_AND_ORGANIZATION_ASSIGNMENT ( #153, #95, ( #294 ) ) ;
#183 = DIRECTION ( 'NONE',  ( -1.000000000000000000, 0.000000000000000000, 3.491481338843133355E-15 ) ) ;
#184 = ORIENTED_EDGE ( 'NONE', *, *, #333, .F. ) ;
#185 = DIRECTION ( 'NONE',  ( 1.000000000000000000, 0.000000000000000000, -3.517438708421116646E-15 ) ) ;
#186 = EDGE_CURVE ( 'NONE', #376, #376, #85, .T. ) ;
#187 = DIRECTION ( 'NONE',  ( 3.491481338843133355E-15, -0.000000000000000000, 1.000000000000000000 ) ) ;
#188 = ORIENTED_EDGE ( 'NONE', *, *, #254, .F. ) ;
#189 = DIRECTION ( 'NONE',  ( 1.000000000000000000, 0.000000000000000000, -3.423796334164749744E-15 ) ) ;
#190 = DIRECTION ( 'NONE',  ( 1.000000000000000000, 0.000000000000000000, 0.000000000000000000 ) ) ;
#191 = ADVANCED_FACE ( 'NONE', ( #158, #136 ), #74, .T. ) ;
#192 = APPLICATION_PROTOCOL_DEFINITION ( 'international standard', 'config_control_design', 1994, #93 ) ;
#193 = CARTESIAN_POINT ( 'NONE',  ( 0.2850000000000004752, 0.000000000000000000, 0.1083333333333342946 ) ) ;
#194 = CIRCLE ( 'NONE', #393, 0.1695299461620741188 ) ;
#195 = CARTESIAN_POINT ( 'NONE',  ( 7.855833012397154573E-16, 0.000000000000000000, 0.2250000000000029754 ) ) ;
#196 = DIRECTION ( 'NONE',  ( 1.000000000000000000, 0.000000000000000000, 0.000000000000000000 ) ) ;
#197 = EDGE_LOOP ( 'NONE', ( #366 ) ) ;
#198 = PRODUCT_DEFINITION_SHAPE ( 'NONE', 'NONE',  #308 ) ;
#199 = CARTESIAN_POINT ( 'NONE',  ( 3.200524560606095299E-16, 0.000000000000000000, 0.09166666666666350993 ) ) ;
#200 = FACE_OUTER_BOUND ( 'NONE', #68, .T. ) ;
#201 = AXIS2_PLACEMENT_3D ( 'NONE', #67, #140, #37 ) ;
#202 = CC_DESIGN_SECURITY_CLASSIFICATION ( #294, ( #282 ) ) ;
#203 = CARTESIAN_POINT ( 'NONE',  ( 3.782438117080129010E-16, 0.000000000000000000, 0.1083333333333352799 ) ) ;
#204 = EDGE_CURVE ( 'NONE', #71, #71, #365, .T. ) ;
#205 = PERSON_AND_ORGANIZATION ( #270, #222 ) ;
#206 = UNCERTAINTY_MEASURE_WITH_UNIT (LENGTH_MEASURE( 1.000000000000000082E-05 ), #16, 'distance_accuracy_value', 'NONE');
#207 = AXIS2_PLACEMENT_3D ( 'NONE', #290, #82, #196 ) ;
#208 = ORIENTED_EDGE ( 'NONE', *, *, #161, .F. ) ;
#209 = CALENDAR_DATE ( 2023, 27, 9 ) ;
#210 = EDGE_CURVE ( 'NONE', #223, #223, #307, .T. ) ;
#211 = EDGE_LOOP ( 'NONE', ( #269 ) ) ;
#212 = COORDINATED_UNIVERSAL_TIME_OFFSET ( 1, 0, .AHEAD. ) ;
#213 = ORIENTED_EDGE ( 'NONE', *, *, #312, .F. ) ;
#214 = CARTESIAN_POINT ( 'NONE',  ( 1.326762908760390423E-13, 0.000000000000000000, 38.00000000000000000 ) ) ;
#215 = DIRECTION ( 'NONE',  ( 3.491481338843133355E-15, -0.000000000000000000, 1.000000000000000000 ) ) ;
#216 = AXIS2_PLACEMENT_3D ( 'NONE', #260, #171, #234 ) ;
#217 = DIRECTION ( 'NONE',  ( -3.491481338843133355E-15, 0.000000000000000000, -1.000000000000000000 ) ) ;
#218 = DIRECTION ( 'NONE',  ( 3.491481338843133355E-15, -0.000000000000000000, 1.000000000000000000 ) ) ;
#219 = CARTESIAN_POINT ( 'NONE',  ( 1.200000000000126299, 0.000000000000000000, 37.99999999999999289 ) ) ;
#220 = EDGE_LOOP ( 'NONE', ( #21 ) ) ;
#221 = CONICAL_SURFACE ( 'NONE', #51, 1.499999999999996447, 0.7853981633974501664 ) ;
#222 = ORGANIZATION ( 'UNSPECIFIED', 'UNSPECIFIED', '' ) ;
#223 = VERTEX_POINT ( 'NONE', #110 ) ;
#224 = APPROVAL ( #53, 'UNSPECIFIED' ) ;
#225 = DIRECTION ( 'NONE',  ( -3.491481338843133355E-15, 0.000000000000000000, -1.000000000000000000 ) ) ;
#226 = CARTESIAN_POINT ( 'NONE',  ( 1.076540079476635283E-15, 0.000000000000000000, 0.3083333333333340698 ) ) ;
#227 = CARTESIAN_POINT ( 'NONE',  ( 0.1250000000000013045, 0.000000000000000000, 0.3999999999999971356 ) ) ;
#228 = EDGE_LOOP ( 'NONE', ( #94 ) ) ;
#229 = FACE_OUTER_BOUND ( 'NONE', #248, .T. ) ;
#230 = AXIS2_PLACEMENT_3D ( 'NONE', #203, #326, #241 ) ;
#231 = ADVANCED_FACE ( 'NONE', ( #250, #36 ), #283, .F. ) ;
#232 = CC_DESIGN_APPROVAL ( #224, ( #308 ) ) ;
#233 = DIRECTION ( 'NONE',  ( 1.000000000000000000, 0.000000000000000000, -3.471349061028149303E-15 ) ) ;
#234 = DIRECTION ( 'NONE',  ( 1.000000000000000000, 0.000000000000000000, -3.491481338843133355E-15 ) ) ;
#235 = CARTESIAN_POINT ( 'NONE',  ( 1.500000000000127898, 0.000000000000000000, 37.69999999999998863 ) ) ;
#236 = DATE_TIME_ROLE ( 'classification_date' ) ;
#237 = AXIS2_PLACEMENT_3D ( 'NONE', #103, #12, #190 ) ;
#238 = ADVANCED_FACE ( 'NONE', ( #375, #347 ), #76, .T. ) ;
#239 = PLANE ( 'NONE',  #391 ) ;
#240 = SECURITY_CLASSIFICATION_LEVEL ( 'unclassified' ) ;
#241 = DIRECTION ( 'NONE',  ( 1.000000000000000000, 0.000000000000000000, -3.471349061028149303E-15 ) ) ;
#242 = DATE_AND_TIME ( #332, #337 ) ;
#243 = CALENDAR_DATE ( 2023, 27, 9 ) ;
#244 = CC_DESIGN_PERSON_AND_ORGANIZATION_ASSIGNMENT ( #126, #181, ( #282 ) ) ;
#245 = LOCAL_TIME ( 10, 31, 40.00000000000000000, #272 ) ;
#246 = DIRECTION ( 'NONE',  ( 3.491481338843133355E-15, -0.000000000000000000, 1.000000000000000000 ) ) ;
#247 = PERSON_AND_ORGANIZATION ( #270, #222 ) ;
#248 = EDGE_LOOP ( 'NONE', ( #279 ) ) ;
#249 = CARTESIAN_POINT ( 'NONE',  ( 0.000000000000000000, 0.000000000000000000, 0.000000000000000000 ) ) ;
#250 = FACE_BOUND ( 'NONE', #370, .T. ) ;
#251 = AXIS2_PLACEMENT_3D ( 'NONE', #195, #15, #293 ) ;
#252 = DIRECTION ( 'NONE',  ( 3.491481338843133355E-15, -0.000000000000000000, 1.000000000000000000 ) ) ;
#253 = CARTESIAN_POINT ( 'NONE',  ( 3.782438117080129010E-16, 0.000000000000000000, 0.1083333333333352799 ) ) ;
#254 = EDGE_CURVE ( 'NONE', #119, #119, #358, .T. ) ;
#255 = DIRECTION ( 'NONE',  ( 1.000000000000000000, 0.000000000000000000, -3.423796334164749744E-15 ) ) ;
#256 = AXIS2_PLACEMENT_3D ( 'NONE', #99, #215, #175 ) ;
#257 = VERTEX_POINT ( 'NONE', #317 ) ;
#258 = PRODUCT ( '961176', '961176', '', ( #62 ) ) ;
#259 = DIRECTION ( 'NONE',  ( 3.491481338843133355E-15, -0.000000000000000000, 1.000000000000000000 ) ) ;
#260 = CARTESIAN_POINT ( 'NONE',  ( 4.569301116426315796E-32, 0.000000000000000000, 1.308699853438227888E-17 ) ) ;
#261 = CIRCLE ( 'NONE', #230, 0.2850000000000000866 ) ;
#262 = CIRCLE ( 'NONE', #90, 1.500000000000000000 ) ;
#263 = VERTEX_POINT ( 'NONE', #357 ) ;
#264 = DIRECTION ( 'NONE',  ( 1.000000000000000000, 0.000000000000000000, -3.491481338843132961E-15 ) ) ;
#265 = ADVANCED_FACE ( 'NONE', ( #7, #310 ), #289, .F. ) ;
#266 = EDGE_LOOP ( 'NONE', ( #379 ) ) ;
#267 = DATE_AND_TIME ( #367, #297 ) ;
#268 = AXIS2_PLACEMENT_3D ( 'NONE', #22, #148, #264 ) ;
#269 = ORIENTED_EDGE ( 'NONE', *, *, #295, .T. ) ;
#270 = PERSON ( 'UNSPECIFIED', 'UNSPECIFIED', 'UNSPECIFIED', ('UNSPECIFIED'), ('UNSPECIFIED'), ('UNSPECIFIED') ) ;
#271 = APPROVAL_DATE_TIME ( #1, #73 ) ;
#272 = COORDINATED_UNIVERSAL_TIME_OFFSET ( 1, 0, .AHEAD. ) ;
#273 = FACE_OUTER_BOUND ( 'NONE', #8, .T. ) ;
#274 = EDGE_LOOP ( 'NONE', ( #19 ) ) ;
#275 = CIRCLE ( 'NONE', #256, 0.1590741737109294673 ) ;
#276 = ORIENTED_EDGE ( 'NONE', *, *, #388, .T. ) ;
#277 = DIRECTION ( 'NONE',  ( 1.000000000000000000, 0.000000000000000000, -4.625929269271496366E-15 ) ) ;
#278 = CC_DESIGN_DATE_AND_TIME_ASSIGNMENT ( #242, #236, ( #294 ) ) ;
#279 = ORIENTED_EDGE ( 'NONE', *, *, #210, .F. ) ;
#280 = CARTESIAN_POINT ( 'NONE',  ( 1.076540079476635283E-15, 0.000000000000000000, 0.3083333333333340698 ) ) ;
#281 = CARTESIAN_POINT ( 'NONE',  ( 0.1695299461620756176, 0.000000000000000000, 0.3749999999999997224 ) ) ;
#282 = PRODUCT_DEFINITION_FORMATION_WITH_SPECIFIED_SOURCE ( 'ANY', '', #258, .NOT_KNOWN. ) ;
#283 = PLANE ( 'NONE',  #14 ) ;
#284 = DIRECTION ( 'NONE',  ( 1.000000000000000000, 0.000000000000000000, -4.625929269271490844E-15 ) ) ;
#285 = ADVANCED_FACE ( 'NONE', ( #342, #338 ), #162, .T. ) ;
#286 = EDGE_LOOP ( 'NONE', ( #188 ) ) ;
#287 = FACE_OUTER_BOUND ( 'NONE', #143, .T. ) ;
#288 = CARTESIAN_POINT ( 'NONE',  ( 1.326762908760390423E-13, 0.000000000000000000, 38.00000000000000000 ) ) ;
#289 = TOROIDAL_SURFACE ( 'NONE', #27, 1.124999999999999778, 1.000000000000000000 ) ;
#290 = CARTESIAN_POINT ( 'NONE',  ( 0.000000000000000000, 0.000000000000000000, 0.000000000000000000 ) ) ;
#291 = DIRECTION ( 'NONE',  ( 1.000000000000000000, 0.000000000000000000, 0.000000000000000000 ) ) ;
#292 = CARTESIAN_POINT ( 'NONE',  ( 0.1695299461620751180, 0.000000000000000000, 0.2250000000000023925 ) ) ;
#293 = DIRECTION ( 'NONE',  ( 1.000000000000000000, 0.000000000000000000, -3.517438708421111913E-15 ) ) ;
#294 = SECURITY_CLASSIFICATION ( '', '', #240 ) ;
#295 = EDGE_CURVE ( 'NONE', #263, #263, #275, .T. ) ;
#296 = CARTESIAN_POINT ( 'NONE',  ( 2.745429412611271504E-14, 0.000000000000000000, 7.863222357994733791 ) ) ;
#297 = LOCAL_TIME ( 10, 31, 40.00000000000000000, #306 ) ;
#298 = ADVANCED_FACE ( 'NONE', ( #172, #200 ), #39, .T. ) ;
#299 = APPLICATION_CONTEXT ( 'configuration controlled 3d designs of mechanical parts and assemblies' ) ;
#300 = DIRECTION ( 'NONE',  ( 1.000000000000000000, 0.000000000000000000, -3.469446951953614189E-15 ) ) ;
#301 = PERSON_AND_ORGANIZATION_ROLE ( 'creator' ) ;
#302 = MANIFOLD_SOLID_BREP ( 'Corps-Déplacer/Copier1', #335 ) ;
#303 = DIRECTION ( 'NONE',  ( 3.491481338843133355E-15, -0.000000000000000000, 1.000000000000000000 ) ) ;
#304 = APPROVAL_DATE_TIME ( #267, #224 ) ;
#305 = FACE_OUTER_BOUND ( 'NONE', #104, .T. ) ;
#306 = COORDINATED_UNIVERSAL_TIME_OFFSET ( 1, 0, .AHEAD. ) ;
#307 = CIRCLE ( 'NONE', #313, 0.2850000000000000866 ) ;
#308 = PRODUCT_DEFINITION ( 'UNKNOWN', '', #282, #157 ) ;
#309 = CARTESIAN_POINT ( 'NONE',  ( 1.018348723829256169E-15, 0.000000000000000000, 0.2916666666666692387 ) ) ;
#310 = FACE_OUTER_BOUND ( 'NONE', #146, .T. ) ;
#311 = EDGE_LOOP ( 'NONE', ( #75 ) ) ;
#312 = EDGE_CURVE ( 'NONE', #348, #348, #106, .T. ) ;
#313 = AXIS2_PLACEMENT_3D ( 'NONE', #309, #252, #255 ) ;
#314 = DIRECTION ( 'NONE',  ( -1.000000000000000000, 0.000000000000000000, 3.471349061028149303E-15 ) ) ;
#315 = DIRECTION ( 'NONE',  ( 3.491481338843133355E-15, -0.000000000000000000, 1.000000000000000000 ) ) ;
#316 = DIRECTION ( 'NONE',  ( -3.491481338843133355E-15, 0.000000000000000000, -1.000000000000000000 ) ) ;
#317 = CARTESIAN_POINT ( 'NONE',  ( 0.1695299461620755344, 0.000000000000000000, 0.3999999999999969691 ) ) ;
#318 = AXIS2_PLACEMENT_3D ( 'NONE', #46, #78, #109 ) ;
#319 = FACE_BOUND ( 'NONE', #35, .T. ) ;
#320 = DIRECTION ( 'NONE',  ( -1.000000000000000000, 0.000000000000000000, 3.423796334164749744E-15 ) ) ;
#321 = FACE_OUTER_BOUND ( 'NONE', #395, .T. ) ;
#322 = EDGE_CURVE ( 'NONE', #77, #77, #168, .T. ) ;
#323 = CIRCLE ( 'NONE', #70, 0.1695299461620743409 ) ;
#324 = APPLICATION_PROTOCOL_DEFINITION ( 'international standard', 'config_control_design', 1994, #299 ) ;
#325 = PERSON_AND_ORGANIZATION_ROLE ( 'design_supplier' ) ;
#326 = DIRECTION ( 'NONE',  ( 3.491481338843133355E-15, -0.000000000000000000, 1.000000000000000000 ) ) ;
#327 = APPROVAL_DATE_TIME ( #360, #44 ) ;
#328 = CC_DESIGN_APPROVAL ( #73, ( #282 ) ) ;
#329 = CARTESIAN_POINT ( 'NONE',  ( 9.077851480992140413E-15, 0.000000000000000000, 2.599999999999998312 ) ) ;
#330 = PERSON_AND_ORGANIZATION ( #270, #222 ) ;
#331 = EDGE_LOOP ( 'NONE', ( #351 ) ) ;
#332 = CALENDAR_DATE ( 2023, 27, 9 ) ;
#333 = EDGE_CURVE ( 'NONE', #389, #389, #129, .T. ) ;
#334 = ORIENTED_EDGE ( 'NONE', *, *, #322, .T. ) ;
#335 = CLOSED_SHELL ( 'NONE', ( #374, #285, #394, #156, #52, #340, #191, #298, #362, #231, #238, #265, #368, #132, #149, #4 ) ) ;
#336 = ORIENTED_EDGE ( 'NONE', *, *, #118, .T. ) ;
#337 = LOCAL_TIME ( 10, 31, 40.00000000000000000, #30 ) ;
#338 = FACE_BOUND ( 'NONE', #159, .T. ) ;
#339 = DIRECTION ( 'NONE',  ( 1.000000000000000000, 0.000000000000000000, -5.782411586589388010E-15 ) ) ;
#340 = ADVANCED_FACE ( 'NONE', ( #229, #319 ), #354, .T. ) ;
#341 = ORIENTED_EDGE ( 'NONE', *, *, #204, .F. ) ;
#342 = FACE_OUTER_BOUND ( 'NONE', #5, .T. ) ;
#343 = ORIENTED_EDGE ( 'NONE', *, *, #322, .F. ) ;
#344 = CIRCLE ( 'NONE', #23, 0.1249999999999998890 ) ;
#345 = CARTESIAN_POINT ( 'NONE',  ( 1.316288464743861212E-13, 0.000000000000000000, 37.69999999999999574 ) ) ;
#346 = ORIENTED_EDGE ( 'NONE', *, *, #186, .F. ) ;
#347 = FACE_OUTER_BOUND ( 'NONE', #131, .T. ) ;
#348 = VERTEX_POINT ( 'NONE', #49 ) ;
#349 = DIRECTION ( 'NONE',  ( 3.491481338843133355E-15, -0.000000000000000000, 1.000000000000000000 ) ) ;
#350 = CC_DESIGN_PERSON_AND_ORGANIZATION_ASSIGNMENT ( #124, #325, ( #282 ) ) ;
#351 = ORIENTED_EDGE ( 'NONE', *, *, #167, .F. ) ;
#352 = FACE_BOUND ( 'NONE', #211, .T. ) ;
#353 =( GEOMETRIC_REPRESENTATION_CONTEXT ( 3 ) GLOBAL_UNCERTAINTY_ASSIGNED_CONTEXT ( ( #206 ) ) GLOBAL_UNIT_ASSIGNED_CONTEXT ( ( #16, #176, #113 ) ) REPRESENTATION_CONTEXT ( 'NONE', 'WORKASPACE' ) );
#354 = CONICAL_SURFACE ( 'NONE', #120, 0.1695299461620743409, 1.047197551196602738 ) ;
#355 = CYLINDRICAL_SURFACE ( 'NONE', #174, 0.1695299461620742298 ) ;
#356 = DIRECTION ( 'NONE',  ( 3.491481338843133355E-15, -0.000000000000000000, 1.000000000000000000 ) ) ;
#357 = CARTESIAN_POINT ( 'NONE',  ( 0.1590741737109394593, 0.000000000000000000, 2.858819045102510170 ) ) ;
#358 = CIRCLE ( 'NONE', #147, 1.499999999999996447 ) ;
#359 = DIRECTION ( 'NONE',  ( -3.491481338843133355E-15, 0.000000000000000000, -1.000000000000000000 ) ) ;
#360 = DATE_AND_TIME ( #243, #24 ) ;
#361 = CARTESIAN_POINT ( 'NONE',  ( 1.396592535537244862E-15, 0.000000000000000000, 0.3999999999999975797 ) ) ;
#362 = ADVANCED_FACE ( 'NONE', ( #321, #170 ), #355, .T. ) ;
#363 = APPROVAL_ROLE ( '' ) ;
#364 = AXIS2_PLACEMENT_3D ( 'NONE', #329, #125, #180 ) ;
#365 = CIRCLE ( 'NONE', #141, 0.2850000000000000866 ) ;
#366 = ORIENTED_EDGE ( 'NONE', *, *, #254, .T. ) ;
#367 = CALENDAR_DATE ( 2023, 27, 9 ) ;
#368 = ADVANCED_FACE ( 'NONE', ( #83, #352 ), #179, .T. ) ;
#369 = CYLINDRICAL_SURFACE ( 'NONE', #10, 0.1695299461620742298 ) ;
#370 = EDGE_LOOP ( 'NONE', ( #108 ) ) ;
#371 = DIRECTION ( 'NONE',  ( 1.000000000000000000, 0.000000000000000000, -3.491481338843132961E-15 ) ) ;
#372 = VERTEX_POINT ( 'NONE', #281 ) ;
#373 = CARTESIAN_POINT ( 'NONE',  ( 1.316288464743861212E-13, 0.000000000000000000, 37.69999999999999574 ) ) ;
#374 = ADVANCED_FACE ( 'NONE', ( #117 ), #47, .F. ) ;
#375 = FACE_OUTER_BOUND ( 'NONE', #28, .T. ) ;
#376 = VERTEX_POINT ( 'NONE', #219 ) ;
#377 = EDGE_LOOP ( 'NONE', ( #346 ) ) ;
#378 = FACE_BOUND ( 'NONE', #377, .T. ) ;
#379 = ORIENTED_EDGE ( 'NONE', *, *, #295, .F. ) ;
#380 = AXIS2_PLACEMENT_3D ( 'NONE', #288, #142, #291 ) ;
#381 = DIRECTION ( 'NONE',  ( -1.000000000000000000, 0.000000000000000000, 3.491481338843133355E-15 ) ) ;
#382 = CC_DESIGN_PERSON_AND_ORGANIZATION_ASSIGNMENT ( #150, #88, ( #258 ) ) ;
#383 = VERTEX_POINT ( 'NONE', #193 ) ;
#384 = CARTESIAN_POINT ( 'NONE',  ( 0.1262286759728516172, 0.000000000000000000, -4.407250665860879917E-16 ) ) ;
#385 = VERTEX_POINT ( 'NONE', #112 ) ;
#386 = CARTESIAN_POINT ( 'NONE',  ( 1.396592535537244862E-15, 0.000000000000000000, 0.3999999999999975797 ) ) ;
#387 = AXIS2_PLACEMENT_3D ( 'NONE', #199, #349, #233 ) ;
#388 = EDGE_CURVE ( 'NONE', #18, #18, #344, .T. ) ;
#389 = VERTEX_POINT ( 'NONE', #384 ) ;
#390 = CARTESIAN_POINT ( 'NONE',  ( 1.326762908760390423E-13, 0.000000000000000000, 38.00000000000000000 ) ) ;
#391 = AXIS2_PLACEMENT_3D ( 'NONE', #59, #359, #183 ) ;
#392 = PERSON_AND_ORGANIZATION ( #270, #222 ) ;
#393 = AXIS2_PLACEMENT_3D ( 'NONE', #9, #187, #185 ) ;
#394 = ADVANCED_FACE ( 'NONE', ( #50, #45 ), #166, .T. ) ;
#395 = EDGE_LOOP ( 'NONE', ( #96 ) ) ;
ENDSEC;
END-ISO-10303-21;
