ISO-10303-21;
HEADER;
FILE_DESCRIPTION (( 'STEP AP203' ),
    '1' );
FILE_NAME ('961175.step',
    '2023-09-27T08:27:00',
    ( '' ),
    ( '' ),
    'SwSTEP 2.0',
    'SolidWorks 2022',
    '' );
FILE_SCHEMA (( 'CONFIG_CONTROL_DESIGN' ));
ENDSEC;

DATA;
#1 = CC_DESIGN_SECURITY_CLASSIFICATION ( #287, ( #46 ) ) ;
#2 = CIRCLE ( 'NONE', #71, 2.299074173710926594 ) ;
#3 = ADVANCED_FACE ( 'NONE', ( #70 ), #161, .F. ) ;
#4 = MECHANICAL_CONTEXT ( 'NONE', #219, 'mechanical' ) ;
#5 = ORIENTED_EDGE ( 'NONE', *, *, #213, .F. ) ;
#6 = PERSON_AND_ORGANIZATION_ROLE ( 'creator' ) ;
#7 = EDGE_LOOP ( 'NONE', ( #352 ) ) ;
#8 = ORIENTED_EDGE ( 'NONE', *, *, #108, .T. ) ;
#9 = DIRECTION ( 'NONE',  ( -3.491481338843133355E-15, 0.000000000000000000, -1.000000000000000000 ) ) ;
#10 = FACE_OUTER_BOUND ( 'NONE', #349, .T. ) ;
#11 = EDGE_LOOP ( 'NONE', ( #286 ) ) ;
#12 = FACE_BOUND ( 'NONE', #374, .T. ) ;
#13 = ORIENTED_EDGE ( 'NONE', *, *, #371, .T. ) ;
#14 = EDGE_CURVE ( 'NONE', #358, #358, #253, .T. ) ;
#15 = FACE_OUTER_BOUND ( 'NONE', #318, .T. ) ;
#16 = FACE_OUTER_BOUND ( 'NONE', #82, .T. ) ;
#17 = LOCAL_TIME ( 10, 27, 0.000000000000000000, #37 ) ;
#18 = CONICAL_SURFACE ( 'NONE', #169, 2.299074173710926594, 0.2617993877991431906 ) ;
#19 = FACE_OUTER_BOUND ( 'NONE', #165, .T. ) ;
#20 = DIRECTION ( 'NONE',  ( 1.000000000000000000, 0.000000000000000000, -3.497426362856466107E-15 ) ) ;
#21 = CARTESIAN_POINT ( 'NONE',  ( 1.124493037895917524E-13, 0.000000000000000000, 32.20676064871957323 ) ) ;
#22 = CARTESIAN_POINT ( 'NONE',  ( 3.255000000000002114, 0.000000000000000000, 0.6770833333333167170 ) ) ;
#23 = DIRECTION ( 'NONE',  ( 1.000000000000000000, 0.000000000000000000, -3.464117540353071286E-15 ) ) ;
#24 = ADVANCED_FACE ( 'NONE', ( #19, #178 ), #299, .T. ) ;
#25 = DIRECTION ( 'NONE',  ( 1.000000000000000000, 0.000000000000000000, -3.018125288540468148E-15 ) ) ;
#26 = VERTEX_POINT ( 'NONE', #85 ) ;
#27 = DIRECTION ( 'NONE',  ( -3.491481338843133355E-15, 0.000000000000000000, -1.000000000000000000 ) ) ;
#28 = DIRECTION ( 'NONE',  ( 3.491481338843133355E-15, -0.000000000000000000, 1.000000000000000000 ) ) ;
#29 = APPROVAL ( #246, 'UNSPECIFIED' ) ;
#30 = CARTESIAN_POINT ( 'NONE',  ( 4.000000000000112799, 0.000000000000000000, 32.20676064871955901 ) ) ;
#31 = APPLICATION_PROTOCOL_DEFINITION ( 'international standard', 'config_control_design', 1994, #219 ) ;
#32 = CC_DESIGN_DATE_AND_TIME_ASSIGNMENT ( #276, #51, ( #287 ) ) ;
#33 = ORGANIZATION ( 'UNSPECIFIED', 'UNSPECIFIED', '' ) ;
#34 = AXIS2_PLACEMENT_3D ( 'NONE', #214, #308, #367 ) ;
#35 = DIRECTION ( 'NONE',  ( -1.000000000000000000, 0.000000000000000000, 3.497426362856466107E-15 ) ) ;
#36 = EDGE_LOOP ( 'NONE', ( #163 ) ) ;
#37 = COORDINATED_UNIVERSAL_TIME_OFFSET ( 1, 0, .AHEAD. ) ;
#38 = DIRECTION ( 'NONE',  ( 1.000000000000000000, 0.000000000000000000, -3.464117540353072074E-15 ) ) ;
#39 = ORIENTED_EDGE ( 'NONE', *, *, #365, .F. ) ;
#40 = ORIENTED_EDGE ( 'NONE', *, *, #270, .T. ) ;
#41 = PLANE ( 'NONE',  #362 ) ;
#42 = EDGE_LOOP ( 'NONE', ( #347 ) ) ;
#43 = ADVANCED_FACE ( 'NONE', ( #16, #84 ), #297, .T. ) ;
#44 = FACE_BOUND ( 'NONE', #225, .T. ) ;
#45 = FACE_BOUND ( 'NONE', #141, .T. ) ;
#46 = PRODUCT_DEFINITION_FORMATION_WITH_SPECIFIED_SOURCE ( 'ANY', '', #229, .NOT_KNOWN. ) ;
#47 = FACE_OUTER_BOUND ( 'NONE', #11, .T. ) ;
#48 = AXIS2_PLACEMENT_3D ( 'NONE', #295, #267, #61 ) ;
#49 = CARTESIAN_POINT ( 'NONE',  ( 2.590679153421605076E-13, 0.000000000000000000, 74.20000000000000284 ) ) ;
#50 = ADVANCED_FACE ( 'NONE', ( #386, #112 ), #116, .T. ) ;
#51 = DATE_TIME_ROLE ( 'classification_date' ) ;
#52 = VERTEX_POINT ( 'NONE', #356 ) ;
#53 = DIRECTION ( 'NONE',  ( 1.000000000000000000, 0.000000000000000000, -3.491481338843133355E-15 ) ) ;
#54 = CARTESIAN_POINT ( 'NONE',  ( 3.255000000000006111, 0.000000000000000000, 1.927083333333317938 ) ) ;
#55 = AXIS2_PLACEMENT_3D ( 'NONE', #148, #266, #175 ) ;
#56 = CIRCLE ( 'NONE', #168, 2.533312163512963178 ) ;
#57 = CARTESIAN_POINT ( 'NONE',  ( 0.000000000000000000, 0.000000000000000000, 0.000000000000000000 ) ) ;
#58 = MANIFOLD_SOLID_BREP ( 'Corps-Déplacer/Copier1', #99 ) ;
#59 = VERTEX_POINT ( 'NONE', #183 ) ;
#60 = AXIS2_PLACEMENT_3D ( 'NONE', #199, #121, #384 ) ;
#61 = DIRECTION ( 'NONE',  ( 1.000000000000000000, 0.000000000000000000, -3.497426362856466107E-15 ) ) ;
#62 = VERTEX_POINT ( 'NONE', #151 ) ;
#63 = DIRECTION ( 'NONE',  ( -1.000000000000000000, 0.000000000000000000, 3.491481338843133355E-15 ) ) ;
#64 = DATE_AND_TIME ( #94, #222 ) ;
#65 = PERSON_AND_ORGANIZATION ( #131, #33 ) ;
#66 = EDGE_CURVE ( 'NONE', #150, #150, #224, .T. ) ;
#67 = DIRECTION ( 'NONE',  ( -1.000000000000000000, 0.000000000000000000, 3.491481338843133355E-15 ) ) ;
#68 = PERSON_AND_ORGANIZATION ( #131, #33 ) ;
#69 = AXIS2_PLACEMENT_3D ( 'NONE', #342, #191, #35 ) ;
#70 = FACE_OUTER_BOUND ( 'NONE', #77, .T. ) ;
#71 = AXIS2_PLACEMENT_3D ( 'NONE', #86, #209, #25 ) ;
#72 = EDGE_CURVE ( 'NONE', #59, #59, #2, .T. ) ;
#73 = CARTESIAN_POINT ( 'NONE',  ( 0.000000000000000000, 0.000000000000000000, 0.000000000000000000 ) ) ;
#74 = ORIENTED_EDGE ( 'NONE', *, *, #66, .F. ) ;
#75 = FACE_BOUND ( 'NONE', #261, .T. ) ;
#76 = FACE_OUTER_BOUND ( 'NONE', #230, .T. ) ;
#77 = EDGE_LOOP ( 'NONE', ( #366 ) ) ;
#78 = CC_DESIGN_APPROVAL ( #387, ( #287 ) ) ;
#79 = ORIENTED_EDGE ( 'NONE', *, *, #179, .T. ) ;
#80 = AXIS2_PLACEMENT_3D ( 'NONE', #264, #380, #354 ) ;
#81 = FACE_OUTER_BOUND ( 'NONE', #195, .T. ) ;
#82 = EDGE_LOOP ( 'NONE', ( #109 ) ) ;
#83 = CC_DESIGN_APPROVAL ( #29, ( #46 ) ) ;
#84 = FACE_OUTER_BOUND ( 'NONE', #104, .T. ) ;
#85 = CARTESIAN_POINT ( 'NONE',  ( 3.200000000000258193, 0.000000000000000000, 75.00000000000000000 ) ) ;
#86 = CARTESIAN_POINT ( 'NONE',  ( 9.028558414049684603E-14, 0.000000000000000000, 25.85881904510251772 ) ) ;
#87 = ADVANCED_BREP_SHAPE_REPRESENTATION ( '961175', ( #58, #319 ), #336 ) ;
#88 = FACE_OUTER_BOUND ( 'NONE', #36, .T. ) ;
#89 = PERSON_AND_ORGANIZATION_ROLE ( 'classification_officer' ) ;
#90 = AXIS2_PLACEMENT_3D ( 'NONE', #176, #28, #272 ) ;
#91 = FACE_OUTER_BOUND ( 'NONE', #344, .T. ) ;
#92 = CARTESIAN_POINT ( 'NONE',  ( 8.183159387913613129E-15, 0.000000000000000000, 2.343750000000005329 ) ) ;
#93 = AXIS2_PLACEMENT_3D ( 'NONE', #210, #238, #334 ) ;
#94 = CALENDAR_DATE ( 2023, 27, 9 ) ;
#95 = ADVANCED_FACE ( 'NONE', ( #120, #45 ), #245, .T. ) ;
#96 = AXIS2_PLACEMENT_3D ( 'NONE', #49, #207, #235 ) ;
#97 = DIRECTION ( 'NONE',  ( 0.000000000000000000, 0.000000000000000000, 1.000000000000000000 ) ) ;
#98 = APPROVAL ( #205, 'UNSPECIFIED' ) ;
#99 = CLOSED_SHELL ( 'NONE', ( #3, #252, #24, #311, #167, #95, #50, #237, #164, #232, #350, #341, #277, #43, #113, #321 ) ) ;
#100 = ORIENTED_EDGE ( 'NONE', *, *, #14, .F. ) ;
#101 = DIRECTION ( 'NONE',  ( 3.491481338843133355E-15, -0.000000000000000000, 1.000000000000000000 ) ) ;
#102 = CIRCLE ( 'NONE', #364, 2.533312163512963622 ) ;
#103 = CARTESIAN_POINT ( 'NONE',  ( 8.728703347107831810E-15, 2.533312163512963622, 2.499999999999999556 ) ) ;
#104 = EDGE_LOOP ( 'NONE', ( #370 ) ) ;
#105 = DIRECTION ( 'NONE',  ( 3.491481338843133355E-15, -0.000000000000000000, 1.000000000000000000 ) ) ;
#106 = FACE_OUTER_BOUND ( 'NONE', #197, .T. ) ;
#107 = EDGE_LOOP ( 'NONE', ( #220 ) ) ;
#108 = EDGE_CURVE ( 'NONE', #305, #305, #343, .T. ) ;
#109 = ORIENTED_EDGE ( 'NONE', *, *, #309, .F. ) ;
#110 = AXIS2_PLACEMENT_3D ( 'NONE', #288, #9, #202 ) ;
#111 = VERTEX_POINT ( 'NONE', #171 ) ;
#112 = FACE_OUTER_BOUND ( 'NONE', #138, .T. ) ;
#113 = ADVANCED_FACE ( 'NONE', ( #381, #47 ), #143, .T. ) ;
#114 = CYLINDRICAL_SURFACE ( 'NONE', #93, 2.533312163512963622 ) ;
#115 = CARTESIAN_POINT ( 'NONE',  ( 3.818807714359692490E-15, 0.000000000000000000, 1.093750000000004441 ) ) ;
#116 = CYLINDRICAL_SURFACE ( 'NONE', #328, 3.254999999999999449 ) ;
#117 = COORDINATED_UNIVERSAL_TIME_OFFSET ( 1, 0, .AHEAD. ) ;
#118 = EDGE_CURVE ( 'NONE', #26, #26, #300, .T. ) ;
#119 = CARTESIAN_POINT ( 'NONE',  ( 2.533312163512967174, 0.000000000000000000, 1.093749999999995559 ) ) ;
#120 = FACE_OUTER_BOUND ( 'NONE', #315, .T. ) ;
#121 = DIRECTION ( 'NONE',  ( 3.491481338843133355E-15, -0.000000000000000000, 1.000000000000000000 ) ) ;
#122 = APPROVAL_PERSON_ORGANIZATION ( #182, #387, #146 ) ;
#123 = CARTESIAN_POINT ( 'NONE',  ( 2.618611004132350143E-13, 0.000000000000000000, 75.00000000000000000 ) ) ;
#124 = AXIS2_PLACEMENT_3D ( 'NONE', #241, #330, #304 ) ;
#125 = CC_DESIGN_PERSON_AND_ORGANIZATION_ASSIGNMENT ( #395, #6, ( #379 ) ) ;
#126 = AXIS2_PLACEMENT_3D ( 'NONE', #73, #372, #260 ) ;
#127 = PERSON_AND_ORGANIZATION ( #131, #33 ) ;
#128 = EDGE_LOOP ( 'NONE', ( #5 ) ) ;
#129 = PERSON_AND_ORGANIZATION_ROLE ( 'creator' ) ;
#130 = PLANE ( 'NONE',  #390 ) ;
#131 = PERSON ( 'UNSPECIFIED', 'UNSPECIFIED', 'UNSPECIFIED', ('UNSPECIFIED'), ('UNSPECIFIED'), ('UNSPECIFIED') ) ;
#132 = CARTESIAN_POINT ( 'NONE',  ( 7.325595235086763819E-33, 0.000000000000000000, 2.098133864726318397E-18 ) ) ;
#133 = DATE_TIME_ROLE ( 'creation_date' ) ;
#134 = DIRECTION ( 'NONE',  ( 1.000000000000000000, 0.000000000000000000, -5.478119912616698932E-15 ) ) ;
#135 = ORIENTED_EDGE ( 'NONE', *, *, #156, .F. ) ;
#136 = CARTESIAN_POINT ( 'NONE',  ( 8.728703347107841277E-15, 0.000000000000000000, 2.500000000000002220 ) ) ;
#137 = CARTESIAN_POINT ( 'NONE',  ( 8.938192227438421390E-14, 0.000000000000000000, 25.60000000000000142 ) ) ;
#138 = EDGE_LOOP ( 'NONE', ( #259 ) ) ;
#139 = CC_DESIGN_PERSON_AND_ORGANIZATION_ASSIGNMENT ( #65, #129, ( #46 ) ) ;
#140 = DIRECTION ( 'NONE',  ( -3.491481338843133355E-15, 0.000000000000000000, -1.000000000000000000 ) ) ;
#141 = EDGE_LOOP ( 'NONE', ( #79 ) ) ;
#142 = CARTESIAN_POINT ( 'NONE',  ( 9.028558414049684603E-14, 0.000000000000000000, 25.85881904510251772 ) ) ;
#143 = CONICAL_SURFACE ( 'NONE', #96, 3.999999999999994671, 0.7853981633974418397 ) ;
#144 = AXIS2_PLACEMENT_3D ( 'NONE', #123, #290, #134 ) ;
#145 = CC_DESIGN_PERSON_AND_ORGANIZATION_ASSIGNMENT ( #127, #280, ( #46 ) ) ;
#146 = APPROVAL_ROLE ( '' ) ;
#147 = CARTESIAN_POINT ( 'NONE',  ( 2.265000000000008562, 0.000000000000000000, 2.499999999999994227 ) ) ;
#148 = CARTESIAN_POINT ( 'NONE',  ( 2.618611004132350143E-13, 0.000000000000000000, 75.00000000000000000 ) ) ;
#149 = EDGE_CURVE ( 'NONE', #302, #302, #221, .T. ) ;
#150 = VERTEX_POINT ( 'NONE', #30 ) ;
#151 = CARTESIAN_POINT ( 'NONE',  ( 2.265000000000086278, 0.000000000000000000, 25.59999999999999076 ) ) ;
#152 = APPROVAL_PERSON_ORGANIZATION ( #255, #29, #226 ) ;
#153 = APPLICATION_CONTEXT ( 'configuration controlled 3d designs of mechanical parts and assemblies' ) ;
#154 =( NAMED_UNIT ( * ) SI_UNIT ( $, .STERADIAN. ) SOLID_ANGLE_UNIT ( ) );
#155 = AXIS2_PLACEMENT_3D ( 'NONE', #314, #348, #38 ) ;
#156 = EDGE_CURVE ( 'NONE', #271, #271, #159, .T. ) ;
#157 = APPROVAL_DATE_TIME ( #338, #29 ) ;
#158 = APPROVAL_PERSON_ORGANIZATION ( #173, #98, #326 ) ;
#159 = CIRCLE ( 'NONE', #48, 3.254999999999999893 ) ;
#160 = EDGE_LOOP ( 'NONE', ( #317 ) ) ;
#161 = PLANE ( 'NONE',  #325 ) ;
#162 = DATE_AND_TIME ( #189, #17 ) ;
#163 = ORIENTED_EDGE ( 'NONE', *, *, #355, .T. ) ;
#164 = ADVANCED_FACE ( 'NONE', ( #383, #88 ), #114, .T. ) ;
#165 = EDGE_LOOP ( 'NONE', ( #135 ) ) ;
#166 = ORIENTED_EDGE ( 'NONE', *, *, #213, .T. ) ;
#167 = ADVANCED_FACE ( 'NONE', ( #361, #91 ), #389, .T. ) ;
#168 = AXIS2_PLACEMENT_3D ( 'NONE', #115, #244, #360 ) ;
#169 = AXIS2_PLACEMENT_3D ( 'NONE', #142, #105, #228 ) ;
#170 = DIRECTION ( 'NONE',  ( 3.491481338843133355E-15, -0.000000000000000000, 1.000000000000000000 ) ) ;
#171 = CARTESIAN_POINT ( 'NONE',  ( 2.533312163512972504, 0.000000000000000000, 2.499999999999993339 ) ) ;
#172 = DIRECTION ( 'NONE',  ( 1.000000000000000000, 0.000000000000000000, -4.263529280434549760E-15 ) ) ;
#173 = PERSON_AND_ORGANIZATION ( #131, #33 ) ;
#174 = VERTEX_POINT ( 'NONE', #54 ) ;
#175 = DIRECTION ( 'NONE',  ( 1.000000000000000000, 0.000000000000000000, -4.263529280434548971E-15 ) ) ;
#176 = CARTESIAN_POINT ( 'NONE',  ( 8.728703347107841277E-15, 0.000000000000000000, 2.500000000000002220 ) ) ;
#177 = VERTEX_POINT ( 'NONE', #337 ) ;
#178 = FACE_OUTER_BOUND ( 'NONE', #233, .T. ) ;
#179 = EDGE_CURVE ( 'NONE', #186, #186, #102, .T. ) ;
#180 = CIRCLE ( 'NONE', #391, 3.254999999999999893 ) ;
#181 = CONICAL_SURFACE ( 'NONE', #69, 3.254999999999999893, 1.047197551196590526 ) ;
#182 = PERSON_AND_ORGANIZATION ( #131, #33 ) ;
#183 = CARTESIAN_POINT ( 'NONE',  ( 2.299074173711016744, 0.000000000000000000, 25.85881904510251061 ) ) ;
#184 = COORDINATED_UNIVERSAL_TIME_OFFSET ( 1, 0, .AHEAD. ) ;
#185 = CALENDAR_DATE ( 2023, 27, 9 ) ;
#186 = VERTEX_POINT ( 'NONE', #388 ) ;
#187 = APPROVAL_DATE_TIME ( #64, #98 ) ;
#188 = SECURITY_CLASSIFICATION_LEVEL ( 'unclassified' ) ;
#189 = CALENDAR_DATE ( 2023, 27, 9 ) ;
#190 = CIRCLE ( 'NONE', #216, 2.533312163512963622 ) ;
#191 = DIRECTION ( 'NONE',  ( -3.491481338843133355E-15, 0.000000000000000000, -1.000000000000000000 ) ) ;
#192 = CIRCLE ( 'NONE', #155, 3.254999999999999005 ) ;
#193 = ORIENTED_EDGE ( 'NONE', *, *, #72, .T. ) ;
#194 = CARTESIAN_POINT ( 'NONE',  ( 2.590679153421605076E-13, 0.000000000000000000, 74.20000000000000284 ) ) ;
#195 = EDGE_LOOP ( 'NONE', ( #40 ) ) ;
#196 = FACE_OUTER_BOUND ( 'NONE', #42, .T. ) ;
#197 = EDGE_LOOP ( 'NONE', ( #8 ) ) ;
#198 = LOCAL_TIME ( 10, 27, 0.000000000000000000, #310 ) ;
#199 = CARTESIAN_POINT ( 'NONE',  ( 2.618611004132350143E-13, 0.000000000000000000, 75.00000000000000000 ) ) ;
#200 = CIRCLE ( 'NONE', #281, 2.533312163512963622 ) ;
#201 = ORIENTED_EDGE ( 'NONE', *, *, #108, .F. ) ;
#202 = DIRECTION ( 'NONE',  ( -1.000000000000000000, 0.000000000000000000, 3.464117540353072074E-15 ) ) ;
#203 = EDGE_LOOP ( 'NONE', ( #74 ) ) ;
#204 = CC_DESIGN_PERSON_AND_ORGANIZATION_ASSIGNMENT ( #250, #89, ( #287 ) ) ;
#205 = APPROVAL_STATUS ( 'not_yet_approved' ) ;
#206 =( LENGTH_UNIT ( ) NAMED_UNIT ( * ) SI_UNIT ( .MILLI., .METRE. ) );
#207 = DIRECTION ( 'NONE',  ( -3.491481338843133355E-15, 0.000000000000000000, -1.000000000000000000 ) ) ;
#208 = CC_DESIGN_PERSON_AND_ORGANIZATION_ASSIGNMENT ( #68, #263, ( #229 ) ) ;
#209 = DIRECTION ( 'NONE',  ( 3.491481338843133355E-15, -0.000000000000000000, 1.000000000000000000 ) ) ;
#210 = CARTESIAN_POINT ( 'NONE',  ( 2.618611004132350143E-13, 0.000000000000000000, 75.00000000000000000 ) ) ;
#211 = CONICAL_SURFACE ( 'NONE', #126, 2.262679224830326241, 1.047197551196594967 ) ;
#212 = CARTESIAN_POINT ( 'NONE',  ( 3.255000000000006555, 0.000000000000000000, 1.822916666666648977 ) ) ;
#213 = EDGE_CURVE ( 'NONE', #174, #174, #192, .T. ) ;
#214 = CARTESIAN_POINT ( 'NONE',  ( 4.909895632748147998E-15, 0.000000000000000000, 1.406249999999997780 ) ) ;
#215 = CALENDAR_DATE ( 2023, 27, 9 ) ;
#216 = AXIS2_PLACEMENT_3D ( 'NONE', #136, #375, #323 ) ;
#217 = FACE_OUTER_BOUND ( 'NONE', #203, .T. ) ;
#218 = DIRECTION ( 'NONE',  ( 1.000000000000000000, 0.000000000000000000, 0.000000000000000000 ) ) ;
#219 = APPLICATION_CONTEXT ( 'configuration controlled 3d designs of mechanical parts and assemblies' ) ;
#220 = ORIENTED_EDGE ( 'NONE', *, *, #72, .F. ) ;
#221 = CIRCLE ( 'NONE', #320, 2.262679224830326241 ) ;
#222 = LOCAL_TIME ( 10, 27, 0.000000000000000000, #117 ) ;
#223 = FACE_BOUND ( 'NONE', #7, .T. ) ;
#224 = CIRCLE ( 'NONE', #313, 4.000000000000000000 ) ;
#225 = EDGE_LOOP ( 'NONE', ( #39 ) ) ;
#226 = APPROVAL_ROLE ( '' ) ;
#227 = ORIENTED_EDGE ( 'NONE', *, *, #371, .F. ) ;
#228 = DIRECTION ( 'NONE',  ( 1.000000000000000000, 0.000000000000000000, -3.018125288540468148E-15 ) ) ;
#229 = PRODUCT ( '961175', '961175', '', ( #4 ) ) ;
#230 = EDGE_LOOP ( 'NONE', ( #13 ) ) ;
#231 = DIRECTION ( 'NONE',  ( 3.491481338843133355E-15, -0.000000000000000000, 1.000000000000000000 ) ) ;
#232 = ADVANCED_FACE ( 'NONE', ( #12, #81 ), #41, .F. ) ;
#233 = EDGE_LOOP ( 'NONE', ( #283 ) ) ;
#234 = CARTESIAN_POINT ( 'NONE',  ( 2.000327850378900441E-15, 0.000000000000000000, 0.5729166666666729579 ) ) ;
#235 = DIRECTION ( 'NONE',  ( -1.000000000000000000, 0.000000000000000000, 3.469446951953618922E-15 ) ) ;
#236 = DIRECTION ( 'NONE',  ( 1.000000000000000000, 0.000000000000000000, -3.423824945385436635E-15 ) ) ;
#237 = ADVANCED_FACE ( 'NONE', ( #223, #284 ), #345, .T. ) ;
#238 = DIRECTION ( 'NONE',  ( 3.491481338843133355E-15, -0.000000000000000000, 1.000000000000000000 ) ) ;
#239 = DIRECTION ( 'NONE',  ( 1.000000000000000000, 0.000000000000000000, -3.063529317398338736E-15 ) ) ;
#240 = DIRECTION ( 'NONE',  ( 3.491481338843133355E-15, -0.000000000000000000, 1.000000000000000000 ) ) ;
#241 = CARTESIAN_POINT ( 'NONE',  ( 2.618611004132350648E-13, 0.000000000000000000, 75.00000000000001421 ) ) ;
#242 = DIRECTION ( 'NONE',  ( 1.000000000000000000, 0.000000000000000000, -3.469446951953614189E-15 ) ) ;
#243 = DIRECTION ( 'NONE',  ( 1.000000000000000000, 0.000000000000000000, -3.491481338843133355E-15 ) ) ;
#244 = DIRECTION ( 'NONE',  ( 3.491481338843133355E-15, -0.000000000000000000, 1.000000000000000000 ) ) ;
#245 = CONICAL_SURFACE ( 'NONE', #34, 2.533312163512963622, 1.047197551196604515 ) ;
#246 = APPROVAL_STATUS ( 'not_yet_approved' ) ;
#247 = CARTESIAN_POINT ( 'NONE',  ( 0.000000000000000000, 0.000000000000000000, 0.000000000000000000 ) ) ;
#248 = DESIGN_CONTEXT ( 'detailed design', #153, 'design' ) ;
#249 = EDGE_LOOP ( 'NONE', ( #353 ) ) ;
#250 = PERSON_AND_ORGANIZATION ( #131, #33 ) ;
#251 = DIRECTION ( 'NONE',  ( 1.000000000000000000, 0.000000000000000000, -3.509420569020072679E-15 ) ) ;
#252 = ADVANCED_FACE ( 'NONE', ( #196, #75 ), #211, .T. ) ;
#253 = CIRCLE ( 'NONE', #307, 3.254999999999999893 ) ;
#254 = EDGE_LOOP ( 'NONE', ( #256 ) ) ;
#255 = PERSON_AND_ORGANIZATION ( #131, #33 ) ;
#256 = ORIENTED_EDGE ( 'NONE', *, *, #118, .F. ) ;
#257 = FACE_BOUND ( 'NONE', #324, .T. ) ;
#258 = DIRECTION ( 'NONE',  ( 3.491481338843133355E-15, -0.000000000000000000, 1.000000000000000000 ) ) ;
#259 = ORIENTED_EDGE ( 'NONE', *, *, #14, .T. ) ;
#260 = DIRECTION ( 'NONE',  ( 1.000000000000000000, 0.000000000000000000, -3.491481338843133355E-15 ) ) ;
#261 = EDGE_LOOP ( 'NONE', ( #289 ) ) ;
#262 = DIRECTION ( 'NONE',  ( 3.491481338843133355E-15, -0.000000000000000000, 1.000000000000000000 ) ) ;
#263 = PERSON_AND_ORGANIZATION_ROLE ( 'design_owner' ) ;
#264 = CARTESIAN_POINT ( 'NONE',  ( 2.618611004132350143E-13, 0.000000000000000000, 75.00000000000000000 ) ) ;
#265 =( NAMED_UNIT ( * ) PLANE_ANGLE_UNIT ( ) SI_UNIT ( $, .RADIAN. ) );
#266 = DIRECTION ( 'NONE',  ( 3.491481338843133355E-15, -0.000000000000000000, 1.000000000000000000 ) ) ;
#267 = DIRECTION ( 'NONE',  ( 3.491481338843133355E-15, -0.000000000000000000, 1.000000000000000000 ) ) ;
#268 = DIRECTION ( 'NONE',  ( 3.491481338843133355E-15, -0.000000000000000000, 1.000000000000000000 ) ) ;
#269 = CARTESIAN_POINT ( 'NONE',  ( 2.618611004132350143E-13, 0.000000000000000000, 75.00000000000000000 ) ) ;
#270 = EDGE_CURVE ( 'NONE', #111, #111, #190, .T. ) ;
#271 = VERTEX_POINT ( 'NONE', #22 ) ;
#272 = DIRECTION ( 'NONE',  ( 1.000000000000000000, 0.000000000000000000, -3.446470482073126542E-15 ) ) ;
#273 = APPROVAL_DATE_TIME ( #278, #387 ) ;
#274 = DIRECTION ( 'NONE',  ( 3.491481338843133355E-15, -0.000000000000000000, 1.000000000000000000 ) ) ;
#275 = LOCAL_TIME ( 10, 27, 0.000000000000000000, #184 ) ;
#276 = DATE_AND_TIME ( #332, #275 ) ;
#277 = ADVANCED_FACE ( 'NONE', ( #217, #257 ), #18, .T. ) ;
#278 = DATE_AND_TIME ( #185, #198 ) ;
#279 = CIRCLE ( 'NONE', #327, 2.264999999999997016 ) ;
#280 = PERSON_AND_ORGANIZATION_ROLE ( 'design_supplier' ) ;
#281 = AXIS2_PLACEMENT_3D ( 'NONE', #92, #274, #236 ) ;
#282 = FACE_OUTER_BOUND ( 'NONE', #249, .T. ) ;
#283 = ORIENTED_EDGE ( 'NONE', *, *, #392, .T. ) ;
#284 = FACE_OUTER_BOUND ( 'NONE', #368, .T. ) ;
#285 = APPLICATION_PROTOCOL_DEFINITION ( 'international standard', 'config_control_design', 1994, #153 ) ;
#286 = ORIENTED_EDGE ( 'NONE', *, *, #309, .T. ) ;
#287 = SECURITY_CLASSIFICATION ( '', '', #188 ) ;
#288 = CARTESIAN_POINT ( 'NONE',  ( 6.728375496728940835E-15, 0.000000000000000000, 1.927083333333329263 ) ) ;
#289 = ORIENTED_EDGE ( 'NONE', *, *, #149, .T. ) ;
#290 = DIRECTION ( 'NONE',  ( 3.491481338843133355E-15, -0.000000000000000000, 1.000000000000000000 ) ) ;
#291 = ORIENTED_EDGE ( 'NONE', *, *, #365, .T. ) ;
#292 = TOROIDAL_SURFACE ( 'NONE', #385, 3.264999999999997016, 1.000000000000000666 ) ;
#293 = CC_DESIGN_APPROVAL ( #98, ( #379 ) ) ;
#294 = APPROVAL_STATUS ( 'not_yet_approved' ) ;
#295 = CARTESIAN_POINT ( 'NONE',  ( 2.364023823175020197E-15, 0.000000000000000000, 0.6770833333333281523 ) ) ;
#296 = VERTEX_POINT ( 'NONE', #119 ) ;
#297 = CYLINDRICAL_SURFACE ( 'NONE', #80, 3.999999999999997335 ) ;
#298 = CARTESIAN_POINT ( 'NONE',  ( 4.000000000000254019, 0.000000000000000000, 74.19999999999998863 ) ) ;
#299 = CYLINDRICAL_SURFACE ( 'NONE', #55, 3.254999999999999893 ) ;
#300 = CIRCLE ( 'NONE', #124, 3.199999999999996181 ) ;
#301 = CC_DESIGN_DATE_AND_TIME_ASSIGNMENT ( #162, #133, ( #379 ) ) ;
#302 = VERTEX_POINT ( 'NONE', #333 ) ;
#303 = CARTESIAN_POINT ( 'NONE',  ( 2.618611004132350648E-13, 3.199999999999996181, 75.00000000000001421 ) ) ;
#304 = DIRECTION ( 'NONE',  ( 1.000000000000000000, 0.000000000000000000, -4.336808689942023258E-15 ) ) ;
#305 = VERTEX_POINT ( 'NONE', #147 ) ;
#306 = ORIENTED_EDGE ( 'NONE', *, *, #270, .F. ) ;
#307 = AXIS2_PLACEMENT_3D ( 'NONE', #382, #357, #23 ) ;
#308 = DIRECTION ( 'NONE',  ( 3.491481338843133355E-15, -0.000000000000000000, 1.000000000000000000 ) ) ;
#309 = EDGE_CURVE ( 'NONE', #331, #331, #394, .T. ) ;
#310 = COORDINATED_UNIVERSAL_TIME_OFFSET ( 1, 0, .AHEAD. ) ;
#311 = ADVANCED_FACE ( 'NONE', ( #44, #15 ), #181, .T. ) ;
#312 = COORDINATED_UNIVERSAL_TIME_OFFSET ( 1, 0, .AHEAD. ) ;
#313 = AXIS2_PLACEMENT_3D ( 'NONE', #21, #240, #242 ) ;
#314 = CARTESIAN_POINT ( 'NONE',  ( 6.728375496728940835E-15, 0.000000000000000000, 1.927083333333329263 ) ) ;
#315 = EDGE_LOOP ( 'NONE', ( #100 ) ) ;
#316 = DIRECTION ( 'NONE',  ( 1.000000000000000000, 0.000000000000000000, -3.469446951953618922E-15 ) ) ;
#317 = ORIENTED_EDGE ( 'NONE', *, *, #179, .F. ) ;
#318 = EDGE_LOOP ( 'NONE', ( #322 ) ) ;
#319 = AXIS2_PLACEMENT_3D ( 'NONE', #247, #97, #218 ) ;
#320 = AXIS2_PLACEMENT_3D ( 'NONE', #57, #170, #243 ) ;
#321 = ADVANCED_FACE ( 'NONE', ( #282 ), #130, .F. ) ;
#322 = ORIENTED_EDGE ( 'NONE', *, *, #156, .T. ) ;
#323 = DIRECTION ( 'NONE',  ( 1.000000000000000000, 0.000000000000000000, -3.423824945385436635E-15 ) ) ;
#324 = EDGE_LOOP ( 'NONE', ( #193 ) ) ;
#325 = AXIS2_PLACEMENT_3D ( 'NONE', #132, #101, #53 ) ;
#326 = APPROVAL_ROLE ( '' ) ;
#327 = AXIS2_PLACEMENT_3D ( 'NONE', #363, #335, #239 ) ;
#328 = AXIS2_PLACEMENT_3D ( 'NONE', #269, #329, #172 ) ;
#329 = DIRECTION ( 'NONE',  ( 3.491481338843133355E-15, -0.000000000000000000, 1.000000000000000000 ) ) ;
#330 = DIRECTION ( 'NONE',  ( 3.491481338843133355E-15, -0.000000000000000000, 1.000000000000000000 ) ) ;
#331 = VERTEX_POINT ( 'NONE', #298 ) ;
#332 = CALENDAR_DATE ( 2023, 27, 9 ) ;
#333 = CARTESIAN_POINT ( 'NONE',  ( 2.262679224830326241, 0.000000000000000000, -7.900102289283130843E-15 ) ) ;
#334 = DIRECTION ( 'NONE',  ( 1.000000000000000000, 0.000000000000000000, -5.478119912616698932E-15 ) ) ;
#335 = DIRECTION ( 'NONE',  ( 3.491481338843133355E-15, -0.000000000000000000, 1.000000000000000000 ) ) ;
#336 =( GEOMETRIC_REPRESENTATION_CONTEXT ( 3 ) GLOBAL_UNCERTAINTY_ASSIGNED_CONTEXT ( ( #393 ) ) GLOBAL_UNIT_ASSIGNED_CONTEXT ( ( #206, #265, #154 ) ) REPRESENTATION_CONTEXT ( 'NONE', 'WORKASPACE' ) );
#337 = CARTESIAN_POINT ( 'NONE',  ( 2.533312163512972059, 0.000000000000000000, 2.343749999999996891 ) ) ;
#338 = DATE_AND_TIME ( #215, #378 ) ;
#339 = FACE_OUTER_BOUND ( 'NONE', #107, .T. ) ;
#340 = SHAPE_DEFINITION_REPRESENTATION ( #346, #87 ) ;
#341 = ADVANCED_FACE ( 'NONE', ( #339, #76 ), #292, .F. ) ;
#342 = CARTESIAN_POINT ( 'NONE',  ( 2.364023823175020197E-15, 0.000000000000000000, 0.6770833333333281523 ) ) ;
#343 = CIRCLE ( 'NONE', #90, 2.265000000000000124 ) ;
#344 = EDGE_LOOP ( 'NONE', ( #291 ) ) ;
#345 = CONICAL_SURFACE ( 'NONE', #110, 3.254999999999999005, 1.047197551196589638 ) ;
#346 = PRODUCT_DEFINITION_SHAPE ( 'NONE', 'NONE',  #379 ) ;
#347 = ORIENTED_EDGE ( 'NONE', *, *, #392, .F. ) ;
#348 = DIRECTION ( 'NONE',  ( 3.491481338843133355E-15, -0.000000000000000000, 1.000000000000000000 ) ) ;
#349 = EDGE_LOOP ( 'NONE', ( #227 ) ) ;
#350 = ADVANCED_FACE ( 'NONE', ( #10, #106 ), #351, .T. ) ;
#351 = CYLINDRICAL_SURFACE ( 'NONE', #60, 2.264999999999998792 ) ;
#352 = ORIENTED_EDGE ( 'NONE', *, *, #355, .F. ) ;
#353 = ORIENTED_EDGE ( 'NONE', *, *, #118, .T. ) ;
#354 = DIRECTION ( 'NONE',  ( 1.000000000000000000, 0.000000000000000000, -3.469446951953616555E-15 ) ) ;
#355 = EDGE_CURVE ( 'NONE', #177, #177, #200, .T. ) ;
#356 = CARTESIAN_POINT ( 'NONE',  ( 3.255000000000002114, 0.000000000000000000, 0.5729166666666615226 ) ) ;
#357 = DIRECTION ( 'NONE',  ( 3.491481338843133355E-15, -0.000000000000000000, 1.000000000000000000 ) ) ;
#358 = VERTEX_POINT ( 'NONE', #212 ) ;
#359 = PRODUCT_RELATED_PRODUCT_CATEGORY ( 'detail', '', ( #229 ) ) ;
#360 = DIRECTION ( 'NONE',  ( 1.000000000000000000, 0.000000000000000000, -3.509420569020073468E-15 ) ) ;
#361 = FACE_OUTER_BOUND ( 'NONE', #160, .T. ) ;
#362 = AXIS2_PLACEMENT_3D ( 'NONE', #103, #140, #67 ) ;
#363 = CARTESIAN_POINT ( 'NONE',  ( 8.938192227438421390E-14, 0.000000000000000000, 25.59999999999999787 ) ) ;
#364 = AXIS2_PLACEMENT_3D ( 'NONE', #369, #262, #251 ) ;
#365 = EDGE_CURVE ( 'NONE', #296, #296, #56, .T. ) ;
#366 = ORIENTED_EDGE ( 'NONE', *, *, #149, .F. ) ;
#367 = DIRECTION ( 'NONE',  ( 1.000000000000000000, 0.000000000000000000, -3.509420569020072679E-15 ) ) ;
#368 = EDGE_LOOP ( 'NONE', ( #166 ) ) ;
#369 = CARTESIAN_POINT ( 'NONE',  ( 4.909895632748147998E-15, 0.000000000000000000, 1.406249999999997780 ) ) ;
#370 = ORIENTED_EDGE ( 'NONE', *, *, #66, .T. ) ;
#371 = EDGE_CURVE ( 'NONE', #62, #62, #279, .T. ) ;
#372 = DIRECTION ( 'NONE',  ( 3.491481338843133355E-15, -0.000000000000000000, 1.000000000000000000 ) ) ;
#373 = DIRECTION ( 'NONE',  ( 1.000000000000000000, 0.000000000000000000, -3.491481338843133355E-15 ) ) ;
#374 = EDGE_LOOP ( 'NONE', ( #201 ) ) ;
#375 = DIRECTION ( 'NONE',  ( 3.491481338843133355E-15, -0.000000000000000000, 1.000000000000000000 ) ) ;
#376 = EDGE_LOOP ( 'NONE', ( #306 ) ) ;
#377 = AXIS2_PLACEMENT_3D ( 'NONE', #194, #231, #316 ) ;
#378 = LOCAL_TIME ( 10, 27, 0.000000000000000000, #312 ) ;
#379 = PRODUCT_DEFINITION ( 'UNKNOWN', '', #46, #248 ) ;
#380 = DIRECTION ( 'NONE',  ( 3.491481338843133355E-15, -0.000000000000000000, 1.000000000000000000 ) ) ;
#381 = FACE_BOUND ( 'NONE', #254, .T. ) ;
#382 = CARTESIAN_POINT ( 'NONE',  ( 6.364679523932772170E-15, 0.000000000000000000, 1.822916666666660301 ) ) ;
#383 = FACE_OUTER_BOUND ( 'NONE', #376, .T. ) ;
#384 = DIRECTION ( 'NONE',  ( 1.000000000000000000, 0.000000000000000000, -6.127058634796672738E-15 ) ) ;
#385 = AXIS2_PLACEMENT_3D ( 'NONE', #137, #258, #373 ) ;
#386 = FACE_OUTER_BOUND ( 'NONE', #128, .T. ) ;
#387 = APPROVAL ( #294, 'UNSPECIFIED' ) ;
#388 = CARTESIAN_POINT ( 'NONE',  ( 2.533312163512968507, 0.000000000000000000, 1.406249999999988898 ) ) ;
#389 = CYLINDRICAL_SURFACE ( 'NONE', #144, 2.533312163512963622 ) ;
#390 = AXIS2_PLACEMENT_3D ( 'NONE', #303, #27, #63 ) ;
#391 = AXIS2_PLACEMENT_3D ( 'NONE', #234, #268, #20 ) ;
#392 = EDGE_CURVE ( 'NONE', #52, #52, #180, .T. ) ;
#393 = UNCERTAINTY_MEASURE_WITH_UNIT (LENGTH_MEASURE( 1.000000000000000082E-05 ), #206, 'distance_accuracy_value', 'NONE');
#394 = CIRCLE ( 'NONE', #377, 3.999999999999994671 ) ;
#395 = PERSON_AND_ORGANIZATION ( #131, #33 ) ;
ENDSEC;
END-ISO-10303-21;
