ISO-10303-21;
HEADER;
FILE_DESCRIPTION (( 'STEP AP203' ),
    '1' );
FILE_NAME ('961174.step',
    '2023-09-27T08:26:59',
    ( '' ),
    ( '' ),
    'SwSTEP 2.0',
    'SolidWorks 2022',
    '' );
FILE_SCHEMA (( 'CONFIG_CONTROL_DESIGN' ));
ENDSEC;

DATA;
#1 = MECHANICAL_CONTEXT ( 'NONE', #60, 'mechanical' ) ;
#2 = CC_DESIGN_PERSON_AND_ORGANIZATION_ASSIGNMENT ( #213, #118, ( #224 ) ) ;
#3 = LOCAL_TIME ( 10, 26, 59.00000000000000000, #183 ) ;
#4 = PRODUCT ( '961174', '961174', '', ( #1 ) ) ;
#5 = EDGE_CURVE ( 'NONE', #193, #193, #71, .T. ) ;
#6 = CARTESIAN_POINT ( 'NONE',  ( 3.927916506198528969E-15, 0.000000000000000000, 1.125000000000000888 ) ) ;
#7 = ORIENTED_EDGE ( 'NONE', *, *, #327, .T. ) ;
#8 = ADVANCED_FACE ( 'NONE', ( #323, #382 ), #202, .T. ) ;
#9 = DIRECTION ( 'NONE',  ( -3.491481338843133355E-15, 0.000000000000000000, -1.000000000000000000 ) ) ;
#10 = EDGE_LOOP ( 'NONE', ( #187 ) ) ;
#11 =( LENGTH_UNIT ( ) NAMED_UNIT ( * ) SI_UNIT ( .MILLI., .METRE. ) );
#12 = CONICAL_SURFACE ( 'NONE', #32, 2.404999999999999805, 1.047197551196602960 ) ;
#13 = CC_DESIGN_APPROVAL ( #145, ( #176 ) ) ;
#14 = DIRECTION ( 'NONE',  ( 3.491481338843133355E-15, -0.000000000000000000, 1.000000000000000000 ) ) ;
#15 = FACE_OUTER_BOUND ( 'NONE', #192, .T. ) ;
#16 = ORIENTED_EDGE ( 'NONE', *, *, #171, .T. ) ;
#17 = FACE_OUTER_BOUND ( 'NONE', #69, .T. ) ;
#18 = VERTEX_POINT ( 'NONE', #232 ) ;
#19 = EDGE_LOOP ( 'NONE', ( #291 ) ) ;
#20 = CARTESIAN_POINT ( 'NONE',  ( 1.969195475107527212E-13, 0.000000000000000000, 56.39999999999999858 ) ) ;
#21 = CARTESIAN_POINT ( 'NONE',  ( 1.827649730810377626, 0.000000000000000000, 1.999999999999995337 ) ) ;
#22 = DIRECTION ( 'NONE',  ( 3.491481338843133355E-15, -0.000000000000000000, 1.000000000000000000 ) ) ;
#23 = ORIENTED_EDGE ( 'NONE', *, *, #153, .F. ) ;
#24 = AXIS2_PLACEMENT_3D ( 'NONE', #27, #329, #270 ) ;
#25 = EDGE_CURVE ( 'NONE', #311, #311, #107, .T. ) ;
#26 = CARTESIAN_POINT ( 'NONE',  ( 6.703644170578814780E-14, 0.000000000000000000, 19.19999999999999929 ) ) ;
#27 = CARTESIAN_POINT ( 'NONE',  ( 0.000000000000000000, 0.000000000000000000, 0.000000000000000000 ) ) ;
#28 = CALENDAR_DATE ( 2023, 27, 9 ) ;
#29 = APPROVAL_ROLE ( '' ) ;
#30 = AXIS2_PLACEMENT_3D ( 'NONE', #70, #115, #168 ) ;
#31 = AXIS2_PLACEMENT_3D ( 'NONE', #161, #14, #369 ) ;
#32 = AXIS2_PLACEMENT_3D ( 'NONE', #64, #277, #222 ) ;
#33 = EDGE_CURVE ( 'NONE', #105, #105, #93, .T. ) ;
#34 = PERSON ( 'UNSPECIFIED', 'UNSPECIFIED', 'UNSPECIFIED', ('UNSPECIFIED'), ('UNSPECIFIED'), ('UNSPECIFIED') ) ;
#35 = CIRCLE ( 'NONE', #123, 1.827649730810370743 ) ;
#36 = PLANE ( 'NONE',  #215 ) ;
#37 = DIRECTION ( 'NONE',  ( 3.491481338843133355E-15, -0.000000000000000000, 1.000000000000000000 ) ) ;
#38 = VERTEX_POINT ( 'NONE', #372 ) ;
#39 = VERTEX_POINT ( 'NONE', #288 ) ;
#40 = APPROVAL_PERSON_ORGANIZATION ( #387, #145, #29 ) ;
#41 = EDGE_LOOP ( 'NONE', ( #255 ) ) ;
#42 = VERTEX_POINT ( 'NONE', #341 ) ;
#43 = DIRECTION ( 'NONE',  ( 3.491481338843133355E-15, -0.000000000000000000, 1.000000000000000000 ) ) ;
#44 = FACE_OUTER_BOUND ( 'NONE', #223, .T. ) ;
#45 = CYLINDRICAL_SURFACE ( 'NONE', #83, 2.404999999999999805 ) ;
#46 = ORIENTED_EDGE ( 'NONE', *, *, #100, .F. ) ;
#47 = FACE_OUTER_BOUND ( 'NONE', #75, .T. ) ;
#48 = CARTESIAN_POINT ( 'NONE',  ( 1.615000000000006875, 0.000000000000000000, 1.999999999999996225 ) ) ;
#49 = CC_DESIGN_SECURITY_CLASSIFICATION ( #224, ( #176 ) ) ;
#50 = CIRCLE ( 'NONE', #268, 2.404999999999999805 ) ;
#51 = CC_DESIGN_APPROVAL ( #367, ( #224 ) ) ;
#52 = DIRECTION ( 'NONE',  ( 1.000000000000000000, 0.000000000000000000, -4.207751242803449509E-15 ) ) ;
#53 = COORDINATED_UNIVERSAL_TIME_OFFSET ( 1, 0, .AHEAD. ) ;
#54 = DIRECTION ( 'NONE',  ( 3.491481338843133355E-15, -0.000000000000000000, 1.000000000000000000 ) ) ;
#55 = DIRECTION ( 'NONE',  ( 1.000000000000000000, 0.000000000000000000, -3.469446951953614189E-15 ) ) ;
#56 = COORDINATED_UNIVERSAL_TIME_OFFSET ( 1, 0, .AHEAD. ) ;
#57 = DIRECTION ( 'NONE',  ( 1.000000000000000000, 0.000000000000000000, -2.885194970439596430E-15 ) ) ;
#58 = EDGE_CURVE ( 'NONE', #201, #201, #295, .T. ) ;
#59 = APPROVAL_DATE_TIME ( #151, #367 ) ;
#60 = APPLICATION_CONTEXT ( 'configuration controlled 3d designs of mechanical parts and assemblies' ) ;
#61 = PRODUCT_RELATED_PRODUCT_CATEGORY ( 'detail', '', ( #4 ) ) ;
#62 = APPROVAL_PERSON_ORGANIZATION ( #181, #367, #301 ) ;
#63 = CIRCLE ( 'NONE', #116, 3.000000000000000000 ) ;
#64 = CARTESIAN_POINT ( 'NONE',  ( 1.891219058540040297E-15, 0.000000000000000000, 0.5416666666666694052 ) ) ;
#65 = ORIENTED_EDGE ( 'NONE', *, *, #5, .T. ) ;
#66 = EDGE_LOOP ( 'NONE', ( #65 ) ) ;
#67 = CARTESIAN_POINT ( 'NONE',  ( 1.611143379864261371, 0.000000000000000000, -5.625277044996722588E-15 ) ) ;
#68 = CARTESIAN_POINT ( 'NONE',  ( 3.927916506198528969E-15, 0.000000000000000000, 1.125000000000000888 ) ) ;
#69 = EDGE_LOOP ( 'NONE', ( #7 ) ) ;
#70 = CARTESIAN_POINT ( 'NONE',  ( 0.000000000000000000, 0.000000000000000000, 0.000000000000000000 ) ) ;
#71 = CIRCLE ( 'NONE', #278, 2.999999999999995559 ) ;
#72 = EDGE_LOOP ( 'NONE', ( #279 ) ) ;
#73 = DIRECTION ( 'NONE',  ( 1.000000000000000000, 0.000000000000000000, -4.207751242803449509E-15 ) ) ;
#74 = CARTESIAN_POINT ( 'NONE',  ( 0.000000000000000000, 0.000000000000000000, 0.000000000000000000 ) ) ;
#75 = EDGE_LOOP ( 'NONE', ( #92 ) ) ;
#76 = DIRECTION ( 'NONE',  ( 3.491481338843133355E-15, -0.000000000000000000, 1.000000000000000000 ) ) ;
#77 = FACE_OUTER_BOUND ( 'NONE', #348, .T. ) ;
#78 = FACE_OUTER_BOUND ( 'NONE', #374, .T. ) ;
#79 = ORIENTED_EDGE ( 'NONE', *, *, #205, .T. ) ;
#80 = DIRECTION ( 'NONE',  ( 3.491481338843133355E-15, -0.000000000000000000, 1.000000000000000000 ) ) ;
#81 = CIRCLE ( 'NONE', #185, 1.827649730810370743 ) ;
#82 = FACE_OUTER_BOUND ( 'NONE', #307, .T. ) ;
#83 = AXIS2_PLACEMENT_3D ( 'NONE', #173, #199, #131 ) ;
#84 = DIRECTION ( 'NONE',  ( 1.000000000000000000, 0.000000000000000000, -3.516331370223257730E-15 ) ) ;
#85 = DIRECTION ( 'NONE',  ( 3.491481338843133355E-15, -0.000000000000000000, 1.000000000000000000 ) ) ;
#86 = DATE_AND_TIME ( #395, #218 ) ;
#87 = DIRECTION ( 'NONE',  ( 1.000000000000000000, 0.000000000000000000, -3.500010264454869309E-15 ) ) ;
#88 = EDGE_CURVE ( 'NONE', #38, #38, #332, .T. ) ;
#89 = APPROVAL_DATE_TIME ( #86, #184 ) ;
#90 = CALENDAR_DATE ( 2023, 27, 9 ) ;
#91 = EDGE_CURVE ( 'NONE', #256, #256, #50, .T. ) ;
#92 = ORIENTED_EDGE ( 'NONE', *, *, #5, .F. ) ;
#93 = CIRCLE ( 'NONE', #217, 2.399999999999996803 ) ;
#94 = DIRECTION ( 'NONE',  ( 3.491481338843133355E-15, -0.000000000000000000, 1.000000000000000000 ) ) ;
#95 = CC_DESIGN_DATE_AND_TIME_ASSIGNMENT ( #272, #209, ( #212 ) ) ;
#96 = DIRECTION ( 'NONE',  ( 1.000000000000000000, 0.000000000000000000, -4.296528733069497872E-15 ) ) ;
#97 = AXIS2_PLACEMENT_3D ( 'NONE', #26, #109, #264 ) ;
#98 = CONICAL_SURFACE ( 'NONE', #335, 1.827649730810370965, 1.047197551196602738 ) ;
#99 = CARTESIAN_POINT ( 'NONE',  ( 6.982962677686273021E-15, 0.000000000000000000, 2.000000000000001776 ) ) ;
#100 = EDGE_CURVE ( 'NONE', #159, #159, #331, .T. ) ;
#101 = FACE_OUTER_BOUND ( 'NONE', #128, .T. ) ;
#102 = DIRECTION ( 'NONE',  ( 3.491481338843133355E-15, -0.000000000000000000, 1.000000000000000000 ) ) ;
#103 = ORIENTED_EDGE ( 'NONE', *, *, #25, .T. ) ;
#104 = CARTESIAN_POINT ( 'NONE',  ( 6.794010357190079256E-14, 0.000000000000000000, 19.45881904510251559 ) ) ;
#105 = VERTEX_POINT ( 'NONE', #172 ) ;
#106 = DIRECTION ( 'NONE',  ( 1.000000000000000000, 0.000000000000000000, -3.559332472326985591E-15 ) ) ;
#107 = CIRCLE ( 'NONE', #365, 1.614999999999999991 ) ;
#108 = ORIENTED_EDGE ( 'NONE', *, *, #100, .T. ) ;
#109 = DIRECTION ( 'NONE',  ( 3.491481338843133355E-15, -0.000000000000000000, 1.000000000000000000 ) ) ;
#110 = ORIENTED_EDGE ( 'NONE', *, *, #377, .F. ) ;
#111 = FACE_OUTER_BOUND ( 'NONE', #314, .T. ) ;
#112 = DIRECTION ( 'NONE',  ( -3.491481338843133355E-15, 0.000000000000000000, -1.000000000000000000 ) ) ;
#113 = APPROVAL_STATUS ( 'not_yet_approved' ) ;
#114 = AXIS2_PLACEMENT_3D ( 'NONE', #351, #112, #236 ) ;
#115 = DIRECTION ( 'NONE',  ( 3.491481338843133355E-15, -0.000000000000000000, 1.000000000000000000 ) ) ;
#116 = AXIS2_PLACEMENT_3D ( 'NONE', #263, #380, #55 ) ;
#117 = CYLINDRICAL_SURFACE ( 'NONE', #152, 1.827649730810370743 ) ;
#118 = PERSON_AND_ORGANIZATION_ROLE ( 'classification_officer' ) ;
#119 = APPROVAL_STATUS ( 'not_yet_approved' ) ;
#120 = PERSON_AND_ORGANIZATION_ROLE ( 'design_owner' ) ;
#121 = AXIS2_PLACEMENT_3D ( 'NONE', #190, #37, #366 ) ;
#122 = PERSON_AND_ORGANIZATION ( #34, #357 ) ;
#123 = AXIS2_PLACEMENT_3D ( 'NONE', #139, #237, #87 ) ;
#124 = PRODUCT_DEFINITION_SHAPE ( 'NONE', 'NONE',  #212 ) ;
#125 = ADVANCED_FACE ( 'NONE', ( #170, #44 ), #138, .F. ) ;
#126 = ORIENTED_EDGE ( 'NONE', *, *, #58, .T. ) ;
#127 = ADVANCED_FACE ( 'NONE', ( #300, #142 ), #206, .T. ) ;
#128 = EDGE_LOOP ( 'NONE', ( #46 ) ) ;
#129 = CARTESIAN_POINT ( 'NONE',  ( 6.982962677686273021E-15, 0.000000000000000000, 2.000000000000001776 ) ) ;
#130 = CIRCLE ( 'NONE', #393, 1.649074173710927793 ) ;
#131 = DIRECTION ( 'NONE',  ( 1.000000000000000000, 0.000000000000000000, -2.885194970439596430E-15 ) ) ;
#132 = CARTESIAN_POINT ( 'NONE',  ( 1.990144363140586139E-13, 0.000000000000000000, 57.00000000000000000 ) ) ;
#133 = DIRECTION ( 'NONE',  ( 3.491481338843133355E-15, -0.000000000000000000, 1.000000000000000000 ) ) ;
#134 = EDGE_LOOP ( 'NONE', ( #110 ) ) ;
#135 = VERTEX_POINT ( 'NONE', #21 ) ;
#136 = DIRECTION ( 'NONE',  ( 3.491481338843133355E-15, -0.000000000000000000, 1.000000000000000000 ) ) ;
#137 = VERTEX_POINT ( 'NONE', #350 ) ;
#138 = TOROIDAL_SURFACE ( 'NONE', #97, 2.614999999999997993, 1.000000000000000444 ) ;
#139 = CARTESIAN_POINT ( 'NONE',  ( 3.055046171487744447E-15, 0.000000000000000000, 0.8750000000000007772 ) ) ;
#140 = AXIS2_PLACEMENT_3D ( 'NONE', #322, #22, #254 ) ;
#141 = CARTESIAN_POINT ( 'NONE',  ( 1.969195475107527212E-13, 0.000000000000000000, 56.39999999999999858 ) ) ;
#142 = FACE_BOUND ( 'NONE', #286, .T. ) ;
#143 = CARTESIAN_POINT ( 'NONE',  ( 3.000000000000192735, 0.000000000000000000, 56.39999999999998437 ) ) ;
#144 = APPROVAL_DATE_TIME ( #361, #145 ) ;
#145 = APPROVAL ( #113, 'UNSPECIFIED' ) ;
#146 = CARTESIAN_POINT ( 'NONE',  ( 6.546527510330881352E-15, 0.000000000000000000, 1.875000000000001776 ) ) ;
#147 = APPROVAL_ROLE ( '' ) ;
#148 = CLOSED_SHELL ( 'NONE', ( #271, #347, #356, #249, #157, #302, #280, #339, #8, #195, #283, #125, #127, #234, #227, #243 ) ) ;
#149 = APPLICATION_PROTOCOL_DEFINITION ( 'international standard', 'config_control_design', 1994, #276 ) ;
#150 = PERSON_AND_ORGANIZATION_ROLE ( 'creator' ) ;
#151 = DATE_AND_TIME ( #334, #269 ) ;
#152 = AXIS2_PLACEMENT_3D ( 'NONE', #178, #85, #328 ) ;
#153 = EDGE_CURVE ( 'NONE', #261, #261, #368, .T. ) ;
#154 = DIRECTION ( 'NONE',  ( -1.000000000000000000, 0.000000000000000000, 3.491481338843133355E-15 ) ) ;
#155 = EDGE_LOOP ( 'NONE', ( #103 ) ) ;
#156 = AXIS2_PLACEMENT_3D ( 'NONE', #221, #94, #96 ) ;
#157 = ADVANCED_FACE ( 'NONE', ( #231, #240 ), #117, .T. ) ;
#158 = EDGE_LOOP ( 'NONE', ( #317 ) ) ;
#159 = VERTEX_POINT ( 'NONE', #315 ) ;
#160 = CARTESIAN_POINT ( 'NONE',  ( 1.139501287336752466E-32, 0.000000000000000000, 3.263661399703526680E-18 ) ) ;
#161 = CARTESIAN_POINT ( 'NONE',  ( 1.990144363140586139E-13, 0.000000000000000000, 57.00000000000000000 ) ) ;
#162 = AXIS2_PLACEMENT_3D ( 'NONE', #197, #9, #154 ) ;
#163 = AXIS2_PLACEMENT_3D ( 'NONE', #74, #344, #293 ) ;
#164 = ORIENTED_EDGE ( 'NONE', *, *, #321, .F. ) ;
#165 = DIRECTION ( 'NONE',  ( 3.491481338843133355E-15, -0.000000000000000000, 1.000000000000000000 ) ) ;
#166 = CARTESIAN_POINT ( 'NONE',  ( 2.405000000000005134, 0.000000000000000000, 1.541666666666654972 ) ) ;
#167 = DIRECTION ( 'NONE',  ( 1.000000000000000000, 0.000000000000000000, -3.493790784516698624E-15 ) ) ;
#168 = DIRECTION ( 'NONE',  ( 1.000000000000000000, 0.000000000000000000, -3.491481338843133355E-15 ) ) ;
#169 = ORIENTED_EDGE ( 'NONE', *, *, #25, .F. ) ;
#170 = FACE_OUTER_BOUND ( 'NONE', #228, .T. ) ;
#171 = EDGE_CURVE ( 'NONE', #381, #381, #63, .T. ) ;
#172 = CARTESIAN_POINT ( 'NONE',  ( 2.400000000000195755, 0.000000000000000000, 56.99999999999999289 ) ) ;
#173 = CARTESIAN_POINT ( 'NONE',  ( 1.990144363140586139E-13, 0.000000000000000000, 57.00000000000000000 ) ) ;
#174 = ORIENTED_EDGE ( 'NONE', *, *, #312, .F. ) ;
#175 = DIRECTION ( 'NONE',  ( -1.000000000000000000, 0.000000000000000000, 4.625929269271492422E-15 ) ) ;
#176 = PRODUCT_DEFINITION_FORMATION_WITH_SPECIFIED_SOURCE ( 'ANY', '', #4, .NOT_KNOWN. ) ;
#177 = ORIENTED_EDGE ( 'NONE', *, *, #312, .T. ) ;
#178 = CARTESIAN_POINT ( 'NONE',  ( 1.990144363140586139E-13, 0.000000000000000000, 57.00000000000000000 ) ) ;
#179 = CYLINDRICAL_SURFACE ( 'NONE', #140, 1.614999999999998881 ) ;
#180 = DIRECTION ( 'NONE',  ( 1.000000000000000000, 0.000000000000000000, -3.471250198810139122E-15 ) ) ;
#181 = PERSON_AND_ORGANIZATION ( #34, #357 ) ;
#182 = PERSON_AND_ORGANIZATION_ROLE ( 'creator' ) ;
#183 = COORDINATED_UNIVERSAL_TIME_OFFSET ( 1, 0, .AHEAD. ) ;
#184 = APPROVAL ( #119, 'UNSPECIFIED' ) ;
#185 = AXIS2_PLACEMENT_3D ( 'NONE', #129, #165, #106 ) ;
#186 = CC_DESIGN_APPROVAL ( #184, ( #212 ) ) ;
#187 = ORIENTED_EDGE ( 'NONE', *, *, #33, .F. ) ;
#188 = DIRECTION ( 'NONE',  ( 3.491481338843133355E-15, -0.000000000000000000, 1.000000000000000000 ) ) ;
#189 = AXIS2_PLACEMENT_3D ( 'NONE', #238, #265, #57 ) ;
#190 = CARTESIAN_POINT ( 'NONE',  ( 5.382700397383152353E-15, 0.000000000000000000, 1.541666666666663410 ) ) ;
#191 = DIRECTION ( 'NONE',  ( 1.000000000000000000, 0.000000000000000000, -3.490929595618961745E-15 ) ) ;
#192 = EDGE_LOOP ( 'NONE', ( #337 ) ) ;
#193 = VERTEX_POINT ( 'NONE', #143 ) ;
#194 = FACE_OUTER_BOUND ( 'NONE', #155, .T. ) ;
#195 = ADVANCED_FACE ( 'NONE', ( #287, #17 ), #257, .F. ) ;
#196 = EDGE_LOOP ( 'NONE', ( #126 ) ) ;
#197 = CARTESIAN_POINT ( 'NONE',  ( 1.990144363140586139E-13, 2.399999999999996803, 57.00000000000000000 ) ) ;
#198 = FACE_BOUND ( 'NONE', #10, .T. ) ;
#199 = DIRECTION ( 'NONE',  ( 3.491481338843133355E-15, -0.000000000000000000, 1.000000000000000000 ) ) ;
#200 = ORIENTED_EDGE ( 'NONE', *, *, #321, .T. ) ;
#201 = VERTEX_POINT ( 'NONE', #166 ) ;
#202 = CYLINDRICAL_SURFACE ( 'NONE', #31, 1.827649730810370743 ) ;
#203 = DATE_AND_TIME ( #28, #239 ) ;
#204 = LOCAL_TIME ( 10, 26, 59.00000000000000000, #273 ) ;
#205 = EDGE_CURVE ( 'NONE', #42, #42, #130, .T. ) ;
#206 = CONICAL_SURFACE ( 'NONE', #379, 1.649074173710927793, 0.2617993877991429130 ) ;
#207 = AXIS2_PLACEMENT_3D ( 'NONE', #375, #349, #383 ) ;
#208 = PLANE ( 'NONE',  #162 ) ;
#209 = DATE_TIME_ROLE ( 'creation_date' ) ;
#210 = APPLICATION_PROTOCOL_DEFINITION ( 'international standard', 'config_control_design', 1994, #60 ) ;
#211 = AXIS2_PLACEMENT_3D ( 'NONE', #316, #43, #167 ) ;
#212 = PRODUCT_DEFINITION ( 'UNKNOWN', '', #176, #392 ) ;
#213 = PERSON_AND_ORGANIZATION ( #34, #357 ) ;
#214 = CC_DESIGN_PERSON_AND_ORGANIZATION_ASSIGNMENT ( #303, #299, ( #176 ) ) ;
#215 = AXIS2_PLACEMENT_3D ( 'NONE', #160, #54, #342 ) ;
#216 = FACE_OUTER_BOUND ( 'NONE', #19, .T. ) ;
#217 = AXIS2_PLACEMENT_3D ( 'NONE', #132, #102, #343 ) ;
#218 = LOCAL_TIME ( 10, 26, 59.00000000000000000, #56 ) ;
#219 = FACE_OUTER_BOUND ( 'NONE', #41, .T. ) ;
#220 = EDGE_LOOP ( 'NONE', ( #200 ) ) ;
#221 = CARTESIAN_POINT ( 'NONE',  ( 6.703644170578816042E-14, 0.000000000000000000, 19.20000000000000284 ) ) ;
#222 = DIRECTION ( 'NONE',  ( -1.000000000000000000, 0.000000000000000000, 3.471250198810139122E-15 ) ) ;
#223 = EDGE_LOOP ( 'NONE', ( #340 ) ) ;
#224 = SECURITY_CLASSIFICATION ( '', '', #330 ) ;
#225 = DIRECTION ( 'NONE',  ( 3.491481338843133355E-15, -0.000000000000000000, 1.000000000000000000 ) ) ;
#226 = ORIENTED_EDGE ( 'NONE', *, *, #171, .F. ) ;
#227 = ADVANCED_FACE ( 'NONE', ( #198, #318 ), #355, .T. ) ;
#228 = EDGE_LOOP ( 'NONE', ( #281 ) ) ;
#229 = DIRECTION ( 'NONE',  ( 3.491481338843133355E-15, -0.000000000000000000, 1.000000000000000000 ) ) ;
#230 = EDGE_LOOP ( 'NONE', ( #164 ) ) ;
#231 = FACE_OUTER_BOUND ( 'NONE', #134, .T. ) ;
#232 = CARTESIAN_POINT ( 'NONE',  ( 1.827649730810373851, 0.000000000000000000, 0.8749999999999943379 ) ) ;
#233 = ORIENTED_EDGE ( 'NONE', *, *, #91, .F. ) ;
#234 = ADVANCED_FACE ( 'NONE', ( #47, #111 ), #235, .T. ) ;
#235 = CYLINDRICAL_SURFACE ( 'NONE', #336, 2.999999999999997780 ) ;
#236 = DIRECTION ( 'NONE',  ( -1.000000000000000000, 0.000000000000000000, 3.516331370223257730E-15 ) ) ;
#237 = DIRECTION ( 'NONE',  ( 3.491481338843133355E-15, -0.000000000000000000, 1.000000000000000000 ) ) ;
#238 = CARTESIAN_POINT ( 'NONE',  ( 1.990144363140586139E-13, 0.000000000000000000, 57.00000000000000000 ) ) ;
#239 = LOCAL_TIME ( 10, 26, 59.00000000000000000, #241 ) ;
#240 = FACE_OUTER_BOUND ( 'NONE', #220, .T. ) ;
#241 = COORDINATED_UNIVERSAL_TIME_OFFSET ( 1, 0, .AHEAD. ) ;
#242 = CALENDAR_DATE ( 2023, 27, 9 ) ;
#243 = ADVANCED_FACE ( 'NONE', ( #360 ), #208, .F. ) ;
#244 = SHAPE_DEFINITION_REPRESENTATION ( #124, #246 ) ;
#245 = ORIENTED_EDGE ( 'NONE', *, *, #153, .T. ) ;
#246 = ADVANCED_BREP_SHAPE_REPRESENTATION ( '961174', ( #309, #24 ), #362 ) ;
#247 = FACE_BOUND ( 'NONE', #230, .T. ) ;
#248 = DIRECTION ( 'NONE',  ( 1.000000000000000000, 0.000000000000000000, -3.440688056582752238E-15 ) ) ;
#249 = ADVANCED_FACE ( 'NONE', ( #247, #216 ), #12, .T. ) ;
#250 = ORIENTED_EDGE ( 'NONE', *, *, #33, .T. ) ;
#251 = CARTESIAN_POINT ( 'NONE',  ( 1.891219058540040297E-15, 0.000000000000000000, 0.5416666666666694052 ) ) ;
#252 = AXIS2_PLACEMENT_3D ( 'NONE', #146, #229, #386 ) ;
#253 = CARTESIAN_POINT ( 'NONE',  ( 2.405000000000001581, 0.000000000000000000, 0.5416666666666610785 ) ) ;
#254 = DIRECTION ( 'NONE',  ( 1.000000000000000000, 0.000000000000000000, -4.296528733069493927E-15 ) ) ;
#255 = ORIENTED_EDGE ( 'NONE', *, *, #305, .F. ) ;
#256 = VERTEX_POINT ( 'NONE', #253 ) ;
#257 = PLANE ( 'NONE',  #207 ) ;
#258 =( NAMED_UNIT ( * ) PLANE_ANGLE_UNIT ( ) SI_UNIT ( $, .RADIAN. ) );
#259 = EDGE_LOOP ( 'NONE', ( #177 ) ) ;
#260 = CARTESIAN_POINT ( 'NONE',  ( 6.794010357190079256E-14, 0.000000000000000000, 19.45881904510251559 ) ) ;
#261 = VERTEX_POINT ( 'NONE', #346 ) ;
#262 = EDGE_LOOP ( 'NONE', ( #371 ) ) ;
#263 = CARTESIAN_POINT ( 'NONE',  ( 8.554318820841117052E-14, 0.000000000000000000, 24.50054286607043252 ) ) ;
#264 = DIRECTION ( 'NONE',  ( 1.000000000000000000, 0.000000000000000000, -3.491481338843133355E-15 ) ) ;
#265 = DIRECTION ( 'NONE',  ( 3.491481338843133355E-15, -0.000000000000000000, 1.000000000000000000 ) ) ;
#266 = DIRECTION ( 'NONE',  ( 3.491481338843133355E-15, -0.000000000000000000, 1.000000000000000000 ) ) ;
#267 = PERSON_AND_ORGANIZATION ( #34, #357 ) ;
#268 = AXIS2_PLACEMENT_3D ( 'NONE', #251, #390, #180 ) ;
#269 = LOCAL_TIME ( 10, 26, 59.00000000000000000, #53 ) ;
#270 = DIRECTION ( 'NONE',  ( 1.000000000000000000, 0.000000000000000000, 0.000000000000000000 ) ) ;
#271 = ADVANCED_FACE ( 'NONE', ( #219 ), #36, .F. ) ;
#272 = DATE_AND_TIME ( #242, #204 ) ;
#273 = COORDINATED_UNIVERSAL_TIME_OFFSET ( 1, 0, .AHEAD. ) ;
#274 = AXIS2_PLACEMENT_3D ( 'NONE', #324, #136, #84 ) ;
#275 = CC_DESIGN_PERSON_AND_ORGANIZATION_ASSIGNMENT ( #267, #182, ( #176 ) ) ;
#276 = APPLICATION_CONTEXT ( 'configuration controlled 3d designs of mechanical parts and assemblies' ) ;
#277 = DIRECTION ( 'NONE',  ( -3.491481338843133355E-15, 0.000000000000000000, -1.000000000000000000 ) ) ;
#278 = AXIS2_PLACEMENT_3D ( 'NONE', #141, #378, #352 ) ;
#279 = ORIENTED_EDGE ( 'NONE', *, *, #377, .T. ) ;
#280 = ADVANCED_FACE ( 'NONE', ( #289, #77 ), #45, .T. ) ;
#281 = ORIENTED_EDGE ( 'NONE', *, *, #205, .F. ) ;
#282 = AXIS2_PLACEMENT_3D ( 'NONE', #20, #320, #175 ) ;
#283 = ADVANCED_FACE ( 'NONE', ( #15, #194 ), #179, .T. ) ;
#284 = EDGE_LOOP ( 'NONE', ( #250 ) ) ;
#285 = CONICAL_SURFACE ( 'NONE', #30, 1.611143379864261371, 1.047197551196601406 ) ;
#286 = EDGE_LOOP ( 'NONE', ( #79 ) ) ;
#287 = FACE_BOUND ( 'NONE', #313, .T. ) ;
#288 = CARTESIAN_POINT ( 'NONE',  ( 2.405000000000001581, 0.000000000000000000, 0.4583333333333230453 ) ) ;
#289 = FACE_OUTER_BOUND ( 'NONE', #298, .T. ) ;
#290 = CYLINDRICAL_SURFACE ( 'NONE', #189, 2.404999999999999805 ) ;
#291 = ORIENTED_EDGE ( 'NONE', *, *, #91, .T. ) ;
#292 = CC_DESIGN_DATE_AND_TIME_ASSIGNMENT ( #203, #304, ( #224 ) ) ;
#293 = DIRECTION ( 'NONE',  ( 1.000000000000000000, 0.000000000000000000, -3.491481338843133355E-15 ) ) ;
#294 = EDGE_LOOP ( 'NONE', ( #245 ) ) ;
#295 = CIRCLE ( 'NONE', #121, 2.404999999999999805 ) ;
#296 = CIRCLE ( 'NONE', #163, 1.611143379864261371 ) ;
#297 = FACE_OUTER_BOUND ( 'NONE', #196, .T. ) ;
#298 = EDGE_LOOP ( 'NONE', ( #319 ) ) ;
#299 = PERSON_AND_ORGANIZATION_ROLE ( 'design_supplier' ) ;
#300 = FACE_OUTER_BOUND ( 'NONE', #345, .T. ) ;
#301 = APPROVAL_ROLE ( '' ) ;
#302 = ADVANCED_FACE ( 'NONE', ( #101, #370 ), #98, .T. ) ;
#303 = PERSON_AND_ORGANIZATION ( #34, #357 ) ;
#304 = DATE_TIME_ROLE ( 'classification_date' ) ;
#305 = EDGE_CURVE ( 'NONE', #376, #376, #296, .T. ) ;
#306 = CIRCLE ( 'NONE', #389, 1.827649730810370965 ) ;
#307 = EDGE_LOOP ( 'NONE', ( #174 ) ) ;
#308 = CC_DESIGN_PERSON_AND_ORGANIZATION_ASSIGNMENT ( #391, #120, ( #4 ) ) ;
#309 = MANIFOLD_SOLID_BREP ( 'Corps-Déplacer/Copier1', #148 ) ;
#310 = CONICAL_SURFACE ( 'NONE', #114, 2.404999999999999805, 1.047197551196593857 ) ;
#311 = VERTEX_POINT ( 'NONE', #48 ) ;
#312 = EDGE_CURVE ( 'NONE', #39, #39, #326, .T. ) ;
#313 = EDGE_LOOP ( 'NONE', ( #169 ) ) ;
#314 = EDGE_LOOP ( 'NONE', ( #16 ) ) ;
#315 = CARTESIAN_POINT ( 'NONE',  ( 2.405000000000005134, 0.000000000000000000, 1.458333333333323933 ) ) ;
#316 = CARTESIAN_POINT ( 'NONE',  ( 1.600262280303096214E-15, 0.000000000000000000, 0.4583333333333314275 ) ) ;
#317 = ORIENTED_EDGE ( 'NONE', *, *, #327, .F. ) ;
#318 = FACE_OUTER_BOUND ( 'NONE', #66, .T. ) ;
#319 = ORIENTED_EDGE ( 'NONE', *, *, #58, .F. ) ;
#320 = DIRECTION ( 'NONE',  ( -3.491481338843133355E-15, 0.000000000000000000, -1.000000000000000000 ) ) ;
#321 = EDGE_CURVE ( 'NONE', #18, #18, #35, .T. ) ;
#322 = CARTESIAN_POINT ( 'NONE',  ( 1.990144363140586139E-13, 0.000000000000000000, 57.00000000000000000 ) ) ;
#323 = FACE_OUTER_BOUND ( 'NONE', #158, .T. ) ;
#324 = CARTESIAN_POINT ( 'NONE',  ( 5.091743619146232725E-15, 0.000000000000000000, 1.458333333333332371 ) ) ;
#325 = APPROVAL_STATUS ( 'not_yet_approved' ) ;
#326 = CIRCLE ( 'NONE', #211, 2.404999999999999805 ) ;
#327 = EDGE_CURVE ( 'NONE', #135, #135, #81, .T. ) ;
#328 = DIRECTION ( 'NONE',  ( 1.000000000000000000, 0.000000000000000000, -3.796621303815451507E-15 ) ) ;
#329 = DIRECTION ( 'NONE',  ( 0.000000000000000000, 0.000000000000000000, 1.000000000000000000 ) ) ;
#330 = SECURITY_CLASSIFICATION_LEVEL ( 'unclassified' ) ;
#331 = CIRCLE ( 'NONE', #274, 2.404999999999999805 ) ;
#332 = CIRCLE ( 'NONE', #156, 1.614999999999997549 ) ;
#333 = CC_DESIGN_PERSON_AND_ORGANIZATION_ASSIGNMENT ( #122, #150, ( #212 ) ) ;
#334 = CALENDAR_DATE ( 2023, 27, 9 ) ;
#335 = AXIS2_PLACEMENT_3D ( 'NONE', #68, #133, #373 ) ;
#336 = AXIS2_PLACEMENT_3D ( 'NONE', #353, #80, #394 ) ;
#337 = ORIENTED_EDGE ( 'NONE', *, *, #88, .F. ) ;
#338 = APPROVAL_PERSON_ORGANIZATION ( #359, #184, #147 ) ;
#339 = ADVANCED_FACE ( 'NONE', ( #385, #297 ), #310, .T. ) ;
#340 = ORIENTED_EDGE ( 'NONE', *, *, #88, .T. ) ;
#341 = CARTESIAN_POINT ( 'NONE',  ( 1.649074173710995517, 0.000000000000000000, 19.45881904510250848 ) ) ;
#342 = DIRECTION ( 'NONE',  ( 1.000000000000000000, 0.000000000000000000, -3.491481338843133355E-15 ) ) ;
#343 = DIRECTION ( 'NONE',  ( 1.000000000000000000, 0.000000000000000000, -2.891205793294682172E-15 ) ) ;
#344 = DIRECTION ( 'NONE',  ( 3.491481338843133355E-15, -0.000000000000000000, 1.000000000000000000 ) ) ;
#345 = EDGE_LOOP ( 'NONE', ( #226 ) ) ;
#346 = CARTESIAN_POINT ( 'NONE',  ( 1.827649730810377404, 0.000000000000000000, 1.874999999999995337 ) ) ;
#347 = ADVANCED_FACE ( 'NONE', ( #82, #388 ), #285, .T. ) ;
#348 = EDGE_LOOP ( 'NONE', ( #108 ) ) ;
#349 = DIRECTION ( 'NONE',  ( -3.491481338843133355E-15, 0.000000000000000000, -1.000000000000000000 ) ) ;
#350 = CARTESIAN_POINT ( 'NONE',  ( 1.827649730810374962, 0.000000000000000000, 1.124999999999994671 ) ) ;
#351 = CARTESIAN_POINT ( 'NONE',  ( 5.382700397383152353E-15, 0.000000000000000000, 1.541666666666663410 ) ) ;
#352 = DIRECTION ( 'NONE',  ( 1.000000000000000000, 0.000000000000000000, -4.625929269271492422E-15 ) ) ;
#353 = CARTESIAN_POINT ( 'NONE',  ( 1.990144363140586139E-13, 0.000000000000000000, 57.00000000000000000 ) ) ;
#354 = CARTESIAN_POINT ( 'NONE',  ( 3.000000000000085709, 0.000000000000000000, 24.50054286607042187 ) ) ;
#355 = CONICAL_SURFACE ( 'NONE', #282, 2.999999999999995559, 0.7853981633974447263 ) ;
#356 = ADVANCED_FACE ( 'NONE', ( #78, #358 ), #290, .T. ) ;
#357 = ORGANIZATION ( 'UNSPECIFIED', 'UNSPECIFIED', '' ) ;
#358 = FACE_OUTER_BOUND ( 'NONE', #259, .T. ) ;
#359 = PERSON_AND_ORGANIZATION ( #34, #357 ) ;
#360 = FACE_OUTER_BOUND ( 'NONE', #284, .T. ) ;
#361 = DATE_AND_TIME ( #90, #3 ) ;
#362 =( GEOMETRIC_REPRESENTATION_CONTEXT ( 3 ) GLOBAL_UNCERTAINTY_ASSIGNED_CONTEXT ( ( #364 ) ) GLOBAL_UNIT_ASSIGNED_CONTEXT ( ( #11, #258, #384 ) ) REPRESENTATION_CONTEXT ( 'NONE', 'WORKASPACE' ) );
#363 = EDGE_LOOP ( 'NONE', ( #23 ) ) ;
#364 = UNCERTAINTY_MEASURE_WITH_UNIT (LENGTH_MEASURE( 1.000000000000000082E-05 ), #11, 'distance_accuracy_value', 'NONE');
#365 = AXIS2_PLACEMENT_3D ( 'NONE', #99, #225, #191 ) ;
#366 = DIRECTION ( 'NONE',  ( 1.000000000000000000, 0.000000000000000000, -3.516331370223257730E-15 ) ) ;
#367 = APPROVAL ( #325, 'UNSPECIFIED' ) ;
#368 = CIRCLE ( 'NONE', #252, 1.827649730810370965 ) ;
#369 = DIRECTION ( 'NONE',  ( 1.000000000000000000, 0.000000000000000000, -3.796621303815451507E-15 ) ) ;
#370 = FACE_BOUND ( 'NONE', #72, .T. ) ;
#371 = ORIENTED_EDGE ( 'NONE', *, *, #305, .T. ) ;
#372 = CARTESIAN_POINT ( 'NONE',  ( 1.615000000000064606, 0.000000000000000000, 19.19999999999999574 ) ) ;
#373 = DIRECTION ( 'NONE',  ( 1.000000000000000000, 0.000000000000000000, -3.440688056582752238E-15 ) ) ;
#374 = EDGE_LOOP ( 'NONE', ( #233 ) ) ;
#375 = CARTESIAN_POINT ( 'NONE',  ( 6.982962677686266711E-15, 1.827649730810370743, 2.000000000000000000 ) ) ;
#376 = VERTEX_POINT ( 'NONE', #67 ) ;
#377 = EDGE_CURVE ( 'NONE', #137, #137, #306, .T. ) ;
#378 = DIRECTION ( 'NONE',  ( 3.491481338843133355E-15, -0.000000000000000000, 1.000000000000000000 ) ) ;
#379 = AXIS2_PLACEMENT_3D ( 'NONE', #260, #266, #52 ) ;
#380 = DIRECTION ( 'NONE',  ( 3.491481338843133355E-15, -0.000000000000000000, 1.000000000000000000 ) ) ;
#381 = VERTEX_POINT ( 'NONE', #354 ) ;
#382 = FACE_OUTER_BOUND ( 'NONE', #294, .T. ) ;
#383 = DIRECTION ( 'NONE',  ( -1.000000000000000000, 0.000000000000000000, 3.491481338843133355E-15 ) ) ;
#384 =( NAMED_UNIT ( * ) SI_UNIT ( $, .STERADIAN. ) SOLID_ANGLE_UNIT ( ) );
#385 = FACE_BOUND ( 'NONE', #363, .T. ) ;
#386 = DIRECTION ( 'NONE',  ( 1.000000000000000000, 0.000000000000000000, -3.440688056582752238E-15 ) ) ;
#387 = PERSON_AND_ORGANIZATION ( #34, #357 ) ;
#388 = FACE_BOUND ( 'NONE', #262, .T. ) ;
#389 = AXIS2_PLACEMENT_3D ( 'NONE', #6, #188, #248 ) ;
#390 = DIRECTION ( 'NONE',  ( 3.491481338843133355E-15, -0.000000000000000000, 1.000000000000000000 ) ) ;
#391 = PERSON_AND_ORGANIZATION ( #34, #357 ) ;
#392 = DESIGN_CONTEXT ( 'detailed design', #276, 'design' ) ;
#393 = AXIS2_PLACEMENT_3D ( 'NONE', #104, #76, #73 ) ;
#394 = DIRECTION ( 'NONE',  ( 1.000000000000000000, 0.000000000000000000, -4.625929269271489266E-15 ) ) ;
#395 = CALENDAR_DATE ( 2023, 27, 9 ) ;
ENDSEC;
END-ISO-10303-21;
