ISO-10303-21;
HEADER;
FILE_DESCRIPTION (( 'STEP AP203' ),
    '1' );
FILE_NAME ('961173.step',
    '2023-09-27T08:26:59',
    ( '' ),
    ( '' ),
    'SwSTEP 2.0',
    'SolidWorks 2022',
    '' );
FILE_SCHEMA (( 'CONFIG_CONTROL_DESIGN' ));
ENDSEC;

DATA;
#1 = DIRECTION ( 'NONE',  ( 1.000000000000000000, 0.000000000000000000, -4.625929269271492422E-15 ) ) ;
#2 = EDGE_LOOP ( 'NONE', ( #57 ) ) ;
#3 = CARTESIAN_POINT ( 'NONE',  ( 1.563119784648301591, 0.000000000000000000, 1.499999999999996003 ) ) ;
#4 = DIRECTION ( 'NONE',  ( 3.491481338843133355E-15, -0.000000000000000000, 1.000000000000000000 ) ) ;
#5 = AXIS2_PLACEMENT_3D ( 'NONE', #195, #190, #245 ) ;
#6 = PRODUCT_DEFINITION_SHAPE ( 'NONE', 'NONE',  #42 ) ;
#7 = CARTESIAN_POINT ( 'NONE',  ( 4.306160317906541130E-15, 0.000000000000000000, 1.233333333333336279 ) ) ;
#8 = CARTESIAN_POINT ( 'NONE',  ( 5.586370142149003902E-15, 0.000000000000000000, 1.599999999999997202 ) ) ;
#9 = CC_DESIGN_PERSON_AND_ORGANIZATION_ASSIGNMENT ( #127, #102, ( #124 ) ) ;
#10 = CYLINDRICAL_SURFACE ( 'NONE', #56, 2.024999999999999911 ) ;
#11 =( NAMED_UNIT ( * ) SI_UNIT ( $, .STERADIAN. ) SOLID_ANGLE_UNIT ( ) );
#12 = DIRECTION ( 'NONE',  ( 3.491481338843133355E-15, -0.000000000000000000, 1.000000000000000000 ) ) ;
#13 = AXIS2_PLACEMENT_3D ( 'NONE', #242, #4, #395 ) ;
#14 = CIRCLE ( 'NONE', #334, 1.563119784648296484 ) ;
#15 = PERSON_AND_ORGANIZATION_ROLE ( 'creator' ) ;
#16 = CARTESIAN_POINT ( 'NONE',  ( 3.142333204958813314E-15, 0.000000000000000000, 0.8999999999999980238 ) ) ;
#17 = EDGE_CURVE ( 'NONE', #273, #273, #321, .T. ) ;
#18 = PERSON_AND_ORGANIZATION ( #179, #304 ) ;
#19 = FACE_OUTER_BOUND ( 'NONE', #59, .T. ) ;
#20 = PERSON_AND_ORGANIZATION_ROLE ( 'creator' ) ;
#21 = EDGE_LOOP ( 'NONE', ( #253 ) ) ;
#22 = ADVANCED_FACE ( 'NONE', ( #86, #29 ), #25, .T. ) ;
#23 = EDGE_LOOP ( 'NONE', ( #172 ) ) ;
#24 = EDGE_LOOP ( 'NONE', ( #201 ) ) ;
#25 = CONICAL_SURFACE ( 'NONE', #168, 2.024999999999999911, 1.047197551196603182 ) ;
#26 = CONICAL_SURFACE ( 'NONE', #240, 1.424074173710928148, 0.2617993877991430796 ) ;
#27 = ORIENTED_EDGE ( 'NONE', *, *, #254, .T. ) ;
#28 = EDGE_CURVE ( 'NONE', #391, #391, #257, .T. ) ;
#29 = FACE_OUTER_BOUND ( 'NONE', #331, .T. ) ;
#30 = VERTEX_POINT ( 'NONE', #3 ) ;
#31 = EDGE_LOOP ( 'NONE', ( #362 ) ) ;
#32 = CARTESIAN_POINT ( 'NONE',  ( 1.969195475107527212E-13, 0.000000000000000000, 56.39999999999999858 ) ) ;
#33 = DIRECTION ( 'NONE',  ( -1.000000000000000000, 0.000000000000000000, 3.480155121558409533E-15 ) ) ;
#34 = CIRCLE ( 'NONE', #5, 2.024999999999999911 ) ;
#35 = CARTESIAN_POINT ( 'NONE',  ( 2.025000000000001243, 0.000000000000000000, 0.4333333333333271309 ) ) ;
#36 = DIRECTION ( 'NONE',  ( -1.000000000000000000, 0.000000000000000000, 3.533695969582385070E-15 ) ) ;
#37 = ADVANCED_FACE ( 'NONE', ( #234, #328 ), #341, .T. ) ;
#38 = DIRECTION ( 'NONE',  ( 3.491481338843133355E-15, -0.000000000000000000, 1.000000000000000000 ) ) ;
#39 = DIRECTION ( 'NONE',  ( 3.491481338843133355E-15, -0.000000000000000000, 1.000000000000000000 ) ) ;
#40 = CARTESIAN_POINT ( 'NONE',  ( 5.586370142149013368E-14, 0.000000000000000000, 16.00000000000000000 ) ) ;
#41 = AXIS2_PLACEMENT_3D ( 'NONE', #146, #302, #271 ) ;
#42 = PRODUCT_DEFINITION ( 'UNKNOWN', '', #48, #393 ) ;
#43 = CARTESIAN_POINT ( 'NONE',  ( 3.000000000000077272, 0.000000000000000000, 22.14025429777343845 ) ) ;
#44 = CARTESIAN_POINT ( 'NONE',  ( 1.990144363140586139E-13, 0.000000000000000000, 57.00000000000000000 ) ) ;
#45 = CARTESIAN_POINT ( 'NONE',  ( 0.000000000000000000, 0.000000000000000000, 0.000000000000000000 ) ) ;
#46 = PLANE ( 'NONE',  #119 ) ;
#47 = FACE_BOUND ( 'NONE', #113, .T. ) ;
#48 = PRODUCT_DEFINITION_FORMATION_WITH_SPECIFIED_SOURCE ( 'ANY', '', #124, .NOT_KNOWN. ) ;
#49 = FACE_BOUND ( 'NONE', #184, .T. ) ;
#50 = APPLICATION_PROTOCOL_DEFINITION ( 'international standard', 'config_control_design', 1994, #346 ) ;
#51 = ORIENTED_EDGE ( 'NONE', *, *, #163, .T. ) ;
#52 = ADVANCED_FACE ( 'NONE', ( #367, #269 ), #352, .T. ) ;
#53 = SECURITY_CLASSIFICATION_LEVEL ( 'unclassified' ) ;
#54 = EDGE_LOOP ( 'NONE', ( #115 ) ) ;
#55 = EDGE_CURVE ( 'NONE', #30, #30, #129, .T. ) ;
#56 = AXIS2_PLACEMENT_3D ( 'NONE', #338, #285, #134 ) ;
#57 = ORIENTED_EDGE ( 'NONE', *, *, #28, .F. ) ;
#58 = CARTESIAN_POINT ( 'NONE',  ( 0.000000000000000000, 0.000000000000000000, 0.000000000000000000 ) ) ;
#59 = EDGE_LOOP ( 'NONE', ( #51 ) ) ;
#60 = VERTEX_POINT ( 'NONE', #238 ) ;
#61 = CARTESIAN_POINT ( 'NONE',  ( 1.990144363140586139E-13, 0.000000000000000000, 57.00000000000000000 ) ) ;
#62 = FACE_BOUND ( 'NONE', #54, .T. ) ;
#63 = EDGE_LOOP ( 'NONE', ( #355 ) ) ;
#64 = CC_DESIGN_APPROVAL ( #244, ( #42 ) ) ;
#65 = EDGE_LOOP ( 'NONE', ( #239 ) ) ;
#66 = VERTEX_POINT ( 'NONE', #194 ) ;
#67 = CYLINDRICAL_SURFACE ( 'NONE', #275, 1.563119784648296484 ) ;
#68 = CARTESIAN_POINT ( 'NONE',  ( 2.025000000000004352, 0.000000000000000000, 1.233333333333329174 ) ) ;
#69 = DIRECTION ( 'NONE',  ( -3.491481338843133355E-15, 0.000000000000000000, -1.000000000000000000 ) ) ;
#70 = AXIS2_PLACEMENT_3D ( 'NONE', #58, #327, #122 ) ;
#71 = FACE_OUTER_BOUND ( 'NONE', #24, .T. ) ;
#72 = APPROVAL_ROLE ( '' ) ;
#73 = FACE_OUTER_BOUND ( 'NONE', #31, .T. ) ;
#74 = PERSON_AND_ORGANIZATION ( #179, #304 ) ;
#75 = ADVANCED_FACE ( 'NONE', ( #336, #236 ), #26, .T. ) ;
#76 = CARTESIAN_POINT ( 'NONE',  ( 1.969195475107527212E-13, 0.000000000000000000, 56.39999999999999858 ) ) ;
#77 = AXIS2_PLACEMENT_3D ( 'NONE', #76, #69, #153 ) ;
#78 = ORIENTED_EDGE ( 'NONE', *, *, #335, .F. ) ;
#79 = ADVANCED_FACE ( 'NONE', ( #87, #121 ), #211, .T. ) ;
#80 =( GEOMETRIC_REPRESENTATION_CONTEXT ( 3 ) GLOBAL_UNCERTAINTY_ASSIGNED_CONTEXT ( ( #365 ) ) GLOBAL_UNIT_ASSIGNED_CONTEXT ( ( #154, #249, #11 ) ) REPRESENTATION_CONTEXT ( 'NONE', 'WORKASPACE' ) );
#81 = EDGE_CURVE ( 'NONE', #305, #305, #98, .T. ) ;
#82 = PERSON_AND_ORGANIZATION_ROLE ( 'design_supplier' ) ;
#83 = CIRCLE ( 'NONE', #232, 1.389999999999999902 ) ;
#84 = FACE_OUTER_BOUND ( 'NONE', #265, .T. ) ;
#85 = DIRECTION ( 'NONE',  ( 3.491481338843133355E-15, -0.000000000000000000, 1.000000000000000000 ) ) ;
#86 = FACE_BOUND ( 'NONE', #295, .T. ) ;
#87 = FACE_OUTER_BOUND ( 'NONE', #359, .T. ) ;
#88 = CC_DESIGN_APPROVAL ( #360, ( #48 ) ) ;
#89 = DIRECTION ( 'NONE',  ( 1.000000000000000000, 0.000000000000000000, -3.533695969582385070E-15 ) ) ;
#90 = DIRECTION ( 'NONE',  ( 1.000000000000000000, 0.000000000000000000, -3.491481338843132961E-15 ) ) ;
#91 = CARTESIAN_POINT ( 'NONE',  ( 1.563119784648299371, 0.000000000000000000, 0.8999999999999925837 ) ) ;
#92 = ADVANCED_FACE ( 'NONE', ( #49, #223 ), #200, .T. ) ;
#93 = CARTESIAN_POINT ( 'NONE',  ( 5.586370142149013368E-14, 0.000000000000000000, 16.00000000000000000 ) ) ;
#94 = APPLICATION_PROTOCOL_DEFINITION ( 'international standard', 'config_control_design', 1994, #267 ) ;
#95 = FACE_OUTER_BOUND ( 'NONE', #263, .T. ) ;
#96 = CLOSED_SHELL ( 'NONE', ( #212, #52, #79, #37, #156, #229, #148, #22, #173, #276, #237, #197, #75, #270, #92, #104 ) ) ;
#97 = DIRECTION ( 'NONE',  ( 3.491481338843133355E-15, -0.000000000000000000, 1.000000000000000000 ) ) ;
#98 = CIRCLE ( 'NONE', #138, 1.389999999999998126 ) ;
#99 = PLANE ( 'NONE',  #259 ) ;
#100 = APPROVAL ( #386, 'UNSPECIFIED' ) ;
#101 = DIRECTION ( 'NONE',  ( 1.000000000000000000, 0.000000000000000000, -3.426614273534433996E-15 ) ) ;
#102 = PERSON_AND_ORGANIZATION_ROLE ( 'design_owner' ) ;
#103 = AXIS2_PLACEMENT_3D ( 'NONE', #162, #12, #316 ) ;
#104 = ADVANCED_FACE ( 'NONE', ( #319 ), #46, .F. ) ;
#105 = ORIENTED_EDGE ( 'NONE', *, *, #81, .T. ) ;
#106 = APPROVAL_DATE_TIME ( #202, #100 ) ;
#107 = ORIENTED_EDGE ( 'NONE', *, *, #350, .F. ) ;
#108 = APPROVAL_PERSON_ORGANIZATION ( #18, #360, #72 ) ;
#109 = COORDINATED_UNIVERSAL_TIME_OFFSET ( 1, 0, .AHEAD. ) ;
#110 = DIRECTION ( 'NONE',  ( 1.000000000000000000, 0.000000000000000000, -3.468071299249311808E-15 ) ) ;
#111 = CC_DESIGN_APPROVAL ( #100, ( #317 ) ) ;
#112 = DIRECTION ( 'NONE',  ( 3.491481338843133355E-15, -0.000000000000000000, 1.000000000000000000 ) ) ;
#113 = EDGE_LOOP ( 'NONE', ( #27 ) ) ;
#114 = VERTEX_POINT ( 'NONE', #35 ) ;
#115 = ORIENTED_EDGE ( 'NONE', *, *, #294, .F. ) ;
#116 = VERTEX_POINT ( 'NONE', #370 ) ;
#117 = DIRECTION ( 'NONE',  ( -3.491481338843133355E-15, 0.000000000000000000, -1.000000000000000000 ) ) ;
#118 = EDGE_CURVE ( 'NONE', #233, #233, #348, .T. ) ;
#119 = AXIS2_PLACEMENT_3D ( 'NONE', #278, #216, #250 ) ;
#120 = CARTESIAN_POINT ( 'NONE',  ( 1.563119784648301813, 0.000000000000000000, 1.599999999999991873 ) ) ;
#121 = FACE_OUTER_BOUND ( 'NONE', #383, .T. ) ;
#122 = DIRECTION ( 'NONE',  ( 1.000000000000000000, 0.000000000000000000, -3.491481338843132961E-15 ) ) ;
#123 = DIRECTION ( 'NONE',  ( 1.000000000000000000, 0.000000000000000000, -3.468071299249312202E-15 ) ) ;
#124 = PRODUCT ( '961173', '961173', '', ( #155 ) ) ;
#125 = COORDINATED_UNIVERSAL_TIME_OFFSET ( 1, 0, .AHEAD. ) ;
#126 = FACE_OUTER_BOUND ( 'NONE', #293, .T. ) ;
#127 = PERSON_AND_ORGANIZATION ( #179, #304 ) ;
#128 = FACE_OUTER_BOUND ( 'NONE', #139, .T. ) ;
#129 = CIRCLE ( 'NONE', #13, 1.563119784648296484 ) ;
#130 = EDGE_CURVE ( 'NONE', #114, #114, #169, .T. ) ;
#131 = APPROVAL_ROLE ( '' ) ;
#132 = DIRECTION ( 'NONE',  ( 3.491481338843133355E-15, -0.000000000000000000, 1.000000000000000000 ) ) ;
#133 = CARTESIAN_POINT ( 'NONE',  ( 1.389914703891409031, 0.000000000000000000, -4.852861251220533782E-15 ) ) ;
#134 = DIRECTION ( 'NONE',  ( 1.000000000000000000, 0.000000000000000000, -3.426614273534433996E-15 ) ) ;
#135 = AXIS2_PLACEMENT_3D ( 'NONE', #193, #97, #340 ) ;
#136 = DATE_AND_TIME ( #171, #326 ) ;
#137 = ORIENTED_EDGE ( 'NONE', *, *, #335, .T. ) ;
#138 = AXIS2_PLACEMENT_3D ( 'NONE', #93, #246, #314 ) ;
#139 = EDGE_LOOP ( 'NONE', ( #105 ) ) ;
#140 = EDGE_LOOP ( 'NONE', ( #357 ) ) ;
#141 = FACE_OUTER_BOUND ( 'NONE', #65, .T. ) ;
#142 = DIRECTION ( 'NONE',  ( -3.491481338843133355E-15, 0.000000000000000000, -1.000000000000000000 ) ) ;
#143 = AXIS2_PLACEMENT_3D ( 'NONE', #16, #132, #252 ) ;
#144 = DIRECTION ( 'NONE',  ( 3.491481338843133355E-15, -0.000000000000000000, 1.000000000000000000 ) ) ;
#145 = ORIENTED_EDGE ( 'NONE', *, *, #55, .F. ) ;
#146 = CARTESIAN_POINT ( 'NONE',  ( 5.676736328760278475E-14, 0.000000000000000000, 16.25881904510251985 ) ) ;
#147 = CARTESIAN_POINT ( 'NONE',  ( 2.444036937190190588E-15, 0.000000000000000000, 0.6999999999999992895 ) ) ;
#148 = ADVANCED_FACE ( 'NONE', ( #347, #19 ), #10, .T. ) ;
#149 = CARTESIAN_POINT ( 'NONE',  ( 7.730228471791748438E-14, 0.000000000000000000, 22.14025429777344911 ) ) ;
#150 = DIRECTION ( 'NONE',  ( 1.000000000000000000, 0.000000000000000000, -2.436282474607867664E-15 ) ) ;
#151 = AXIS2_PLACEMENT_3D ( 'NONE', #210, #206, #268 ) ;
#152 = CARTESIAN_POINT ( 'NONE',  ( 3.142333204958813314E-15, 0.000000000000000000, 0.8999999999999980238 ) ) ;
#153 = DIRECTION ( 'NONE',  ( -1.000000000000000000, 0.000000000000000000, 4.625929269271492422E-15 ) ) ;
#154 =( LENGTH_UNIT ( ) NAMED_UNIT ( * ) SI_UNIT ( .MILLI., .METRE. ) );
#155 = MECHANICAL_CONTEXT ( 'NONE', #346, 'mechanical' ) ;
#156 = ADVANCED_FACE ( 'NONE', ( #95, #71 ), #67, .T. ) ;
#157 = CYLINDRICAL_SURFACE ( 'NONE', #266, 1.563119784648296484 ) ;
#158 = DIRECTION ( 'NONE',  ( 1.000000000000000000, 0.000000000000000000, -4.439131263039119556E-15 ) ) ;
#159 = CIRCLE ( 'NONE', #70, 1.389914703891409031 ) ;
#160 = CIRCLE ( 'NONE', #103, 2.024999999999999911 ) ;
#161 = DIRECTION ( 'NONE',  ( 1.000000000000000000, 0.000000000000000000, 0.000000000000000000 ) ) ;
#162 = CARTESIAN_POINT ( 'NONE',  ( 1.280209824242486635E-15, 0.000000000000000000, 0.3666666666666679175 ) ) ;
#163 = EDGE_CURVE ( 'NONE', #116, #116, #34, .T. ) ;
#164 = AXIS2_PLACEMENT_3D ( 'NONE', #272, #117, #33 ) ;
#165 = AXIS2_PLACEMENT_3D ( 'NONE', #32, #241, #1 ) ;
#166 = EDGE_LOOP ( 'NONE', ( #388 ) ) ;
#167 = CC_DESIGN_DATE_AND_TIME_ASSIGNMENT ( #136, #356, ( #317 ) ) ;
#168 = AXIS2_PLACEMENT_3D ( 'NONE', #306, #142, #36 ) ;
#169 = CIRCLE ( 'NONE', #135, 2.024999999999999911 ) ;
#170 = LOCAL_TIME ( 10, 26, 59.00000000000000000, #109 ) ;
#171 = CALENDAR_DATE ( 2023, 27, 9 ) ;
#172 = ORIENTED_EDGE ( 'NONE', *, *, #301, .F. ) ;
#173 = ADVANCED_FACE ( 'NONE', ( #313, #218 ), #157, .T. ) ;
#174 = DIRECTION ( 'NONE',  ( 1.000000000000000000, 0.000000000000000000, -3.469446951953614189E-15 ) ) ;
#175 = CARTESIAN_POINT ( 'NONE',  ( 0.000000000000000000, 0.000000000000000000, 0.000000000000000000 ) ) ;
#176 = DIRECTION ( 'NONE',  ( 3.491481338843133355E-15, -0.000000000000000000, 1.000000000000000000 ) ) ;
#177 = ORIENTED_EDGE ( 'NONE', *, *, #254, .F. ) ;
#178 = AXIS2_PLACEMENT_3D ( 'NONE', #175, #300, #90 ) ;
#179 = PERSON ( 'UNSPECIFIED', 'UNSPECIFIED', 'UNSPECIFIED', ('UNSPECIFIED'), ('UNSPECIFIED'), ('UNSPECIFIED') ) ;
#180 = APPROVAL_PERSON_ORGANIZATION ( #217, #244, #131 ) ;
#181 = CARTESIAN_POINT ( 'NONE',  ( 5.586370142149003902E-15, 0.000000000000000000, 1.599999999999997202 ) ) ;
#182 = ORIENTED_EDGE ( 'NONE', *, *, #55, .T. ) ;
#183 = DIRECTION ( 'NONE',  ( 1.000000000000000000, 0.000000000000000000, -4.625929269271489266E-15 ) ) ;
#184 = EDGE_LOOP ( 'NONE', ( #230 ) ) ;
#185 = EDGE_CURVE ( 'NONE', #60, #60, #160, .T. ) ;
#186 = FACE_OUTER_BOUND ( 'NONE', #23, .T. ) ;
#187 = AXIS2_PLACEMENT_3D ( 'NONE', #7, #144, #89 ) ;
#188 = DIRECTION ( 'NONE',  ( 0.000000000000000000, 0.000000000000000000, 1.000000000000000000 ) ) ;
#189 = MANIFOLD_SOLID_BREP ( 'Corps-Déplacer/Copier1', #96 ) ;
#190 = DIRECTION ( 'NONE',  ( 3.491481338843133355E-15, -0.000000000000000000, 1.000000000000000000 ) ) ;
#191 = DIRECTION ( 'NONE',  ( 3.491481338843133355E-15, -0.000000000000000000, 1.000000000000000000 ) ) ;
#192 = DATE_AND_TIME ( #320, #261 ) ;
#193 = CARTESIAN_POINT ( 'NONE',  ( 1.512975246832027346E-15, 0.000000000000000000, 0.4333333333333341808 ) ) ;
#194 = CARTESIAN_POINT ( 'NONE',  ( 1.424074173710984992, 0.000000000000000000, 16.25881904510251630 ) ) ;
#195 = CARTESIAN_POINT ( 'NONE',  ( 4.073394895317000221E-15, 0.000000000000000000, 1.166666666666670071 ) ) ;
#196 = AXIS2_PLACEMENT_3D ( 'NONE', #149, #358, #174 ) ;
#197 = ADVANCED_FACE ( 'NONE', ( #186, #128 ), #248, .F. ) ;
#198 = APPROVAL_STATUS ( 'not_yet_approved' ) ;
#199 = PERSON_AND_ORGANIZATION_ROLE ( 'classification_officer' ) ;
#200 = CONICAL_SURFACE ( 'NONE', #77, 2.999999999999995559, 0.7853981633974447263 ) ;
#201 = ORIENTED_EDGE ( 'NONE', *, *, #28, .T. ) ;
#202 = DATE_AND_TIME ( #384, #170 ) ;
#203 = EDGE_LOOP ( 'NONE', ( #381 ) ) ;
#204 = CC_DESIGN_PERSON_AND_ORGANIZATION_ASSIGNMENT ( #376, #82, ( #48 ) ) ;
#205 = AXIS2_PLACEMENT_3D ( 'NONE', #310, #39, #361 ) ;
#206 = DIRECTION ( 'NONE',  ( -3.491481338843133355E-15, 0.000000000000000000, -1.000000000000000000 ) ) ;
#207 = EDGE_LOOP ( 'NONE', ( #274 ) ) ;
#208 = CYLINDRICAL_SURFACE ( 'NONE', #205, 1.389999999999999014 ) ;
#209 = EDGE_LOOP ( 'NONE', ( #324 ) ) ;
#210 = CARTESIAN_POINT ( 'NONE',  ( 5.586370142149013368E-15, 1.563119784648296262, 1.599999999999999867 ) ) ;
#211 = CYLINDRICAL_SURFACE ( 'NONE', #296, 2.024999999999999911 ) ;
#212 = ADVANCED_FACE ( 'NONE', ( #126 ), #99, .F. ) ;
#213 = CARTESIAN_POINT ( 'NONE',  ( 1.990144363140586139E-13, 0.000000000000000000, 57.00000000000000000 ) ) ;
#214 = ORIENTED_EDGE ( 'NONE', *, *, #130, .T. ) ;
#215 = VERTEX_POINT ( 'NONE', #337 ) ;
#216 = DIRECTION ( 'NONE',  ( -3.491481338843133355E-15, 0.000000000000000000, -1.000000000000000000 ) ) ;
#217 = PERSON_AND_ORGANIZATION ( #179, #304 ) ;
#218 = FACE_OUTER_BOUND ( 'NONE', #292, .T. ) ;
#219 = CARTESIAN_POINT ( 'NONE',  ( 1.990144363140586139E-13, 0.000000000000000000, 57.00000000000000000 ) ) ;
#220 = APPROVAL_STATUS ( 'not_yet_approved' ) ;
#221 = DIRECTION ( 'NONE',  ( 3.491481338843133355E-15, -0.000000000000000000, 1.000000000000000000 ) ) ;
#222 = PRODUCT_RELATED_PRODUCT_CATEGORY ( 'detail', '', ( #124 ) ) ;
#223 = FACE_OUTER_BOUND ( 'NONE', #21, .T. ) ;
#224 = DATE_AND_TIME ( #255, #283 ) ;
#225 = AXIS2_PLACEMENT_3D ( 'NONE', #8, #191, #123 ) ;
#226 = SHAPE_DEFINITION_REPRESENTATION ( #6, #369 ) ;
#227 = LOCAL_TIME ( 10, 26, 59.00000000000000000, #379 ) ;
#228 = APPROVAL_ROLE ( '' ) ;
#229 = ADVANCED_FACE ( 'NONE', ( #73, #47 ), #323, .T. ) ;
#230 = ORIENTED_EDGE ( 'NONE', *, *, #17, .F. ) ;
#231 = AXIS2_PLACEMENT_3D ( 'NONE', #147, #85, #110 ) ;
#232 = AXIS2_PLACEMENT_3D ( 'NONE', #181, #299, #363 ) ;
#233 = VERTEX_POINT ( 'NONE', #120 ) ;
#234 = FACE_BOUND ( 'NONE', #2, .T. ) ;
#235 = FACE_OUTER_BOUND ( 'NONE', #303, .T. ) ;
#236 = FACE_BOUND ( 'NONE', #207, .T. ) ;
#237 = ADVANCED_FACE ( 'NONE', ( #377, #256 ), #208, .T. ) ;
#238 = CARTESIAN_POINT ( 'NONE',  ( 2.025000000000001243, 0.000000000000000000, 0.3666666666666608676 ) ) ;
#239 = ORIENTED_EDGE ( 'NONE', *, *, #118, .T. ) ;
#240 = AXIS2_PLACEMENT_3D ( 'NONE', #364, #38, #150 ) ;
#241 = DIRECTION ( 'NONE',  ( 3.491481338843133355E-15, -0.000000000000000000, 1.000000000000000000 ) ) ;
#242 = CARTESIAN_POINT ( 'NONE',  ( 5.237222008264704766E-15, 0.000000000000000000, 1.500000000000001332 ) ) ;
#243 = VERTEX_POINT ( 'NONE', #68 ) ;
#244 = APPROVAL ( #220, 'UNSPECIFIED' ) ;
#245 = DIRECTION ( 'NONE',  ( 1.000000000000000000, 0.000000000000000000, -3.533695969582385070E-15 ) ) ;
#246 = DIRECTION ( 'NONE',  ( 3.491481338843133355E-15, -0.000000000000000000, 1.000000000000000000 ) ) ;
#247 = AXIS2_PLACEMENT_3D ( 'NONE', #61, #333, #390 ) ;
#248 = TOROIDAL_SURFACE ( 'NONE', #312, 2.389999999999997904, 1.000000000000000000 ) ;
#249 =( NAMED_UNIT ( * ) PLANE_ANGLE_UNIT ( ) SI_UNIT ( $, .RADIAN. ) );
#250 = DIRECTION ( 'NONE',  ( -1.000000000000000000, 0.000000000000000000, 3.491481338843133355E-15 ) ) ;
#251 = APPROVAL_DATE_TIME ( #286, #244 ) ;
#252 = DIRECTION ( 'NONE',  ( 1.000000000000000000, 0.000000000000000000, -3.468071299249311808E-15 ) ) ;
#253 = ORIENTED_EDGE ( 'NONE', *, *, #343, .T. ) ;
#254 = EDGE_CURVE ( 'NONE', #366, #366, #14, .T. ) ;
#255 = CALENDAR_DATE ( 2023, 27, 9 ) ;
#256 = FACE_OUTER_BOUND ( 'NONE', #203, .T. ) ;
#257 = CIRCLE ( 'NONE', #231, 1.563119784648296484 ) ;
#258 = COORDINATED_UNIVERSAL_TIME_OFFSET ( 1, 0, .AHEAD. ) ;
#259 = AXIS2_PLACEMENT_3D ( 'NONE', #311, #221, #345 ) ;
#260 = ORIENTED_EDGE ( 'NONE', *, *, #350, .T. ) ;
#261 = LOCAL_TIME ( 10, 26, 59.00000000000000000, #125 ) ;
#262 = CC_DESIGN_DATE_AND_TIME_ASSIGNMENT ( #224, #349, ( #42 ) ) ;
#263 = EDGE_LOOP ( 'NONE', ( #177 ) ) ;
#264 = CARTESIAN_POINT ( 'NONE',  ( 1.390000000000054081, 0.000000000000000000, 15.99999999999999645 ) ) ;
#265 = EDGE_LOOP ( 'NONE', ( #260 ) ) ;
#266 = AXIS2_PLACEMENT_3D ( 'NONE', #44, #282, #158 ) ;
#267 = APPLICATION_CONTEXT ( 'configuration controlled 3d designs of mechanical parts and assemblies' ) ;
#268 = DIRECTION ( 'NONE',  ( -1.000000000000000000, 0.000000000000000000, 3.491481338843133355E-15 ) ) ;
#269 = FACE_BOUND ( 'NONE', #389, .T. ) ;
#270 = ADVANCED_FACE ( 'NONE', ( #235, #84 ), #332, .T. ) ;
#271 = DIRECTION ( 'NONE',  ( 1.000000000000000000, 0.000000000000000000, -2.436282474607867664E-15 ) ) ;
#272 = CARTESIAN_POINT ( 'NONE',  ( 1.512975246832027346E-15, 0.000000000000000000, 0.4333333333333341808 ) ) ;
#273 = VERTEX_POINT ( 'NONE', #330 ) ;
#274 = ORIENTED_EDGE ( 'NONE', *, *, #301, .T. ) ;
#275 = AXIS2_PLACEMENT_3D ( 'NONE', #219, #342, #372 ) ;
#276 = ADVANCED_FACE ( 'NONE', ( #62, #141 ), #307, .F. ) ;
#277 = DIRECTION ( 'NONE',  ( 1.000000000000000000, 0.000000000000000000, -3.468071299249311808E-15 ) ) ;
#278 = CARTESIAN_POINT ( 'NONE',  ( 1.990144363140586139E-13, 2.399999999999996803, 57.00000000000000000 ) ) ;
#279 = VERTEX_POINT ( 'NONE', #339 ) ;
#280 = DIRECTION ( 'NONE',  ( 1.000000000000000000, 0.000000000000000000, -3.491481338843133355E-15 ) ) ;
#281 = VERTEX_POINT ( 'NONE', #133 ) ;
#282 = DIRECTION ( 'NONE',  ( 3.491481338843133355E-15, -0.000000000000000000, 1.000000000000000000 ) ) ;
#283 = LOCAL_TIME ( 10, 26, 59.00000000000000000, #284 ) ;
#284 = COORDINATED_UNIVERSAL_TIME_OFFSET ( 1, 0, .AHEAD. ) ;
#285 = DIRECTION ( 'NONE',  ( 3.491481338843133355E-15, -0.000000000000000000, 1.000000000000000000 ) ) ;
#286 = DATE_AND_TIME ( #344, #227 ) ;
#287 = CARTESIAN_POINT ( 'NONE',  ( 1.990144363140586139E-13, 0.000000000000000000, 57.00000000000000000 ) ) ;
#288 = APPROVAL_DATE_TIME ( #192, #360 ) ;
#289 = ORIENTED_EDGE ( 'NONE', *, *, #309, .T. ) ;
#290 = CC_DESIGN_PERSON_AND_ORGANIZATION_ASSIGNMENT ( #382, #199, ( #317 ) ) ;
#291 = APPROVAL_PERSON_ORGANIZATION ( #351, #100, #228 ) ;
#292 = EDGE_LOOP ( 'NONE', ( #182 ) ) ;
#293 = EDGE_LOOP ( 'NONE', ( #78 ) ) ;
#294 = EDGE_CURVE ( 'NONE', #215, #215, #83, .T. ) ;
#295 = EDGE_LOOP ( 'NONE', ( #145 ) ) ;
#296 = AXIS2_PLACEMENT_3D ( 'NONE', #287, #373, #101 ) ;
#297 = CC_DESIGN_SECURITY_CLASSIFICATION ( #317, ( #48 ) ) ;
#298 = ORIENTED_EDGE ( 'NONE', *, *, #185, .T. ) ;
#299 = DIRECTION ( 'NONE',  ( 3.491481338843133355E-15, -0.000000000000000000, 1.000000000000000000 ) ) ;
#300 = DIRECTION ( 'NONE',  ( 3.491481338843133355E-15, -0.000000000000000000, 1.000000000000000000 ) ) ;
#301 = EDGE_CURVE ( 'NONE', #66, #66, #368, .T. ) ;
#302 = DIRECTION ( 'NONE',  ( 3.491481338843133355E-15, -0.000000000000000000, 1.000000000000000000 ) ) ;
#303 = EDGE_LOOP ( 'NONE', ( #392 ) ) ;
#304 = ORGANIZATION ( 'UNSPECIFIED', 'UNSPECIFIED', '' ) ;
#305 = VERTEX_POINT ( 'NONE', #264 ) ;
#306 = CARTESIAN_POINT ( 'NONE',  ( 4.306160317906541130E-15, 0.000000000000000000, 1.233333333333336279 ) ) ;
#307 = PLANE ( 'NONE',  #151 ) ;
#308 = ORIENTED_EDGE ( 'NONE', *, *, #81, .F. ) ;
#309 = EDGE_CURVE ( 'NONE', #243, #243, #380, .T. ) ;
#310 = CARTESIAN_POINT ( 'NONE',  ( 1.990144363140586139E-13, 0.000000000000000000, 57.00000000000000000 ) ) ;
#311 = CARTESIAN_POINT ( 'NONE',  ( 2.980694972841292025E-33, 0.000000000000000000, 8.537049703461725676E-19 ) ) ;
#312 = AXIS2_PLACEMENT_3D ( 'NONE', #40, #375, #280 ) ;
#313 = FACE_OUTER_BOUND ( 'NONE', #140, .T. ) ;
#314 = DIRECTION ( 'NONE',  ( 1.000000000000000000, 0.000000000000000000, -2.496005001405481347E-15 ) ) ;
#315 = PERSON_AND_ORGANIZATION ( #179, #304 ) ;
#316 = DIRECTION ( 'NONE',  ( 1.000000000000000000, 0.000000000000000000, -3.480155121558409533E-15 ) ) ;
#317 = SECURITY_CLASSIFICATION ( '', '', #53 ) ;
#318 = VERTEX_POINT ( 'NONE', #43 ) ;
#319 = FACE_OUTER_BOUND ( 'NONE', #209, .T. ) ;
#320 = CALENDAR_DATE ( 2023, 27, 9 ) ;
#321 = CIRCLE ( 'NONE', #247, 2.399999999999996803 ) ;
#322 = EDGE_LOOP ( 'NONE', ( #308 ) ) ;
#323 = CONICAL_SURFACE ( 'NONE', #143, 1.563119784648296484, 1.047197551196591858 ) ;
#324 = ORIENTED_EDGE ( 'NONE', *, *, #17, .T. ) ;
#325 = AXIS2_PLACEMENT_3D ( 'NONE', #213, #176, #183 ) ;
#326 = LOCAL_TIME ( 10, 26, 59.00000000000000000, #258 ) ;
#327 = DIRECTION ( 'NONE',  ( 3.491481338843133355E-15, -0.000000000000000000, 1.000000000000000000 ) ) ;
#328 = FACE_OUTER_BOUND ( 'NONE', #354, .T. ) ;
#329 = CC_DESIGN_PERSON_AND_ORGANIZATION_ASSIGNMENT ( #315, #15, ( #48 ) ) ;
#330 = CARTESIAN_POINT ( 'NONE',  ( 2.400000000000195755, 0.000000000000000000, 56.99999999999999289 ) ) ;
#331 = EDGE_LOOP ( 'NONE', ( #289 ) ) ;
#332 = CYLINDRICAL_SURFACE ( 'NONE', #325, 2.999999999999997780 ) ;
#333 = DIRECTION ( 'NONE',  ( 3.491481338843133355E-15, -0.000000000000000000, 1.000000000000000000 ) ) ;
#334 = AXIS2_PLACEMENT_3D ( 'NONE', #152, #112, #277 ) ;
#335 = EDGE_CURVE ( 'NONE', #281, #281, #159, .T. ) ;
#336 = FACE_OUTER_BOUND ( 'NONE', #371, .T. ) ;
#337 = CARTESIAN_POINT ( 'NONE',  ( 1.390000000000005675, 0.000000000000000000, 1.599999999999992539 ) ) ;
#338 = CARTESIAN_POINT ( 'NONE',  ( 1.990144363140586139E-13, 0.000000000000000000, 57.00000000000000000 ) ) ;
#339 = CARTESIAN_POINT ( 'NONE',  ( 3.000000000000192735, 0.000000000000000000, 56.39999999999998437 ) ) ;
#340 = DIRECTION ( 'NONE',  ( 1.000000000000000000, 0.000000000000000000, -3.480155121558409533E-15 ) ) ;
#341 = CONICAL_SURFACE ( 'NONE', #164, 2.024999999999999911, 1.047197551196603182 ) ;
#342 = DIRECTION ( 'NONE',  ( 3.491481338843133355E-15, -0.000000000000000000, 1.000000000000000000 ) ) ;
#343 = EDGE_CURVE ( 'NONE', #279, #279, #387, .T. ) ;
#344 = CALENDAR_DATE ( 2023, 27, 9 ) ;
#345 = DIRECTION ( 'NONE',  ( 1.000000000000000000, 0.000000000000000000, -3.491481338843133355E-15 ) ) ;
#346 = APPLICATION_CONTEXT ( 'configuration controlled 3d designs of mechanical parts and assemblies' ) ;
#347 = FACE_OUTER_BOUND ( 'NONE', #63, .T. ) ;
#348 = CIRCLE ( 'NONE', #225, 1.563119784648296262 ) ;
#349 = DATE_TIME_ROLE ( 'creation_date' ) ;
#350 = EDGE_CURVE ( 'NONE', #318, #318, #374, .T. ) ;
#351 = PERSON_AND_ORGANIZATION ( #179, #304 ) ;
#352 = CONICAL_SURFACE ( 'NONE', #178, 1.389914703891409031, 1.047197551196598075 ) ;
#353 = AXIS2_PLACEMENT_3D ( 'NONE', #45, #188, #161 ) ;
#354 = EDGE_LOOP ( 'NONE', ( #214 ) ) ;
#355 = ORIENTED_EDGE ( 'NONE', *, *, #309, .F. ) ;
#356 = DATE_TIME_ROLE ( 'classification_date' ) ;
#357 = ORIENTED_EDGE ( 'NONE', *, *, #118, .F. ) ;
#358 = DIRECTION ( 'NONE',  ( 3.491481338843133355E-15, -0.000000000000000000, 1.000000000000000000 ) ) ;
#359 = EDGE_LOOP ( 'NONE', ( #385 ) ) ;
#360 = APPROVAL ( #198, 'UNSPECIFIED' ) ;
#361 = DIRECTION ( 'NONE',  ( 1.000000000000000000, 0.000000000000000000, -4.992010002810959538E-15 ) ) ;
#362 = ORIENTED_EDGE ( 'NONE', *, *, #163, .F. ) ;
#363 = DIRECTION ( 'NONE',  ( 1.000000000000000000, 0.000000000000000000, -3.432006876932532217E-15 ) ) ;
#364 = CARTESIAN_POINT ( 'NONE',  ( 5.676736328760278475E-14, 0.000000000000000000, 16.25881904510251985 ) ) ;
#365 = UNCERTAINTY_MEASURE_WITH_UNIT (LENGTH_MEASURE( 1.000000000000000082E-05 ), #154, 'distance_accuracy_value', 'NONE');
#366 = VERTEX_POINT ( 'NONE', #91 ) ;
#367 = FACE_OUTER_BOUND ( 'NONE', #166, .T. ) ;
#368 = CIRCLE ( 'NONE', #41, 1.424074173710928148 ) ;
#369 = ADVANCED_BREP_SHAPE_REPRESENTATION ( '961173', ( #189, #353 ), #80 ) ;
#370 = CARTESIAN_POINT ( 'NONE',  ( 2.025000000000003908, 0.000000000000000000, 1.166666666666662966 ) ) ;
#371 = EDGE_LOOP ( 'NONE', ( #107 ) ) ;
#372 = DIRECTION ( 'NONE',  ( 1.000000000000000000, 0.000000000000000000, -4.439131263039119556E-15 ) ) ;
#373 = DIRECTION ( 'NONE',  ( 3.491481338843133355E-15, -0.000000000000000000, 1.000000000000000000 ) ) ;
#374 = CIRCLE ( 'NONE', #196, 3.000000000000000000 ) ;
#375 = DIRECTION ( 'NONE',  ( 3.491481338843133355E-15, -0.000000000000000000, 1.000000000000000000 ) ) ;
#376 = PERSON_AND_ORGANIZATION ( #179, #304 ) ;
#377 = FACE_OUTER_BOUND ( 'NONE', #322, .T. ) ;
#378 = CC_DESIGN_PERSON_AND_ORGANIZATION_ASSIGNMENT ( #74, #20, ( #42 ) ) ;
#379 = COORDINATED_UNIVERSAL_TIME_OFFSET ( 1, 0, .AHEAD. ) ;
#380 = CIRCLE ( 'NONE', #187, 2.024999999999999911 ) ;
#381 = ORIENTED_EDGE ( 'NONE', *, *, #294, .T. ) ;
#382 = PERSON_AND_ORGANIZATION ( #179, #304 ) ;
#383 = EDGE_LOOP ( 'NONE', ( #298 ) ) ;
#384 = CALENDAR_DATE ( 2023, 27, 9 ) ;
#385 = ORIENTED_EDGE ( 'NONE', *, *, #130, .F. ) ;
#386 = APPROVAL_STATUS ( 'not_yet_approved' ) ;
#387 = CIRCLE ( 'NONE', #165, 2.999999999999995559 ) ;
#388 = ORIENTED_EDGE ( 'NONE', *, *, #185, .F. ) ;
#389 = EDGE_LOOP ( 'NONE', ( #137 ) ) ;
#390 = DIRECTION ( 'NONE',  ( 1.000000000000000000, 0.000000000000000000, -2.891205793294682172E-15 ) ) ;
#391 = VERTEX_POINT ( 'NONE', #394 ) ;
#392 = ORIENTED_EDGE ( 'NONE', *, *, #343, .F. ) ;
#393 = DESIGN_CONTEXT ( 'detailed design', #267, 'design' ) ;
#394 = CARTESIAN_POINT ( 'NONE',  ( 1.563119784648298705, 0.000000000000000000, 0.6999999999999938494 ) ) ;
#395 = DIRECTION ( 'NONE',  ( 1.000000000000000000, 0.000000000000000000, -3.468071299249311808E-15 ) ) ;
ENDSEC;
END-ISO-10303-21;
