ISO-10303-21;
HEADER;
FILE_DESCRIPTION (( 'STEP AP203' ),
    '1' );
FILE_NAME ('961172.step',
    '2023-09-27T08:26:58',
    ( '' ),
    ( '' ),
    'SwSTEP 2.0',
    'SolidWorks 2022',
    '' );
FILE_SCHEMA (( 'CONFIG_CONTROL_DESIGN' ));
ENDSEC;

DATA;
#1 = CARTESIAN_POINT ( 'NONE',  ( 1.466422162314116009E-13, 1.599999999999997202, 42.00000000000000000 ) ) ;
#2 = AXIS2_PLACEMENT_3D ( 'NONE', #232, #229, #199 ) ;
#3 = AXIS2_PLACEMENT_3D ( 'NONE', #393, #39, #92 ) ;
#4 =( GEOMETRIC_REPRESENTATION_CONTEXT ( 3 ) GLOBAL_UNCERTAINTY_ASSIGNED_CONTEXT ( ( #154 ) ) GLOBAL_UNIT_ASSIGNED_CONTEXT ( ( #375, #317, #268 ) ) REPRESENTATION_CONTEXT ( 'NONE', 'WORKASPACE' ) );
#5 = FACE_OUTER_BOUND ( 'NONE', #167, .T. ) ;
#6 = ADVANCED_FACE ( 'NONE', ( #384, #83 ), #176, .T. ) ;
#7 = CARTESIAN_POINT ( 'NONE',  ( 1.323853340978020871E-15, 0.000000000000000000, 0.3791666666666665408 ) ) ;
#8 = PERSON ( 'UNSPECIFIED', 'UNSPECIFIED', 'UNSPECIFIED', ('UNSPECIFIED'), ('UNSPECIFIED'), ('UNSPECIFIED') ) ;
#9 = EDGE_LOOP ( 'NONE', ( #49 ) ) ;
#10 = CARTESIAN_POINT ( 'NONE',  ( 1.180854811567264129, 0.000000000000000000, 1.312499999999997113 ) ) ;
#11 = APPROVAL ( #356, 'UNSPECIFIED' ) ;
#12 = AXIS2_PLACEMENT_3D ( 'NONE', #151, #150, #127 ) ;
#13 = EDGE_LOOP ( 'NONE', ( #323 ) ) ;
#14 = VERTEX_POINT ( 'NONE', #132 ) ;
#15 = APPLICATION_CONTEXT ( 'configuration controlled 3d designs of mechanical parts and assemblies' ) ;
#16 = SHAPE_DEFINITION_REPRESENTATION ( #163, #278 ) ;
#17 = CARTESIAN_POINT ( 'NONE',  ( 1.180854811567262352, 0.000000000000000000, 0.7874999999999993117 ) ) ;
#18 = ORIENTED_EDGE ( 'NONE', *, *, #226, .T. ) ;
#19 = VERTEX_POINT ( 'NONE', #186 ) ;
#20 = EDGE_LOOP ( 'NONE', ( #133 ) ) ;
#21 = AXIS2_PLACEMENT_3D ( 'NONE', #301, #97, #272 ) ;
#22 = ADVANCED_FACE ( 'NONE', ( #144, #294 ), #73, .T. ) ;
#23 = VERTEX_POINT ( 'NONE', #224 ) ;
#24 = DIRECTION ( 'NONE',  ( 1.000000000000000000, 0.000000000000000000, -5.876161773603444131E-15 ) ) ;
#25 = ORIENTED_EDGE ( 'NONE', *, *, #367, .F. ) ;
#26 = DATE_TIME_ROLE ( 'creation_date' ) ;
#27 = CARTESIAN_POINT ( 'NONE',  ( 0.000000000000000000, 0.000000000000000000, 0.000000000000000000 ) ) ;
#28 = CARTESIAN_POINT ( 'NONE',  ( 1.452456236958743728E-13, 0.000000000000000000, 41.60000000000000853 ) ) ;
#29 = DIRECTION ( 'NONE',  ( 0.000000000000000000, 0.000000000000000000, 1.000000000000000000 ) ) ;
#30 = EDGE_CURVE ( 'NONE', #53, #53, #276, .T. ) ;
#31 = FACE_OUTER_BOUND ( 'NONE', #137, .T. ) ;
#32 = AXIS2_PLACEMENT_3D ( 'NONE', #28, #197, #174 ) ;
#33 = AXIS2_PLACEMENT_3D ( 'NONE', #291, #79, #81 ) ;
#34 = FACE_OUTER_BOUND ( 'NONE', #252, .T. ) ;
#35 = CYLINDRICAL_SURFACE ( 'NONE', #12, 1.584999999999999964 ) ;
#36 = DIRECTION ( 'NONE',  ( 1.000000000000000000, 0.000000000000000000, -3.488971053077045224E-15 ) ) ;
#37 = AXIS2_PLACEMENT_3D ( 'NONE', #181, #183, #303 ) ;
#38 = CYLINDRICAL_SURFACE ( 'NONE', #3, 1.584999999999999964 ) ;
#39 = DIRECTION ( 'NONE',  ( 3.491481338843133355E-15, -0.000000000000000000, 1.000000000000000000 ) ) ;
#40 = EDGE_LOOP ( 'NONE', ( #316 ) ) ;
#41 = FACE_BOUND ( 'NONE', #372, .T. ) ;
#42 = CC_DESIGN_PERSON_AND_ORGANIZATION_ASSIGNMENT ( #175, #390, ( #346 ) ) ;
#43 = CARTESIAN_POINT ( 'NONE',  ( 2.803938374743634043E-33, 0.000000000000000000, 8.030798685788451694E-19 ) ) ;
#44 = CARTESIAN_POINT ( 'NONE',  ( 1.585000000000003739, 0.000000000000000000, 1.079166666666660168 ) ) ;
#45 = CARTESIAN_POINT ( 'NONE',  ( 4.888073874380381175E-15, 0.000000000000000000, 1.399999999999998579 ) ) ;
#46 = ORIENTED_EDGE ( 'NONE', *, *, #246, .F. ) ;
#47 = FACE_OUTER_BOUND ( 'NONE', #13, .T. ) ;
#48 = DIRECTION ( 'NONE',  ( -1.000000000000000000, 0.000000000000000000, 3.491481338843133355E-15 ) ) ;
#49 = ORIENTED_EDGE ( 'NONE', *, *, #105, .F. ) ;
#50 = EDGE_CURVE ( 'NONE', #14, #14, #271, .T. ) ;
#51 = EDGE_LOOP ( 'NONE', ( #344 ) ) ;
#52 = CIRCLE ( 'NONE', #177, 1.180854811567259688 ) ;
#53 = VERTEX_POINT ( 'NONE', #340 ) ;
#54 = ORIENTED_EDGE ( 'NONE', *, *, #315, .T. ) ;
#55 = CARTESIAN_POINT ( 'NONE',  ( 4.888073874380381175E-15, 0.000000000000000000, 1.399999999999998579 ) ) ;
#56 = SECURITY_CLASSIFICATION_LEVEL ( 'unclassified' ) ;
#57 = DIRECTION ( 'NONE',  ( 1.000000000000000000, 0.000000000000000000, -3.557003972823106077E-15 ) ) ;
#58 = AXIS2_PLACEMENT_3D ( 'NONE', #284, #377, #166 ) ;
#59 = PERSON_AND_ORGANIZATION_ROLE ( 'classification_officer' ) ;
#60 = APPROVAL ( #173, 'UNSPECIFIED' ) ;
#61 = APPROVAL_DATE_TIME ( #358, #60 ) ;
#62 = DIRECTION ( 'NONE',  ( 3.491481338843133355E-15, -0.000000000000000000, 1.000000000000000000 ) ) ;
#63 = AXIS2_PLACEMENT_3D ( 'NONE', #125, #239, #238 ) ;
#64 = CC_DESIGN_APPROVAL ( #332, ( #195 ) ) ;
#65 = FACE_OUTER_BOUND ( 'NONE', #370, .T. ) ;
#66 = CARTESIAN_POINT ( 'NONE',  ( 4.559462300330473908E-14, 0.000000000000000000, 13.05881904510251523 ) ) ;
#67 = CYLINDRICAL_SURFACE ( 'NONE', #122, 1.180854811567259466 ) ;
#68 = FACE_BOUND ( 'NONE', #312, .T. ) ;
#69 = CC_DESIGN_DATE_AND_TIME_ASSIGNMENT ( #394, #204, ( #195 ) ) ;
#70 = VERTEX_POINT ( 'NONE', #343 ) ;
#71 = EDGE_LOOP ( 'NONE', ( #218 ) ) ;
#72 = VERTEX_POINT ( 'NONE', #347 ) ;
#73 = CONICAL_SURFACE ( 'NONE', #32, 1.999999999999996669, 0.7853981633974504994 ) ;
#74 = AXIS2_PLACEMENT_3D ( 'NONE', #118, #29, #330 ) ;
#75 = ORIENTED_EDGE ( 'NONE', *, *, #237, .T. ) ;
#76 = APPROVAL_STATUS ( 'not_yet_approved' ) ;
#77 = EDGE_CURVE ( 'NONE', #107, #107, #263, .T. ) ;
#78 = ORIENTED_EDGE ( 'NONE', *, *, #315, .F. ) ;
#79 = DIRECTION ( 'NONE',  ( 3.491481338843133355E-15, -0.000000000000000000, 1.000000000000000000 ) ) ;
#80 = EDGE_LOOP ( 'NONE', ( #75 ) ) ;
#81 = DIRECTION ( 'NONE',  ( 1.000000000000000000, 0.000000000000000000, -5.876161773603444131E-15 ) ) ;
#82 = DIRECTION ( 'NONE',  ( 1.000000000000000000, 0.000000000000000000, -3.488971053077044435E-15 ) ) ;
#83 = FACE_OUTER_BOUND ( 'NONE', #286, .T. ) ;
#84 = CIRCLE ( 'NONE', #231, 1.584999999999999964 ) ;
#85 = COORDINATED_UNIVERSAL_TIME_OFFSET ( 1, 0, .AHEAD. ) ;
#86 = EDGE_LOOP ( 'NONE', ( #257 ) ) ;
#87 = CALENDAR_DATE ( 2023, 27, 9 ) ;
#88 = DIRECTION ( 'NONE',  ( -3.491481338843133355E-15, 0.000000000000000000, -1.000000000000000000 ) ) ;
#89 = PERSON_AND_ORGANIZATION ( #8, #320 ) ;
#90 = AXIS2_PLACEMENT_3D ( 'NONE', #251, #378, #82 ) ;
#91 = ADVANCED_FACE ( 'NONE', ( #266, #31 ), #388, .F. ) ;
#92 = DIRECTION ( 'NONE',  ( 1.000000000000000000, 0.000000000000000000, -4.377851043474592034E-15 ) ) ;
#93 = DIRECTION ( 'NONE',  ( 1.000000000000000000, 0.000000000000000000, -4.336808689942025625E-15 ) ) ;
#94 = LOCAL_TIME ( 10, 26, 58.00000000000000000, #230 ) ;
#95 = CARTESIAN_POINT ( 'NONE',  ( 1.466422162314116009E-13, 0.000000000000000000, 42.00000000000000000 ) ) ;
#96 = DIRECTION ( 'NONE',  ( 3.491481338843133355E-15, -0.000000000000000000, 1.000000000000000000 ) ) ;
#97 = DIRECTION ( 'NONE',  ( 3.491481338843133355E-15, -0.000000000000000000, 1.000000000000000000 ) ) ;
#98 = CIRCLE ( 'NONE', #90, 1.180854811567259688 ) ;
#99 = CC_DESIGN_APPROVAL ( #11, ( #346 ) ) ;
#100 = CC_DESIGN_PERSON_AND_ORGANIZATION_ASSIGNMENT ( #235, #327, ( #346 ) ) ;
#101 = ORIENTED_EDGE ( 'NONE', *, *, #50, .T. ) ;
#102 = DIRECTION ( 'NONE',  ( 1.000000000000000000, 0.000000000000000000, -3.245281793601472897E-15 ) ) ;
#103 = CARTESIAN_POINT ( 'NONE',  ( 1.180854811567264351, 0.000000000000000000, 1.399999999999994360 ) ) ;
#104 = ORIENTED_EDGE ( 'NONE', *, *, #121, .T. ) ;
#105 = EDGE_CURVE ( 'NONE', #171, #171, #98, .T. ) ;
#106 = DIRECTION ( 'NONE',  ( 3.491481338843133355E-15, -0.000000000000000000, 1.000000000000000000 ) ) ;
#107 = VERTEX_POINT ( 'NONE', #217 ) ;
#108 = FACE_OUTER_BOUND ( 'NONE', #71, .T. ) ;
#109 = ORIENTED_EDGE ( 'NONE', *, *, #77, .F. ) ;
#110 = FACE_OUTER_BOUND ( 'NONE', #243, .T. ) ;
#111 = CARTESIAN_POINT ( 'NONE',  ( 3.767890278168211853E-15, 0.000000000000000000, 1.079166666666665719 ) ) ;
#112 = EDGE_LOOP ( 'NONE', ( #139 ) ) ;
#113 = PERSON_AND_ORGANIZATION ( #8, #320 ) ;
#114 = AXIS2_PLACEMENT_3D ( 'NONE', #373, #138, #349 ) ;
#115 = DIRECTION ( 'NONE',  ( 1.000000000000000000, 0.000000000000000000, -3.557003972823106077E-15 ) ) ;
#116 = EDGE_LOOP ( 'NONE', ( #379 ) ) ;
#117 = ADVANCED_FACE ( 'NONE', ( #108 ), #194, .F. ) ;
#118 = CARTESIAN_POINT ( 'NONE',  ( 0.000000000000000000, 0.000000000000000000, 0.000000000000000000 ) ) ;
#119 = DIRECTION ( 'NONE',  ( 3.491481338843133355E-15, -0.000000000000000000, 1.000000000000000000 ) ) ;
#120 = CALENDAR_DATE ( 2023, 27, 9 ) ;
#121 = EDGE_CURVE ( 'NONE', #130, #130, #345, .T. ) ;
#122 = AXIS2_PLACEMENT_3D ( 'NONE', #306, #106, #24 ) ;
#123 = PERSON_AND_ORGANIZATION_ROLE ( 'design_owner' ) ;
#124 = CARTESIAN_POINT ( 'NONE',  ( 1.466422162314116009E-13, 0.000000000000000000, 42.00000000000000000 ) ) ;
#125 = CARTESIAN_POINT ( 'NONE',  ( 4.469096113719210695E-14, 0.000000000000000000, 12.80000000000000071 ) ) ;
#126 = FACE_BOUND ( 'NONE', #247, .T. ) ;
#127 = DIRECTION ( 'NONE',  ( 1.000000000000000000, 0.000000000000000000, -4.377851043474592034E-15 ) ) ;
#128 = ADVANCED_FACE ( 'NONE', ( #240, #368 ), #38, .T. ) ;
#129 = EDGE_LOOP ( 'NONE', ( #46 ) ) ;
#130 = VERTEX_POINT ( 'NONE', #103 ) ;
#131 = EDGE_LOOP ( 'NONE', ( #215 ) ) ;
#132 = CARTESIAN_POINT ( 'NONE',  ( 1.035000000000004805, 0.000000000000000000, 1.399999999999994804 ) ) ;
#133 = ORIENTED_EDGE ( 'NONE', *, *, #162, .F. ) ;
#134 = VERTEX_POINT ( 'NONE', #287 ) ;
#135 = DIRECTION ( 'NONE',  ( -1.000000000000000000, 0.000000000000000000, 3.488600050268815712E-15 ) ) ;
#136 = AXIS2_PLACEMENT_3D ( 'NONE', #357, #88, #48 ) ;
#137 = EDGE_LOOP ( 'NONE', ( #104 ) ) ;
#138 = DIRECTION ( 'NONE',  ( 3.491481338843133355E-15, -0.000000000000000000, 1.000000000000000000 ) ) ;
#139 = ORIENTED_EDGE ( 'NONE', *, *, #121, .F. ) ;
#140 = CC_DESIGN_DATE_AND_TIME_ASSIGNMENT ( #387, #26, ( #192 ) ) ;
#141 = CARTESIAN_POINT ( 'NONE',  ( 5.772494562471367284E-14, 0.000000000000000000, 16.53308152689145771 ) ) ;
#142 = COORDINATED_UNIVERSAL_TIME_OFFSET ( 1, 0, .AHEAD. ) ;
#143 = CIRCLE ( 'NONE', #319, 1.599999999999997202 ) ;
#144 = FACE_BOUND ( 'NONE', #157, .T. ) ;
#145 = DATE_AND_TIME ( #87, #94 ) ;
#146 = ADVANCED_FACE ( 'NONE', ( #275, #307 ), #207, .T. ) ;
#147 = APPLICATION_PROTOCOL_DEFINITION ( 'international standard', 'config_control_design', 1994, #386 ) ;
#148 = CIRCLE ( 'NONE', #385, 1.584999999999999964 ) ;
#149 = FACE_OUTER_BOUND ( 'NONE', #262, .T. ) ;
#150 = DIRECTION ( 'NONE',  ( 3.491481338843133355E-15, -0.000000000000000000, 1.000000000000000000 ) ) ;
#151 = CARTESIAN_POINT ( 'NONE',  ( 1.466422162314116009E-13, 0.000000000000000000, 42.00000000000000000 ) ) ;
#152 = AXIS2_PLACEMENT_3D ( 'NONE', #7, #62, #331 ) ;
#153 = LOCAL_TIME ( 10, 26, 58.00000000000000000, #178 ) ;
#154 = UNCERTAINTY_MEASURE_WITH_UNIT (LENGTH_MEASURE( 1.000000000000000082E-05 ), #375, 'distance_accuracy_value', 'NONE');
#155 = DIRECTION ( 'NONE',  ( 3.491481338843133355E-15, -0.000000000000000000, 1.000000000000000000 ) ) ;
#156 = ADVANCED_FACE ( 'NONE', ( #149, #68 ), #353, .T. ) ;
#157 = EDGE_LOOP ( 'NONE', ( #169 ) ) ;
#158 = COORDINATED_UNIVERSAL_TIME_OFFSET ( 1, 0, .AHEAD. ) ;
#159 = AXIS2_PLACEMENT_3D ( 'NONE', #225, #285, #102 ) ;
#160 = DIRECTION ( 'NONE',  ( -3.491481338843133355E-15, 0.000000000000000000, -1.000000000000000000 ) ) ;
#161 = APPROVAL_PERSON_ORGANIZATION ( #113, #11, #233 ) ;
#162 = EDGE_CURVE ( 'NONE', #72, #72, #206, .T. ) ;
#163 = PRODUCT_DEFINITION_SHAPE ( 'NONE', 'NONE',  #192 ) ;
#164 = CARTESIAN_POINT ( 'NONE',  ( 1.120183596212169716E-15, 0.000000000000000000, 0.3208333333333326931 ) ) ;
#165 = EDGE_LOOP ( 'NONE', ( #341 ) ) ;
#166 = DIRECTION ( 'NONE',  ( 1.000000000000000000, 0.000000000000000000, -3.469446951953617344E-15 ) ) ;
#167 = EDGE_LOOP ( 'NONE', ( #78 ) ) ;
#168 = AXIS2_PLACEMENT_3D ( 'NONE', #124, #273, #242 ) ;
#169 = ORIENTED_EDGE ( 'NONE', *, *, #226, .F. ) ;
#170 = ADVANCED_FACE ( 'NONE', ( #179 ), #366, .F. ) ;
#171 = VERTEX_POINT ( 'NONE', #10 ) ;
#172 = EDGE_LOOP ( 'NONE', ( #101 ) ) ;
#173 = APPROVAL_STATUS ( 'not_yet_approved' ) ;
#174 = DIRECTION ( 'NONE',  ( -1.000000000000000000, 0.000000000000000000, 3.469446951953620105E-15 ) ) ;
#175 = PERSON_AND_ORGANIZATION ( #8, #320 ) ;
#176 = CONICAL_SURFACE ( 'NONE', #2, 1.584999999999999964, 1.047197551196596521 ) ;
#177 = AXIS2_PLACEMENT_3D ( 'NONE', #365, #96, #360 ) ;
#178 = COORDINATED_UNIVERSAL_TIME_OFFSET ( 1, 0, .AHEAD. ) ;
#179 = FACE_OUTER_BOUND ( 'NONE', #227, .T. ) ;
#180 = FACE_BOUND ( 'NONE', #292, .T. ) ;
#181 = CARTESIAN_POINT ( 'NONE',  ( 0.000000000000000000, 0.000000000000000000, 0.000000000000000000 ) ) ;
#182 = EDGE_CURVE ( 'NONE', #249, #249, #52, .T. ) ;
#183 = DIRECTION ( 'NONE',  ( 3.491481338843133355E-15, -0.000000000000000000, 1.000000000000000000 ) ) ;
#184 = AXIS2_PLACEMENT_3D ( 'NONE', #241, #277, #208 ) ;
#185 = DIRECTION ( 'NONE',  ( -3.491481338843133355E-15, 0.000000000000000000, -1.000000000000000000 ) ) ;
#186 = CARTESIAN_POINT ( 'NONE',  ( 1.585000000000001075, 0.000000000000000000, 0.3208333333333271420 ) ) ;
#187 = ORIENTED_EDGE ( 'NONE', *, *, #329, .T. ) ;
#188 = CIRCLE ( 'NONE', #282, 1.029300365904982639 ) ;
#189 = CARTESIAN_POINT ( 'NONE',  ( 1.069074173710973907, 0.000000000000000000, 13.05881904510251168 ) ) ;
#190 = ORIENTED_EDGE ( 'NONE', *, *, #237, .F. ) ;
#191 = VERTEX_POINT ( 'NONE', #44 ) ;
#192 = PRODUCT_DEFINITION ( 'UNKNOWN', '', #346, #309 ) ;
#193 = CYLINDRICAL_SURFACE ( 'NONE', #58, 1.999999999999998224 ) ;
#194 = PLANE ( 'NONE',  #391 ) ;
#195 = SECURITY_CLASSIFICATION ( '', '', #56 ) ;
#196 = DIRECTION ( 'NONE',  ( 3.491481338843133355E-15, -0.000000000000000000, 1.000000000000000000 ) ) ;
#197 = DIRECTION ( 'NONE',  ( -3.491481338843133355E-15, 0.000000000000000000, -1.000000000000000000 ) ) ;
#198 = PERSON_AND_ORGANIZATION ( #8, #320 ) ;
#199 = DIRECTION ( 'NONE',  ( -1.000000000000000000, 0.000000000000000000, 3.557003972823106077E-15 ) ) ;
#200 = ADVANCED_FACE ( 'NONE', ( #205, #34 ), #313, .F. ) ;
#201 = DIRECTION ( 'NONE',  ( 3.491481338843133355E-15, -0.000000000000000000, 1.000000000000000000 ) ) ;
#202 = CIRCLE ( 'NONE', #253, 1.180854811567259466 ) ;
#203 = LOCAL_TIME ( 10, 26, 58.00000000000000000, #85 ) ;
#204 = DATE_TIME_ROLE ( 'classification_date' ) ;
#205 = FACE_OUTER_BOUND ( 'NONE', #86, .T. ) ;
#206 = CIRCLE ( 'NONE', #152, 1.584999999999999964 ) ;
#207 = CYLINDRICAL_SURFACE ( 'NONE', #168, 1.034999999999999032 ) ;
#208 = DIRECTION ( 'NONE',  ( 1.000000000000000000, 0.000000000000000000, -3.469446951953620105E-15 ) ) ;
#209 = ADVANCED_FACE ( 'NONE', ( #362, #126 ), #376, .T. ) ;
#210 = FACE_OUTER_BOUND ( 'NONE', #112, .T. ) ;
#211 = DIRECTION ( 'NONE',  ( 3.491481338843133355E-15, -0.000000000000000000, 1.000000000000000000 ) ) ;
#212 = CALENDAR_DATE ( 2023, 27, 9 ) ;
#213 = AXIS2_PLACEMENT_3D ( 'NONE', #1, #185, #335 ) ;
#214 = LOCAL_TIME ( 10, 26, 58.00000000000000000, #158 ) ;
#215 = ORIENTED_EDGE ( 'NONE', *, *, #50, .F. ) ;
#216 = APPROVAL_ROLE ( '' ) ;
#217 = CARTESIAN_POINT ( 'NONE',  ( 1.585000000000003517, 0.000000000000000000, 1.020833333333326376 ) ) ;
#218 = ORIENTED_EDGE ( 'NONE', *, *, #308, .F. ) ;
#219 = APPROVAL_DATE_TIME ( #248, #332 ) ;
#220 = CARTESIAN_POINT ( 'NONE',  ( 1.180854811567261686, 0.000000000000000000, 0.6124999999999978240 ) ) ;
#221 = DIRECTION ( 'NONE',  ( 1.000000000000000000, 0.000000000000000000, -3.491481338843133355E-15 ) ) ;
#222 = EDGE_LOOP ( 'NONE', ( #280 ) ) ;
#223 = CIRCLE ( 'NONE', #114, 1.034999999999998366 ) ;
#224 = CARTESIAN_POINT ( 'NONE',  ( 1.035000000000042997, 0.000000000000000000, 12.79999999999999538 ) ) ;
#225 = CARTESIAN_POINT ( 'NONE',  ( 4.559462300330473908E-14, 0.000000000000000000, 13.05881904510251523 ) ) ;
#226 = EDGE_CURVE ( 'NONE', #134, #134, #143, .T. ) ;
#227 = EDGE_LOOP ( 'NONE', ( #18 ) ) ;
#228 = DIRECTION ( 'NONE',  ( 3.491481338843133355E-15, -0.000000000000000000, 1.000000000000000000 ) ) ;
#229 = DIRECTION ( 'NONE',  ( -3.491481338843133355E-15, 0.000000000000000000, -1.000000000000000000 ) ) ;
#230 = COORDINATED_UNIVERSAL_TIME_OFFSET ( 1, 0, .AHEAD. ) ;
#231 = AXIS2_PLACEMENT_3D ( 'NONE', #164, #228, #314 ) ;
#232 = CARTESIAN_POINT ( 'NONE',  ( 3.767890278168211853E-15, 0.000000000000000000, 1.079166666666665719 ) ) ;
#233 = APPROVAL_ROLE ( '' ) ;
#234 = EDGE_LOOP ( 'NONE', ( #383 ) ) ;
#235 = PERSON_AND_ORGANIZATION ( #8, #320 ) ;
#236 = APPLICATION_PROTOCOL_DEFINITION ( 'international standard', 'config_control_design', 1994, #15 ) ;
#237 = EDGE_CURVE ( 'NONE', #245, #245, #202, .T. ) ;
#238 = DIRECTION ( 'NONE',  ( 1.000000000000000000, 0.000000000000000000, -3.491481338843133355E-15 ) ) ;
#239 = DIRECTION ( 'NONE',  ( 3.491481338843133355E-15, -0.000000000000000000, 1.000000000000000000 ) ) ;
#240 = FACE_OUTER_BOUND ( 'NONE', #20, .T. ) ;
#241 = CARTESIAN_POINT ( 'NONE',  ( 1.452456236958743728E-13, 0.000000000000000000, 41.60000000000000853 ) ) ;
#242 = DIRECTION ( 'NONE',  ( 1.000000000000000000, 0.000000000000000000, -6.704245317784768219E-15 ) ) ;
#243 = EDGE_LOOP ( 'NONE', ( #310 ) ) ;
#244 = CONICAL_SURFACE ( 'NONE', #281, 1.584999999999999964, 1.047197551196596743 ) ;
#245 = VERTEX_POINT ( 'NONE', #220 ) ;
#246 = EDGE_CURVE ( 'NONE', #255, #255, #369, .T. ) ;
#247 = EDGE_LOOP ( 'NONE', ( #318 ) ) ;
#248 = DATE_AND_TIME ( #212, #214 ) ;
#249 = VERTEX_POINT ( 'NONE', #17 ) ;
#250 = EDGE_LOOP ( 'NONE', ( #259 ) ) ;
#251 = CARTESIAN_POINT ( 'NONE',  ( 4.582569257231616473E-15, 0.000000000000000000, 1.312500000000001110 ) ) ;
#252 = EDGE_LOOP ( 'NONE', ( #187 ) ) ;
#253 = AXIS2_PLACEMENT_3D ( 'NONE', #334, #211, #36 ) ;
#254 = ADVANCED_FACE ( 'NONE', ( #65, #180 ), #364, .T. ) ;
#255 = VERTEX_POINT ( 'NONE', #371 ) ;
#256 = PRODUCT ( '961172', '961172', '', ( #299 ) ) ;
#257 = ORIENTED_EDGE ( 'NONE', *, *, #381, .F. ) ;
#258 = CARTESIAN_POINT ( 'NONE',  ( 1.323853340978020871E-15, 0.000000000000000000, 0.3791666666666665408 ) ) ;
#259 = ORIENTED_EDGE ( 'NONE', *, *, #329, .F. ) ;
#260 = PERSON_AND_ORGANIZATION ( #8, #320 ) ;
#261 = CC_DESIGN_PERSON_AND_ORGANIZATION_ASSIGNMENT ( #260, #123, ( #256 ) ) ;
#262 = EDGE_LOOP ( 'NONE', ( #109 ) ) ;
#263 = CIRCLE ( 'NONE', #337, 1.584999999999999964 ) ;
#264 = PERSON_AND_ORGANIZATION_ROLE ( 'creator' ) ;
#265 = LOCAL_TIME ( 10, 26, 58.00000000000000000, #142 ) ;
#266 = FACE_BOUND ( 'NONE', #131, .T. ) ;
#267 = APPROVAL_DATE_TIME ( #145, #11 ) ;
#268 =( NAMED_UNIT ( * ) SI_UNIT ( $, .STERADIAN. ) SOLID_ANGLE_UNIT ( ) );
#269 = APPROVAL_ROLE ( '' ) ;
#270 = ADVANCED_FACE ( 'NONE', ( #5, #302 ), #35, .T. ) ;
#271 = CIRCLE ( 'NONE', #300, 1.034999999999999920 ) ;
#272 = DIRECTION ( 'NONE',  ( 1.000000000000000000, 0.000000000000000000, -3.488971053077044435E-15 ) ) ;
#273 = DIRECTION ( 'NONE',  ( 3.491481338843133355E-15, -0.000000000000000000, 1.000000000000000000 ) ) ;
#274 = DIRECTION ( 'NONE',  ( 1.000000000000000000, 0.000000000000000000, -3.488971053077045224E-15 ) ) ;
#275 = FACE_OUTER_BOUND ( 'NONE', #250, .T. ) ;
#276 = CIRCLE ( 'NONE', #289, 2.000000000000000000 ) ;
#277 = DIRECTION ( 'NONE',  ( 3.491481338843133355E-15, -0.000000000000000000, 1.000000000000000000 ) ) ;
#278 = ADVANCED_BREP_SHAPE_REPRESENTATION ( '961172', ( #304, #74 ), #4 ) ;
#279 = DIRECTION ( 'NONE',  ( 3.491481338843133355E-15, -0.000000000000000000, 1.000000000000000000 ) ) ;
#280 = ORIENTED_EDGE ( 'NONE', *, *, #182, .F. ) ;
#281 = AXIS2_PLACEMENT_3D ( 'NONE', #258, #160, #135 ) ;
#282 = AXIS2_PLACEMENT_3D ( 'NONE', #27, #196, #382 ) ;
#283 = CC_DESIGN_APPROVAL ( #60, ( #192 ) ) ;
#284 = CARTESIAN_POINT ( 'NONE',  ( 1.466422162314116009E-13, 0.000000000000000000, 42.00000000000000000 ) ) ;
#285 = DIRECTION ( 'NONE',  ( 3.491481338843133355E-15, -0.000000000000000000, 1.000000000000000000 ) ) ;
#286 = EDGE_LOOP ( 'NONE', ( #54 ) ) ;
#287 = CARTESIAN_POINT ( 'NONE',  ( 1.600000000000143752, 0.000000000000000000, 41.99999999999999289 ) ) ;
#288 = ORIENTED_EDGE ( 'NONE', *, *, #308, .T. ) ;
#289 = AXIS2_PLACEMENT_3D ( 'NONE', #141, #201, #355 ) ;
#290 = CC_DESIGN_SECURITY_CLASSIFICATION ( #195, ( #346 ) ) ;
#291 = CARTESIAN_POINT ( 'NONE',  ( 1.466422162314116009E-13, 0.000000000000000000, 42.00000000000000000 ) ) ;
#292 = EDGE_LOOP ( 'NONE', ( #288 ) ) ;
#293 = PERSON_AND_ORGANIZATION ( #8, #320 ) ;
#294 = FACE_OUTER_BOUND ( 'NONE', #40, .T. ) ;
#295 = DIRECTION ( 'NONE',  ( 3.491481338843133355E-15, -0.000000000000000000, 1.000000000000000000 ) ) ;
#296 = CLOSED_SHELL ( 'NONE', ( #117, #254, #128, #338, #324, #156, #270, #6, #298, #91, #146, #200, #209, #389, #22, #170 ) ) ;
#297 = APPROVAL_PERSON_ORGANIZATION ( #198, #332, #216 ) ;
#298 = ADVANCED_FACE ( 'NONE', ( #210, #336 ), #67, .T. ) ;
#299 = MECHANICAL_CONTEXT ( 'NONE', #15, 'mechanical' ) ;
#300 = AXIS2_PLACEMENT_3D ( 'NONE', #55, #119, #328 ) ;
#301 = CARTESIAN_POINT ( 'NONE',  ( 2.749541554338979745E-15, 0.000000000000000000, 0.7875000000000034195 ) ) ;
#302 = FACE_OUTER_BOUND ( 'NONE', #234, .T. ) ;
#303 = DIRECTION ( 'NONE',  ( 1.000000000000000000, 0.000000000000000000, -3.491481338843133355E-15 ) ) ;
#304 = MANIFOLD_SOLID_BREP ( 'Corps-Déplacer/Copier1', #296 ) ;
#305 = AXIS2_PLACEMENT_3D ( 'NONE', #45, #361, #274 ) ;
#306 = CARTESIAN_POINT ( 'NONE',  ( 1.466422162314116009E-13, 0.000000000000000000, 42.00000000000000000 ) ) ;
#307 = FACE_OUTER_BOUND ( 'NONE', #172, .T. ) ;
#308 = EDGE_CURVE ( 'NONE', #70, #70, #188, .T. ) ;
#309 = DESIGN_CONTEXT ( 'detailed design', #386, 'design' ) ;
#310 = ORIENTED_EDGE ( 'NONE', *, *, #30, .T. ) ;
#311 = VERTEX_POINT ( 'NONE', #189 ) ;
#312 = EDGE_LOOP ( 'NONE', ( #348 ) ) ;
#313 = TOROIDAL_SURFACE ( 'NONE', #63, 2.034999999999998810, 1.000000000000000000 ) ;
#314 = DIRECTION ( 'NONE',  ( 1.000000000000000000, 0.000000000000000000, -3.488600050268815712E-15 ) ) ;
#315 = EDGE_CURVE ( 'NONE', #191, #191, #148, .T. ) ;
#316 = ORIENTED_EDGE ( 'NONE', *, *, #246, .T. ) ;
#317 =( NAMED_UNIT ( * ) PLANE_ANGLE_UNIT ( ) SI_UNIT ( $, .RADIAN. ) );
#318 = ORIENTED_EDGE ( 'NONE', *, *, #381, .T. ) ;
#319 = AXIS2_PLACEMENT_3D ( 'NONE', #95, #279, #93 ) ;
#320 = ORGANIZATION ( 'UNSPECIFIED', 'UNSPECIFIED', '' ) ;
#321 = CYLINDRICAL_SURFACE ( 'NONE', #33, 1.180854811567259466 ) ;
#322 = FACE_OUTER_BOUND ( 'NONE', #222, .T. ) ;
#323 = ORIENTED_EDGE ( 'NONE', *, *, #162, .T. ) ;
#324 = ADVANCED_FACE ( 'NONE', ( #322, #326 ), #321, .T. ) ;
#325 = PERSON_AND_ORGANIZATION ( #8, #320 ) ;
#326 = FACE_OUTER_BOUND ( 'NONE', #80, .T. ) ;
#327 = PERSON_AND_ORGANIZATION_ROLE ( 'design_supplier' ) ;
#328 = DIRECTION ( 'NONE',  ( 1.000000000000000000, 0.000000000000000000, -3.561630325073155207E-15 ) ) ;
#329 = EDGE_CURVE ( 'NONE', #23, #23, #223, .T. ) ;
#330 = DIRECTION ( 'NONE',  ( 1.000000000000000000, 0.000000000000000000, 0.000000000000000000 ) ) ;
#331 = DIRECTION ( 'NONE',  ( 1.000000000000000000, 0.000000000000000000, -3.488600050268815712E-15 ) ) ;
#332 = APPROVAL ( #76, 'UNSPECIFIED' ) ;
#333 = CIRCLE ( 'NONE', #159, 1.069074173710928388 ) ;
#334 = CARTESIAN_POINT ( 'NONE',  ( 2.138532320041425885E-15, 0.000000000000000000, 0.6125000000000019318 ) ) ;
#335 = DIRECTION ( 'NONE',  ( -1.000000000000000000, 0.000000000000000000, 3.491481338843133355E-15 ) ) ;
#336 = FACE_OUTER_BOUND ( 'NONE', #165, .T. ) ;
#337 = AXIS2_PLACEMENT_3D ( 'NONE', #351, #295, #57 ) ;
#338 = ADVANCED_FACE ( 'NONE', ( #41, #47 ), #244, .T. ) ;
#339 = DIRECTION ( 'NONE',  ( 1.000000000000000000, 0.000000000000000000, -3.245281793601472897E-15 ) ) ;
#340 = CARTESIAN_POINT ( 'NONE',  ( 2.000000000000057732, 0.000000000000000000, 16.53308152689145061 ) ) ;
#341 = ORIENTED_EDGE ( 'NONE', *, *, #105, .T. ) ;
#342 = CC_DESIGN_PERSON_AND_ORGANIZATION_ASSIGNMENT ( #89, #59, ( #195 ) ) ;
#343 = CARTESIAN_POINT ( 'NONE',  ( 1.029300365904982639, 0.000000000000000000, -3.593783019621656040E-15 ) ) ;
#344 = ORIENTED_EDGE ( 'NONE', *, *, #30, .F. ) ;
#345 = CIRCLE ( 'NONE', #305, 1.180854811567259466 ) ;
#346 = PRODUCT_DEFINITION_FORMATION_WITH_SPECIFIED_SOURCE ( 'ANY', '', #256, .NOT_KNOWN. ) ;
#347 = CARTESIAN_POINT ( 'NONE',  ( 1.585000000000001297, 0.000000000000000000, 0.3791666666666609897 ) ) ;
#348 = ORIENTED_EDGE ( 'NONE', *, *, #182, .T. ) ;
#349 = DIRECTION ( 'NONE',  ( 1.000000000000000000, 0.000000000000000000, -3.352122658892386082E-15 ) ) ;
#350 = DIRECTION ( 'NONE',  ( 3.491481338843133355E-15, -0.000000000000000000, 1.000000000000000000 ) ) ;
#351 = CARTESIAN_POINT ( 'NONE',  ( 3.564220533402360304E-15, 0.000000000000000000, 1.020833333333331927 ) ) ;
#352 = CC_DESIGN_PERSON_AND_ORGANIZATION_ASSIGNMENT ( #293, #264, ( #192 ) ) ;
#353 = CONICAL_SURFACE ( 'NONE', #21, 1.180854811567259688, 1.047197551196609400 ) ;
#354 = APPROVAL_PERSON_ORGANIZATION ( #325, #60, #269 ) ;
#355 = DIRECTION ( 'NONE',  ( 1.000000000000000000, 0.000000000000000000, -3.469446951953614189E-15 ) ) ;
#356 = APPROVAL_STATUS ( 'not_yet_approved' ) ;
#357 = CARTESIAN_POINT ( 'NONE',  ( 4.888073874380386697E-15, 1.180854811567259466, 1.399999999999999911 ) ) ;
#358 = DATE_AND_TIME ( #392, #265 ) ;
#359 = AXIS2_PLACEMENT_3D ( 'NONE', #66, #155, #339 ) ;
#360 = DIRECTION ( 'NONE',  ( 1.000000000000000000, 0.000000000000000000, -3.488971053077044435E-15 ) ) ;
#361 = DIRECTION ( 'NONE',  ( 3.491481338843133355E-15, -0.000000000000000000, 1.000000000000000000 ) ) ;
#362 = FACE_OUTER_BOUND ( 'NONE', #51, .T. ) ;
#363 = CALENDAR_DATE ( 2023, 27, 9 ) ;
#364 = CONICAL_SURFACE ( 'NONE', #37, 1.029300365904982639, 1.047197551196600518 ) ;
#365 = CARTESIAN_POINT ( 'NONE',  ( 2.749541554338979745E-15, 0.000000000000000000, 0.7875000000000034195 ) ) ;
#366 = PLANE ( 'NONE',  #213 ) ;
#367 = EDGE_CURVE ( 'NONE', #19, #19, #84, .T. ) ;
#368 = FACE_OUTER_BOUND ( 'NONE', #116, .T. ) ;
#369 = CIRCLE ( 'NONE', #184, 1.999999999999996669 ) ;
#370 = EDGE_LOOP ( 'NONE', ( #25 ) ) ;
#371 = CARTESIAN_POINT ( 'NONE',  ( 2.000000000000141664, 0.000000000000000000, 41.60000000000000142 ) ) ;
#372 = EDGE_LOOP ( 'NONE', ( #190 ) ) ;
#373 = CARTESIAN_POINT ( 'NONE',  ( 4.469096113719210695E-14, 0.000000000000000000, 12.79999999999999893 ) ) ;
#374 = DIRECTION ( 'NONE',  ( 3.491481338843133355E-15, -0.000000000000000000, 1.000000000000000000 ) ) ;
#375 =( LENGTH_UNIT ( ) NAMED_UNIT ( * ) SI_UNIT ( .MILLI., .METRE. ) );
#376 = CONICAL_SURFACE ( 'NONE', #359, 1.069074173710928388, 0.2617993877991429685 ) ;
#377 = DIRECTION ( 'NONE',  ( 3.491481338843133355E-15, -0.000000000000000000, 1.000000000000000000 ) ) ;
#378 = DIRECTION ( 'NONE',  ( 3.491481338843133355E-15, -0.000000000000000000, 1.000000000000000000 ) ) ;
#379 = ORIENTED_EDGE ( 'NONE', *, *, #367, .T. ) ;
#380 = FACE_OUTER_BOUND ( 'NONE', #129, .T. ) ;
#381 = EDGE_CURVE ( 'NONE', #311, #311, #333, .T. ) ;
#382 = DIRECTION ( 'NONE',  ( 1.000000000000000000, 0.000000000000000000, -3.491481338843133355E-15 ) ) ;
#383 = ORIENTED_EDGE ( 'NONE', *, *, #77, .T. ) ;
#384 = FACE_BOUND ( 'NONE', #9, .T. ) ;
#385 = AXIS2_PLACEMENT_3D ( 'NONE', #111, #350, #115 ) ;
#386 = APPLICATION_CONTEXT ( 'configuration controlled 3d designs of mechanical parts and assemblies' ) ;
#387 = DATE_AND_TIME ( #120, #203 ) ;
#388 = PLANE ( 'NONE',  #136 ) ;
#389 = ADVANCED_FACE ( 'NONE', ( #380, #110 ), #193, .T. ) ;
#390 = PERSON_AND_ORGANIZATION_ROLE ( 'creator' ) ;
#391 = AXIS2_PLACEMENT_3D ( 'NONE', #43, #374, #221 ) ;
#392 = CALENDAR_DATE ( 2023, 27, 9 ) ;
#393 = CARTESIAN_POINT ( 'NONE',  ( 1.466422162314116009E-13, 0.000000000000000000, 42.00000000000000000 ) ) ;
#394 = DATE_AND_TIME ( #363, #153 ) ;
#395 = PRODUCT_RELATED_PRODUCT_CATEGORY ( 'detail', '', ( #256 ) ) ;
ENDSEC;
END-ISO-10303-21;
