ISO-10303-21;
HEADER;
FILE_DESCRIPTION (( 'STEP AP203' ),
    '1' );
FILE_NAME ('961171.step',
    '2023-09-27T08:26:57',
    ( '' ),
    ( '' ),
    'SwSTEP 2.0',
    'SolidWorks 2022',
    '' );
FILE_SCHEMA (( 'CONFIG_CONTROL_DESIGN' ));
ENDSEC;

DATA;
#1 = DIRECTION ( 'NONE',  ( -3.491481338843133355E-15, 0.000000000000000000, -1.000000000000000000 ) ) ;
#2 = CIRCLE ( 'NONE', #63, 1.599999999999997202 ) ;
#3 = FACE_OUTER_BOUND ( 'NONE', #167, .T. ) ;
#4 = DIRECTION ( 'NONE',  ( 3.491481338843133355E-15, -0.000000000000000000, 1.000000000000000000 ) ) ;
#5 = DIRECTION ( 'NONE',  ( 1.000000000000000000, 0.000000000000000000, -3.450126754535575604E-15 ) ) ;
#6 = AXIS2_PLACEMENT_3D ( 'NONE', #65, #43, #155 ) ;
#7 = CARTESIAN_POINT ( 'NONE',  ( 0.000000000000000000, 0.000000000000000000, 0.000000000000000000 ) ) ;
#8 = PLANE ( 'NONE',  #175 ) ;
#9 = DIRECTION ( 'NONE',  ( -1.000000000000000000, 0.000000000000000000, 3.523657060577889411E-15 ) ) ;
#10 = APPROVAL ( #189, 'UNSPECIFIED' ) ;
#11 = CARTESIAN_POINT ( 'NONE',  ( 3.491481338843136511E-15, 0.000000000000000000, 1.000000000000000888 ) ) ;
#12 = EDGE_LOOP ( 'NONE', ( #168 ) ) ;
#13 = MECHANICAL_CONTEXT ( 'NONE', #281, 'mechanical' ) ;
#14 = APPROVAL_ROLE ( '' ) ;
#15 = CC_DESIGN_DATE_AND_TIME_ASSIGNMENT ( #74, #255, ( #142 ) ) ;
#16 = CARTESIAN_POINT ( 'NONE',  ( 2.000000000000141664, 0.000000000000000000, 41.60000000000000142 ) ) ;
#17 = EDGE_LOOP ( 'NONE', ( #41 ) ) ;
#18 = PERSON_AND_ORGANIZATION ( #77, #152 ) ;
#19 = CONICAL_SURFACE ( 'NONE', #393, 1.199999999999999956, 1.047197551196593412 ) ;
#20 = ORIENTED_EDGE ( 'NONE', *, *, #237, .F. ) ;
#21 = CARTESIAN_POINT ( 'NONE',  ( 2.000000000000049294, 0.000000000000000000, 14.17279295859447075 ) ) ;
#22 = FACE_OUTER_BOUND ( 'NONE', #73, .T. ) ;
#23 = ORIENTED_EDGE ( 'NONE', *, *, #308, .T. ) ;
#24 = DATE_TIME_ROLE ( 'classification_date' ) ;
#25 = ORIENTED_EDGE ( 'NONE', *, *, #305, .T. ) ;
#26 = CALENDAR_DATE ( 2023, 27, 9 ) ;
#27 = AXIS2_PLACEMENT_3D ( 'NONE', #368, #87, #298 ) ;
#28 = CARTESIAN_POINT ( 'NONE',  ( 1.466422162314116009E-13, 0.000000000000000000, 42.00000000000000000 ) ) ;
#29 = COORDINATED_UNIVERSAL_TIME_OFFSET ( 1, 0, .AHEAD. ) ;
#30 = DIRECTION ( 'NONE',  ( 3.491481338843133355E-15, -0.000000000000000000, 1.000000000000000000 ) ) ;
#31 = DIRECTION ( 'NONE',  ( 1.000000000000000000, 0.000000000000000000, -3.469446951953620105E-15 ) ) ;
#32 = AXIS2_PLACEMENT_3D ( 'NONE', #186, #291, #288 ) ;
#33 = DIRECTION ( 'NONE',  ( 3.491481338843133355E-15, -0.000000000000000000, 1.000000000000000000 ) ) ;
#34 = DIRECTION ( 'NONE',  ( 1.000000000000000000, 0.000000000000000000, -3.491481338843133355E-15 ) ) ;
#35 = PRODUCT_RELATED_PRODUCT_CATEGORY ( 'detail', '', ( #244 ) ) ;
#36 = DIRECTION ( 'NONE',  ( -3.491481338843133355E-15, 0.000000000000000000, -1.000000000000000000 ) ) ;
#37 =( GEOMETRIC_REPRESENTATION_CONTEXT ( 3 ) GLOBAL_UNCERTAINTY_ASSIGNED_CONTEXT ( ( #136 ) ) GLOBAL_UNIT_ASSIGNED_CONTEXT ( ( #220, #159, #357 ) ) REPRESENTATION_CONTEXT ( 'NONE', 'WORKASPACE' ) );
#38 = FACE_OUTER_BOUND ( 'NONE', #78, .T. ) ;
#39 = DIRECTION ( 'NONE',  ( 1.000000000000000000, 0.000000000000000000, -3.501069515317774866E-15 ) ) ;
#40 = DIRECTION ( 'NONE',  ( 1.000000000000000000, 0.000000000000000000, -3.469446951953614189E-15 ) ) ;
#41 = ORIENTED_EDGE ( 'NONE', *, *, #358, .T. ) ;
#42 = AXIS2_PLACEMENT_3D ( 'NONE', #334, #4, #116 ) ;
#43 = DIRECTION ( 'NONE',  ( 3.491481338843133355E-15, -0.000000000000000000, 1.000000000000000000 ) ) ;
#44 = EDGE_LOOP ( 'NONE', ( #105 ) ) ;
#45 = VERTEX_POINT ( 'NONE', #320 ) ;
#46 = ADVANCED_FACE ( 'NONE', ( #51, #138 ), #315, .F. ) ;
#47 = EDGE_LOOP ( 'NONE', ( #267 ) ) ;
#48 = APPROVAL_STATUS ( 'not_yet_approved' ) ;
#49 = ORIENTED_EDGE ( 'NONE', *, *, #386, .F. ) ;
#50 = AXIS2_PLACEMENT_3D ( 'NONE', #11, #377, #311 ) ;
#51 = FACE_OUTER_BOUND ( 'NONE', #12, .T. ) ;
#52 = ADVANCED_FACE ( 'NONE', ( #22, #112 ), #232, .T. ) ;
#53 = ORIENTED_EDGE ( 'NONE', *, *, #218, .T. ) ;
#54 = ORIENTED_EDGE ( 'NONE', *, *, #123, .T. ) ;
#55 = DIRECTION ( 'NONE',  ( -1.000000000000000000, 0.000000000000000000, 3.491481338843133355E-15 ) ) ;
#56 = CIRCLE ( 'NONE', #276, 0.9113248654051855357 ) ;
#57 = AXIS2_PLACEMENT_3D ( 'NONE', #59, #30, #144 ) ;
#58 = ADVANCED_FACE ( 'NONE', ( #329, #370 ), #362, .T. ) ;
#59 = CARTESIAN_POINT ( 'NONE',  ( 3.491481338843136511E-15, 0.000000000000000000, 1.000000000000000888 ) ) ;
#60 = FACE_OUTER_BOUND ( 'NONE', #47, .T. ) ;
#61 = DIRECTION ( 'NONE',  ( -1.000000000000000000, 0.000000000000000000, 3.478481970057660322E-15 ) ) ;
#62 = MANIFOLD_SOLID_BREP ( 'Corps-Déplacer/Copier1', #89 ) ;
#63 = AXIS2_PLACEMENT_3D ( 'NONE', #270, #145, #171 ) ;
#64 = DIRECTION ( 'NONE',  ( 1.000000000000000000, 0.000000000000000000, -3.450126754535575604E-15 ) ) ;
#65 = CARTESIAN_POINT ( 'NONE',  ( 0.000000000000000000, 0.000000000000000000, 0.000000000000000000 ) ) ;
#66 = CARTESIAN_POINT ( 'NONE',  ( 2.691350198691576176E-15, 0.000000000000000000, 0.7708333333333317050 ) ) ;
#67 = CIRCLE ( 'NONE', #42, 0.8099999999999990541 ) ;
#68 = CC_DESIGN_PERSON_AND_ORGANIZATION_ASSIGNMENT ( #76, #217, ( #289 ) ) ;
#69 = FACE_OUTER_BOUND ( 'NONE', #326, .T. ) ;
#70 = CYLINDRICAL_SURFACE ( 'NONE', #283, 1.999999999999998224 ) ;
#71 = DIRECTION ( 'NONE',  ( -1.000000000000000000, 0.000000000000000000, 3.491481338843133355E-15 ) ) ;
#72 = CIRCLE ( 'NONE', #140, 1.999999999999996669 ) ;
#73 = EDGE_LOOP ( 'NONE', ( #20 ) ) ;
#74 = DATE_AND_TIME ( #165, #387 ) ;
#75 = ORIENTED_EDGE ( 'NONE', *, *, #247, .F. ) ;
#76 = PERSON_AND_ORGANIZATION ( #77, #152 ) ;
#77 = PERSON ( 'UNSPECIFIED', 'UNSPECIFIED', 'UNSPECIFIED', ('UNSPECIFIED'), ('UNSPECIFIED'), ('UNSPECIFIED') ) ;
#78 = EDGE_LOOP ( 'NONE', ( #185 ) ) ;
#79 = CIRCLE ( 'NONE', #363, 0.9113248654051855357 ) ;
#80 = DIRECTION ( 'NONE',  ( 1.000000000000000000, 0.000000000000000000, -3.491481338843133355E-15 ) ) ;
#81 = DIRECTION ( 'NONE',  ( 3.491481338843133355E-15, -0.000000000000000000, 1.000000000000000000 ) ) ;
#82 = FACE_OUTER_BOUND ( 'NONE', #361, .T. ) ;
#83 = DATE_AND_TIME ( #367, #201 ) ;
#84 = CC_DESIGN_PERSON_AND_ORGANIZATION_ASSIGNMENT ( #227, #224, ( #244 ) ) ;
#85 = DIRECTION ( 'NONE',  ( -3.491481338843133355E-15, 0.000000000000000000, -1.000000000000000000 ) ) ;
#86 = AXIS2_PLACEMENT_3D ( 'NONE', #149, #235, #115 ) ;
#87 = DIRECTION ( 'NONE',  ( 3.491481338843133355E-15, -0.000000000000000000, 1.000000000000000000 ) ) ;
#88 = CARTESIAN_POINT ( 'NONE',  ( 1.466422162314116009E-13, 0.000000000000000000, 42.00000000000000000 ) ) ;
#89 = CLOSED_SHELL ( 'NONE', ( #177, #252, #108, #58, #231, #342, #52, #290, #150, #114, #147, #46, #294, #374, #274, #365 ) ) ;
#90 = CC_DESIGN_PERSON_AND_ORGANIZATION_ASSIGNMENT ( #106, #192, ( #289 ) ) ;
#91 = FACE_OUTER_BOUND ( 'NONE', #161, .T. ) ;
#92 = DIRECTION ( 'NONE',  ( 3.491481338843133355E-15, -0.000000000000000000, 1.000000000000000000 ) ) ;
#93 = CARTESIAN_POINT ( 'NONE',  ( 1.963958253099264484E-15, 0.000000000000000000, 0.5625000000000004441 ) ) ;
#94 = DIRECTION ( 'NONE',  ( 3.491481338843133355E-15, -0.000000000000000000, 1.000000000000000000 ) ) ;
#95 = CARTESIAN_POINT ( 'NONE',  ( 4.948404213421998040E-14, 0.000000000000000000, 14.17279295859447785 ) ) ;
#96 = COORDINATED_UNIVERSAL_TIME_OFFSET ( 1, 0, .AHEAD. ) ;
#97 = CARTESIAN_POINT ( 'NONE',  ( 2.545871809573128590E-15, 0.000000000000000000, 0.7291666666666696273 ) ) ;
#98 = PERSON_AND_ORGANIZATION ( #77, #152 ) ;
#99 = CC_DESIGN_PERSON_AND_ORGANIZATION_ASSIGNMENT ( #233, #337, ( #278 ) ) ;
#100 = ORIENTED_EDGE ( 'NONE', *, *, #218, .F. ) ;
#101 = CALENDAR_DATE ( 2023, 27, 9 ) ;
#102 = CIRCLE ( 'NONE', #57, 0.8100000000000000533 ) ;
#103 = CARTESIAN_POINT ( 'NONE',  ( 1.200000000000002398, 0.000000000000000000, 0.7708333333333274862 ) ) ;
#104 = APPROVAL_PERSON_ORGANIZATION ( #299, #131, #139 ) ;
#105 = ORIENTED_EDGE ( 'NONE', *, *, #319, .F. ) ;
#106 = PERSON_AND_ORGANIZATION ( #77, #152 ) ;
#107 = ORIENTED_EDGE ( 'NONE', *, *, #197, .T. ) ;
#108 = ADVANCED_FACE ( 'NONE', ( #366, #121 ), #331, .T. ) ;
#109 = DIRECTION ( 'NONE',  ( 3.491481338843133355E-15, -0.000000000000000000, 1.000000000000000000 ) ) ;
#110 = AXIS2_PLACEMENT_3D ( 'NONE', #173, #371, #120 ) ;
#111 = APPROVAL_PERSON_ORGANIZATION ( #18, #10, #14 ) ;
#112 = FACE_OUTER_BOUND ( 'NONE', #324, .T. ) ;
#113 = SHAPE_DEFINITION_REPRESENTATION ( #203, #234 ) ;
#114 = ADVANCED_FACE ( 'NONE', ( #148, #207 ), #118, .F. ) ;
#115 = DIRECTION ( 'NONE',  ( 1.000000000000000000, 0.000000000000000000, -5.782411586589357244E-15 ) ) ;
#116 = DIRECTION ( 'NONE',  ( 1.000000000000000000, 0.000000000000000000, -4.283267841918046932E-15 ) ) ;
#117 = VERTEX_POINT ( 'NONE', #301 ) ;
#118 = PLANE ( 'NONE',  #352 ) ;
#119 = CC_DESIGN_APPROVAL ( #131, ( #278 ) ) ;
#120 = DIRECTION ( 'NONE',  ( 1.000000000000000000, 0.000000000000000000, -3.478481970057660322E-15 ) ) ;
#121 = FACE_OUTER_BOUND ( 'NONE', #390, .T. ) ;
#122 = CARTESIAN_POINT ( 'NONE',  ( 0.8100000000000325828, 0.000000000000000000, 9.599999999999994316 ) ) ;
#123 = EDGE_CURVE ( 'NONE', #282, #282, #2, .T. ) ;
#124 = FACE_BOUND ( 'NONE', #258, .T. ) ;
#125 = DIRECTION ( 'NONE',  ( 1.000000000000000000, 0.000000000000000000, -3.523657060577889411E-15 ) ) ;
#126 = FACE_OUTER_BOUND ( 'NONE', #318, .T. ) ;
#127 = DATE_AND_TIME ( #101, #208 ) ;
#128 = AXIS2_PLACEMENT_3D ( 'NONE', #93, #341, #211 ) ;
#129 = FACE_OUTER_BOUND ( 'NONE', #166, .T. ) ;
#130 = APPLICATION_PROTOCOL_DEFINITION ( 'international standard', 'config_control_design', 1994, #303 ) ;
#131 = APPROVAL ( #335, 'UNSPECIFIED' ) ;
#132 = ORIENTED_EDGE ( 'NONE', *, *, #386, .T. ) ;
#133 = CALENDAR_DATE ( 2023, 27, 9 ) ;
#134 = EDGE_LOOP ( 'NONE', ( #321 ) ) ;
#135 = CARTESIAN_POINT ( 'NONE',  ( 1.200000000000002398, 0.000000000000000000, 0.7291666666666654084 ) ) ;
#136 = UNCERTAINTY_MEASURE_WITH_UNIT (LENGTH_MEASURE( 1.000000000000000082E-05 ), #220, 'distance_accuracy_value', 'NONE');
#137 = CARTESIAN_POINT ( 'NONE',  ( 3.351822085289407390E-14, 0.000000000000000000, 9.599999999999999645 ) ) ;
#138 = FACE_OUTER_BOUND ( 'NONE', #353, .T. ) ;
#139 = APPROVAL_ROLE ( '' ) ;
#140 = AXIS2_PLACEMENT_3D ( 'NONE', #176, #300, #31 ) ;
#141 = ORIENTED_EDGE ( 'NONE', *, *, #210, .F. ) ;
#142 = PRODUCT_DEFINITION ( 'UNKNOWN', '', #289, #228 ) ;
#143 = DIRECTION ( 'NONE',  ( 1.000000000000000000, 0.000000000000000000, -4.110357904567045900E-15 ) ) ;
#144 = DIRECTION ( 'NONE',  ( 1.000000000000000000, 0.000000000000000000, -3.480155121558409139E-15 ) ) ;
#145 = DIRECTION ( 'NONE',  ( 3.491481338843133355E-15, -0.000000000000000000, 1.000000000000000000 ) ) ;
#146 = AXIS2_PLACEMENT_3D ( 'NONE', #348, #179, #39 ) ;
#147 = ADVANCED_FACE ( 'NONE', ( #60, #245 ), #296, .T. ) ;
#148 = FACE_BOUND ( 'NONE', #216, .T. ) ;
#149 = CARTESIAN_POINT ( 'NONE',  ( 1.466422162314116009E-13, 0.000000000000000000, 42.00000000000000000 ) ) ;
#150 = ADVANCED_FACE ( 'NONE', ( #82, #172 ), #272, .T. ) ;
#151 = DIRECTION ( 'NONE',  ( 3.491481338843133355E-15, -0.000000000000000000, 1.000000000000000000 ) ) ;
#152 = ORGANIZATION ( 'UNSPECIFIED', 'UNSPECIFIED', '' ) ;
#153 = FACE_OUTER_BOUND ( 'NONE', #223, .T. ) ;
#154 = DIRECTION ( 'NONE',  ( 3.491481338843133355E-15, -0.000000000000000000, 1.000000000000000000 ) ) ;
#155 = DIRECTION ( 'NONE',  ( 1.000000000000000000, 0.000000000000000000, -3.491481338843133355E-15 ) ) ;
#156 = CC_DESIGN_PERSON_AND_ORGANIZATION_ASSIGNMENT ( #98, #322, ( #142 ) ) ;
#157 = AXIS2_PLACEMENT_3D ( 'NONE', #268, #340, #143 ) ;
#158 = VERTEX_POINT ( 'NONE', #323 ) ;
#159 =( NAMED_UNIT ( * ) PLANE_ANGLE_UNIT ( ) SI_UNIT ( $, .RADIAN. ) );
#160 = VERTEX_POINT ( 'NONE', #16 ) ;
#161 = EDGE_LOOP ( 'NONE', ( #260 ) ) ;
#162 = APPLICATION_PROTOCOL_DEFINITION ( 'international standard', 'config_control_design', 1994, #281 ) ;
#163 = EDGE_CURVE ( 'NONE', #248, #248, #271, .T. ) ;
#164 = ORIENTED_EDGE ( 'NONE', *, *, #190, .T. ) ;
#165 = CALENDAR_DATE ( 2023, 27, 9 ) ;
#166 = EDGE_LOOP ( 'NONE', ( #54 ) ) ;
#167 = EDGE_LOOP ( 'NONE', ( #359 ) ) ;
#168 = ORIENTED_EDGE ( 'NONE', *, *, #163, .F. ) ;
#169 = AXIS2_PLACEMENT_3D ( 'NONE', #206, #1, #61 ) ;
#170 = CIRCLE ( 'NONE', #6, 0.8030716899321304059 ) ;
#171 = DIRECTION ( 'NONE',  ( 1.000000000000000000, 0.000000000000000000, -4.336808689942025625E-15 ) ) ;
#172 = FACE_OUTER_BOUND ( 'NONE', #226, .T. ) ;
#173 = CARTESIAN_POINT ( 'NONE',  ( 9.456095292700081182E-16, 0.000000000000000000, 0.2708333333333312609 ) ) ;
#174 = DIRECTION ( 'NONE',  ( 1.000000000000000000, 0.000000000000000000, 0.000000000000000000 ) ) ;
#175 = AXIS2_PLACEMENT_3D ( 'NONE', #280, #309, #71 ) ;
#176 = CARTESIAN_POINT ( 'NONE',  ( 1.452456236958743728E-13, 0.000000000000000000, 41.60000000000000853 ) ) ;
#177 = ADVANCED_FACE ( 'NONE', ( #236 ), #202, .F. ) ;
#178 = VERTEX_POINT ( 'NONE', #225 ) ;
#179 = DIRECTION ( 'NONE',  ( 3.491481338843133355E-15, -0.000000000000000000, 1.000000000000000000 ) ) ;
#180 = CIRCLE ( 'NONE', #50, 0.9113248654051855357 ) ;
#181 = DIRECTION ( 'NONE',  ( -1.000000000000000000, 0.000000000000000000, 3.469446951953620105E-15 ) ) ;
#182 = DIRECTION ( 'NONE',  ( 3.491481338843133355E-15, -0.000000000000000000, 1.000000000000000000 ) ) ;
#183 = VERTEX_POINT ( 'NONE', #314 ) ;
#184 = FACE_BOUND ( 'NONE', #263, .T. ) ;
#185 = ORIENTED_EDGE ( 'NONE', *, *, #381, .T. ) ;
#186 = CARTESIAN_POINT ( 'NONE',  ( 0.000000000000000000, 0.000000000000000000, 0.000000000000000000 ) ) ;
#187 = LOCAL_TIME ( 10, 26, 57.00000000000000000, #360 ) ;
#188 = EDGE_LOOP ( 'NONE', ( #349 ) ) ;
#189 = APPROVAL_STATUS ( 'not_yet_approved' ) ;
#190 = EDGE_CURVE ( 'NONE', #382, #382, #67, .T. ) ;
#191 = ORIENTED_EDGE ( 'NONE', *, *, #319, .T. ) ;
#192 = PERSON_AND_ORGANIZATION_ROLE ( 'design_supplier' ) ;
#193 = EDGE_LOOP ( 'NONE', ( #132 ) ) ;
#194 = AXIS2_PLACEMENT_3D ( 'NONE', #97, #151, #125 ) ;
#195 = AXIS2_PLACEMENT_3D ( 'NONE', #95, #182, #40 ) ;
#196 = EDGE_LOOP ( 'NONE', ( #25 ) ) ;
#197 = EDGE_CURVE ( 'NONE', #178, #178, #102, .T. ) ;
#198 = DIRECTION ( 'NONE',  ( 1.000000000000000000, 0.000000000000000000, -5.782411586589357244E-15 ) ) ;
#199 = CARTESIAN_POINT ( 'NONE',  ( 3.491481338843133355E-15, 0.9113248654051855357, 1.000000000000000000 ) ) ;
#200 = AXIS2_PLACEMENT_3D ( 'NONE', #304, #33, #306 ) ;
#201 = LOCAL_TIME ( 10, 26, 57.00000000000000000, #29 ) ;
#202 = PLANE ( 'NONE',  #222 ) ;
#203 = PRODUCT_DEFINITION_SHAPE ( 'NONE', 'NONE',  #142 ) ;
#204 = APPROVAL ( #48, 'UNSPECIFIED' ) ;
#205 = DIRECTION ( 'NONE',  ( 1.000000000000000000, 0.000000000000000000, 0.000000000000000000 ) ) ;
#206 = CARTESIAN_POINT ( 'NONE',  ( 9.456095292700081182E-16, 0.000000000000000000, 0.2708333333333312609 ) ) ;
#207 = FACE_OUTER_BOUND ( 'NONE', #196, .T. ) ;
#208 = LOCAL_TIME ( 10, 26, 57.00000000000000000, #96 ) ;
#209 = CARTESIAN_POINT ( 'NONE',  ( 1.466422162314116009E-13, 0.000000000000000000, 42.00000000000000000 ) ) ;
#210 = EDGE_CURVE ( 'NONE', #158, #158, #221, .T. ) ;
#211 = DIRECTION ( 'NONE',  ( 1.000000000000000000, 0.000000000000000000, -3.450126754535575604E-15 ) ) ;
#212 = DIRECTION ( 'NONE',  ( 1.000000000000000000, 0.000000000000000000, -4.110357904567045900E-15 ) ) ;
#213 = EDGE_CURVE ( 'NONE', #284, #284, #317, .T. ) ;
#214 = CARTESIAN_POINT ( 'NONE',  ( 1.527523085743872223E-15, 0.000000000000000000, 0.4375000000000003886 ) ) ;
#215 = DIRECTION ( 'NONE',  ( 1.000000000000000000, 0.000000000000000000, -3.509611698579292214E-15 ) ) ;
#216 = EDGE_LOOP ( 'NONE', ( #313 ) ) ;
#217 = PERSON_AND_ORGANIZATION_ROLE ( 'creator' ) ;
#218 = EDGE_CURVE ( 'NONE', #160, #160, #72, .T. ) ;
#219 = ORIENTED_EDGE ( 'NONE', *, *, #210, .T. ) ;
#220 =( LENGTH_UNIT ( ) NAMED_UNIT ( * ) SI_UNIT ( .MILLI., .METRE. ) );
#221 = CIRCLE ( 'NONE', #249, 0.9113248654051855357 ) ;
#222 = AXIS2_PLACEMENT_3D ( 'NONE', #273, #395, #34 ) ;
#223 = EDGE_LOOP ( 'NONE', ( #392 ) ) ;
#224 = PERSON_AND_ORGANIZATION_ROLE ( 'design_owner' ) ;
#225 = CARTESIAN_POINT ( 'NONE',  ( 0.8100000000000034950, 0.000000000000000000, 0.9999999999999981126 ) ) ;
#226 = EDGE_LOOP ( 'NONE', ( #219 ) ) ;
#227 = PERSON_AND_ORGANIZATION ( #77, #152 ) ;
#228 = DESIGN_CONTEXT ( 'detailed design', #303, 'design' ) ;
#229 = EDGE_LOOP ( 'NONE', ( #107 ) ) ;
#230 = CIRCLE ( 'NONE', #195, 2.000000000000000000 ) ;
#231 = ADVANCED_FACE ( 'NONE', ( #91, #3 ), #243, .T. ) ;
#232 = CYLINDRICAL_SURFACE ( 'NONE', #238, 1.199999999999999956 ) ;
#233 = PERSON_AND_ORGANIZATION ( #77, #152 ) ;
#234 = ADVANCED_BREP_SHAPE_REPRESENTATION ( '961171', ( #62, #32 ), #37 ) ;
#235 = DIRECTION ( 'NONE',  ( 3.491481338843133355E-15, -0.000000000000000000, 1.000000000000000000 ) ) ;
#236 = FACE_OUTER_BOUND ( 'NONE', #265, .T. ) ;
#237 = EDGE_CURVE ( 'NONE', #259, #259, #339, .T. ) ;
#238 = AXIS2_PLACEMENT_3D ( 'NONE', #364, #81, #198 ) ;
#239 = CONICAL_SURFACE ( 'NONE', #254, 0.8440741737109288545, 0.2617993877991429685 ) ;
#240 = APPROVAL_PERSON_ORGANIZATION ( #346, #204, #286 ) ;
#241 = CARTESIAN_POINT ( 'NONE',  ( 3.273263755165440676E-15, 0.000000000000000000, 0.9375000000000008882 ) ) ;
#242 = APPROVAL_DATE_TIME ( #330, #131 ) ;
#243 = CYLINDRICAL_SURFACE ( 'NONE', #385, 0.9113248654051855357 ) ;
#244 = PRODUCT ( '961171', '961171', '', ( #13 ) ) ;
#245 = FACE_OUTER_BOUND ( 'NONE', #229, .T. ) ;
#246 = AXIS2_PLACEMENT_3D ( 'NONE', #137, #109, #80 ) ;
#247 = EDGE_CURVE ( 'NONE', #355, #355, #56, .T. ) ;
#248 = VERTEX_POINT ( 'NONE', #257 ) ;
#249 = AXIS2_PLACEMENT_3D ( 'NONE', #241, #336, #64 ) ;
#250 = FACE_OUTER_BOUND ( 'NONE', #44, .T. ) ;
#251 = DIRECTION ( 'NONE',  ( 3.491481338843133355E-15, -0.000000000000000000, 1.000000000000000000 ) ) ;
#252 = ADVANCED_FACE ( 'NONE', ( #307, #277 ), #266, .T. ) ;
#253 = DIRECTION ( 'NONE',  ( -3.491481338843133355E-15, 0.000000000000000000, -1.000000000000000000 ) ) ;
#254 = AXIS2_PLACEMENT_3D ( 'NONE', #345, #92, #212 ) ;
#255 = DATE_TIME_ROLE ( 'creation_date' ) ;
#256 = CC_DESIGN_APPROVAL ( #10, ( #142 ) ) ;
#257 = CARTESIAN_POINT ( 'NONE',  ( 0.8440741737109632714, 0.000000000000000000, 9.858819045102514167 ) ) ;
#258 = EDGE_LOOP ( 'NONE', ( #141 ) ) ;
#259 = VERTEX_POINT ( 'NONE', #103 ) ;
#260 = ORIENTED_EDGE ( 'NONE', *, *, #358, .F. ) ;
#261 = DATE_AND_TIME ( #133, #187 ) ;
#262 = CC_DESIGN_SECURITY_CLASSIFICATION ( #278, ( #289 ) ) ;
#263 = EDGE_LOOP ( 'NONE', ( #388 ) ) ;
#264 = ORIENTED_EDGE ( 'NONE', *, *, #163, .T. ) ;
#265 = EDGE_LOOP ( 'NONE', ( #49 ) ) ;
#266 = CONICAL_SURFACE ( 'NONE', #295, 0.8030716899321304059, 1.047197551196594967 ) ;
#267 = ORIENTED_EDGE ( 'NONE', *, *, #190, .F. ) ;
#268 = CARTESIAN_POINT ( 'NONE',  ( 3.442188271900671235E-14, 0.000000000000000000, 9.858819045102515943 ) ) ;
#269 = CARTESIAN_POINT ( 'NONE',  ( 0.9113248654051870901, 0.000000000000000000, 0.4374999999999971689 ) ) ;
#270 = CARTESIAN_POINT ( 'NONE',  ( 1.466422162314116009E-13, 0.000000000000000000, 42.00000000000000000 ) ) ;
#271 = CIRCLE ( 'NONE', #157, 0.8440741737109288545 ) ;
#272 = CYLINDRICAL_SURFACE ( 'NONE', #332, 0.9113248654051855357 ) ;
#273 = CARTESIAN_POINT ( 'NONE',  ( -4.125349679869215057E-33, 0.000000000000000000, -1.181547108378963174E-18 ) ) ;
#274 = ADVANCED_FACE ( 'NONE', ( #184, #69 ), #369, .T. ) ;
#275 = CARTESIAN_POINT ( 'NONE',  ( 1.600000000000143752, 0.000000000000000000, 41.99999999999999289 ) ) ;
#276 = AXIS2_PLACEMENT_3D ( 'NONE', #214, #251, #215 ) ;
#277 = FACE_BOUND ( 'NONE', #193, .T. ) ;
#278 = SECURITY_CLASSIFICATION ( '', '', #325 ) ;
#279 = DIRECTION ( 'NONE',  ( 1.000000000000000000, 0.000000000000000000, -3.491481338843133355E-15 ) ) ;
#280 = CARTESIAN_POINT ( 'NONE',  ( 1.466422162314116009E-13, 1.599999999999997202, 42.00000000000000000 ) ) ;
#281 = APPLICATION_CONTEXT ( 'configuration controlled 3d designs of mechanical parts and assemblies' ) ;
#282 = VERTEX_POINT ( 'NONE', #275 ) ;
#283 = AXIS2_PLACEMENT_3D ( 'NONE', #209, #379, #312 ) ;
#284 = VERTEX_POINT ( 'NONE', #351 ) ;
#285 = EDGE_LOOP ( 'NONE', ( #293 ) ) ;
#286 = APPROVAL_ROLE ( '' ) ;
#287 = EDGE_LOOP ( 'NONE', ( #75 ) ) ;
#288 = DIRECTION ( 'NONE',  ( 1.000000000000000000, 0.000000000000000000, 0.000000000000000000 ) ) ;
#289 = PRODUCT_DEFINITION_FORMATION_WITH_SPECIFIED_SOURCE ( 'ANY', '', #244, .NOT_KNOWN. ) ;
#290 = ADVANCED_FACE ( 'NONE', ( #124, #153 ), #19, .T. ) ;
#291 = DIRECTION ( 'NONE',  ( 0.000000000000000000, 0.000000000000000000, 1.000000000000000000 ) ) ;
#292 = EDGE_LOOP ( 'NONE', ( #356 ) ) ;
#293 = ORIENTED_EDGE ( 'NONE', *, *, #213, .T. ) ;
#294 = ADVANCED_FACE ( 'NONE', ( #344, #316 ), #239, .T. ) ;
#295 = AXIS2_PLACEMENT_3D ( 'NONE', #7, #154, #279 ) ;
#296 = CYLINDRICAL_SURFACE ( 'NONE', #27, 0.8099999999999994982 ) ;
#297 = COORDINATED_UNIVERSAL_TIME_OFFSET ( 1, 0, .AHEAD. ) ;
#298 = DIRECTION ( 'NONE',  ( 1.000000000000000000, 0.000000000000000000, 0.000000000000000000 ) ) ;
#299 = PERSON_AND_ORGANIZATION ( #77, #152 ) ;
#300 = DIRECTION ( 'NONE',  ( 3.491481338843133355E-15, -0.000000000000000000, 1.000000000000000000 ) ) ;
#301 = CARTESIAN_POINT ( 'NONE',  ( 0.9113248654051890885, 0.000000000000000000, 0.9999999999999976685 ) ) ;
#302 = CONICAL_SURFACE ( 'NONE', #128, 0.9113248654051855357, 1.047197551196593412 ) ;
#303 = APPLICATION_CONTEXT ( 'configuration controlled 3d designs of mechanical parts and assemblies' ) ;
#304 = CARTESIAN_POINT ( 'NONE',  ( 2.691350198691576176E-15, 0.000000000000000000, 0.7708333333333317050 ) ) ;
#305 = EDGE_CURVE ( 'NONE', #117, #117, #180, .T. ) ;
#306 = DIRECTION ( 'NONE',  ( 1.000000000000000000, 0.000000000000000000, -3.523657060577889411E-15 ) ) ;
#307 = FACE_OUTER_BOUND ( 'NONE', #188, .T. ) ;
#308 = EDGE_CURVE ( 'NONE', #310, #310, #327, .T. ) ;
#309 = DIRECTION ( 'NONE',  ( -3.491481338843133355E-15, 0.000000000000000000, -1.000000000000000000 ) ) ;
#310 = VERTEX_POINT ( 'NONE', #384 ) ;
#311 = DIRECTION ( 'NONE',  ( 1.000000000000000000, 0.000000000000000000, -3.569096642623009218E-15 ) ) ;
#312 = DIRECTION ( 'NONE',  ( 1.000000000000000000, 0.000000000000000000, -3.469446951953617344E-15 ) ) ;
#313 = ORIENTED_EDGE ( 'NONE', *, *, #197, .F. ) ;
#314 = CARTESIAN_POINT ( 'NONE',  ( 0.9113248654051875342, 0.000000000000000000, 0.5624999999999973355 ) ) ;
#315 = TOROIDAL_SURFACE ( 'NONE', #246, 1.809999999999998943, 0.9999999999999997780 ) ;
#316 = FACE_BOUND ( 'NONE', #328, .T. ) ;
#317 = CIRCLE ( 'NONE', #110, 1.199999999999999956 ) ;
#318 = EDGE_LOOP ( 'NONE', ( #100 ) ) ;
#319 = EDGE_CURVE ( 'NONE', #383, #383, #378, .T. ) ;
#320 = CARTESIAN_POINT ( 'NONE',  ( 0.8030716899321304059, 0.000000000000000000, -2.803909819151252198E-15 ) ) ;
#321 = ORIENTED_EDGE ( 'NONE', *, *, #213, .F. ) ;
#322 = PERSON_AND_ORGANIZATION_ROLE ( 'creator' ) ;
#323 = CARTESIAN_POINT ( 'NONE',  ( 0.9113248654051888664, 0.000000000000000000, 0.9374999999999976685 ) ) ;
#324 = EDGE_LOOP ( 'NONE', ( #191 ) ) ;
#325 = SECURITY_CLASSIFICATION_LEVEL ( 'unclassified' ) ;
#326 = EDGE_LOOP ( 'NONE', ( #53 ) ) ;
#327 = CIRCLE ( 'NONE', #146, 1.199999999999999956 ) ;
#328 = EDGE_LOOP ( 'NONE', ( #264 ) ) ;
#329 = FACE_BOUND ( 'NONE', #287, .T. ) ;
#330 = DATE_AND_TIME ( #26, #394 ) ;
#331 = CYLINDRICAL_SURFACE ( 'NONE', #86, 1.199999999999999956 ) ;
#332 = AXIS2_PLACEMENT_3D ( 'NONE', #28, #372, #205 ) ;
#333 = CC_DESIGN_APPROVAL ( #204, ( #289 ) ) ;
#334 = CARTESIAN_POINT ( 'NONE',  ( 3.351822085289406759E-14, 0.000000000000000000, 9.599999999999997868 ) ) ;
#335 = APPROVAL_STATUS ( 'not_yet_approved' ) ;
#336 = DIRECTION ( 'NONE',  ( 3.491481338843133355E-15, -0.000000000000000000, 1.000000000000000000 ) ) ;
#337 = PERSON_AND_ORGANIZATION_ROLE ( 'classification_officer' ) ;
#338 = DIRECTION ( 'NONE',  ( 3.491481338843133355E-15, -0.000000000000000000, 1.000000000000000000 ) ) ;
#339 = CIRCLE ( 'NONE', #200, 1.199999999999999956 ) ;
#340 = DIRECTION ( 'NONE',  ( 3.491481338843133355E-15, -0.000000000000000000, 1.000000000000000000 ) ) ;
#341 = DIRECTION ( 'NONE',  ( 3.491481338843133355E-15, -0.000000000000000000, 1.000000000000000000 ) ) ;
#342 = ADVANCED_FACE ( 'NONE', ( #250, #376 ), #302, .T. ) ;
#343 = CARTESIAN_POINT ( 'NONE',  ( 1.963958253099264484E-15, 0.000000000000000000, 0.5625000000000004441 ) ) ;
#344 = FACE_OUTER_BOUND ( 'NONE', #292, .T. ) ;
#345 = CARTESIAN_POINT ( 'NONE',  ( 3.442188271900671235E-14, 0.000000000000000000, 9.858819045102515943 ) ) ;
#346 = PERSON_AND_ORGANIZATION ( #77, #152 ) ;
#347 = CC_DESIGN_DATE_AND_TIME_ASSIGNMENT ( #83, #24, ( #278 ) ) ;
#348 = CARTESIAN_POINT ( 'NONE',  ( 8.001311401515602357E-16, 0.000000000000000000, 0.2291666666666691832 ) ) ;
#349 = ORIENTED_EDGE ( 'NONE', *, *, #308, .F. ) ;
#350 = VERTEX_POINT ( 'NONE', #21 ) ;
#351 = CARTESIAN_POINT ( 'NONE',  ( 1.200000000000000844, 0.000000000000000000, 0.2708333333333270976 ) ) ;
#352 = AXIS2_PLACEMENT_3D ( 'NONE', #199, #85, #55 ) ;
#353 = EDGE_LOOP ( 'NONE', ( #164 ) ) ;
#354 = COORDINATED_UNIVERSAL_TIME_OFFSET ( 1, 0, .AHEAD. ) ;
#355 = VERTEX_POINT ( 'NONE', #269 ) ;
#356 = ORIENTED_EDGE ( 'NONE', *, *, #381, .F. ) ;
#357 =( NAMED_UNIT ( * ) SI_UNIT ( $, .STERADIAN. ) SOLID_ANGLE_UNIT ( ) );
#358 = EDGE_CURVE ( 'NONE', #183, #183, #79, .T. ) ;
#359 = ORIENTED_EDGE ( 'NONE', *, *, #247, .T. ) ;
#360 = COORDINATED_UNIVERSAL_TIME_OFFSET ( 1, 0, .AHEAD. ) ;
#361 = EDGE_LOOP ( 'NONE', ( #391 ) ) ;
#362 = CONICAL_SURFACE ( 'NONE', #169, 1.199999999999999956, 1.047197551196593412 ) ;
#363 = AXIS2_PLACEMENT_3D ( 'NONE', #343, #94, #5 ) ;
#364 = CARTESIAN_POINT ( 'NONE',  ( 1.466422162314116009E-13, 0.000000000000000000, 42.00000000000000000 ) ) ;
#365 = ADVANCED_FACE ( 'NONE', ( #129 ), #8, .F. ) ;
#366 = FACE_OUTER_BOUND ( 'NONE', #134, .T. ) ;
#367 = CALENDAR_DATE ( 2023, 27, 9 ) ;
#368 = CARTESIAN_POINT ( 'NONE',  ( 1.466422162314116009E-13, 0.000000000000000000, 42.00000000000000000 ) ) ;
#369 = CONICAL_SURFACE ( 'NONE', #373, 1.999999999999996669, 0.7853981633974504994 ) ;
#370 = FACE_OUTER_BOUND ( 'NONE', #285, .T. ) ;
#371 = DIRECTION ( 'NONE',  ( 3.491481338843133355E-15, -0.000000000000000000, 1.000000000000000000 ) ) ;
#372 = DIRECTION ( 'NONE',  ( 3.491481338843133355E-15, -0.000000000000000000, 1.000000000000000000 ) ) ;
#373 = AXIS2_PLACEMENT_3D ( 'NONE', #375, #36, #181 ) ;
#374 = ADVANCED_FACE ( 'NONE', ( #126, #38 ), #70, .T. ) ;
#375 = CARTESIAN_POINT ( 'NONE',  ( 1.452456236958743728E-13, 0.000000000000000000, 41.60000000000000853 ) ) ;
#376 = FACE_BOUND ( 'NONE', #17, .T. ) ;
#377 = DIRECTION ( 'NONE',  ( 3.491481338843133355E-15, -0.000000000000000000, 1.000000000000000000 ) ) ;
#378 = CIRCLE ( 'NONE', #194, 1.199999999999999956 ) ;
#379 = DIRECTION ( 'NONE',  ( 3.491481338843133355E-15, -0.000000000000000000, 1.000000000000000000 ) ) ;
#380 = APPROVAL_DATE_TIME ( #261, #204 ) ;
#381 = EDGE_CURVE ( 'NONE', #350, #350, #230, .T. ) ;
#382 = VERTEX_POINT ( 'NONE', #122 ) ;
#383 = VERTEX_POINT ( 'NONE', #135 ) ;
#384 = CARTESIAN_POINT ( 'NONE',  ( 1.200000000000000844, 0.000000000000000000, 0.2291666666666649921 ) ) ;
#385 = AXIS2_PLACEMENT_3D ( 'NONE', #88, #338, #174 ) ;
#386 = EDGE_CURVE ( 'NONE', #45, #45, #170, .T. ) ;
#387 = LOCAL_TIME ( 10, 26, 57.00000000000000000, #354 ) ;
#388 = ORIENTED_EDGE ( 'NONE', *, *, #123, .F. ) ;
#389 = APPROVAL_DATE_TIME ( #127, #10 ) ;
#390 = EDGE_LOOP ( 'NONE', ( #23 ) ) ;
#391 = ORIENTED_EDGE ( 'NONE', *, *, #305, .F. ) ;
#392 = ORIENTED_EDGE ( 'NONE', *, *, #237, .T. ) ;
#393 = AXIS2_PLACEMENT_3D ( 'NONE', #66, #253, #9 ) ;
#394 = LOCAL_TIME ( 10, 26, 57.00000000000000000, #297 ) ;
#395 = DIRECTION ( 'NONE',  ( 3.491481338843133355E-15, -0.000000000000000000, 1.000000000000000000 ) ) ;
ENDSEC;
END-ISO-10303-21;
