ISO-10303-21;
HEADER;
FILE_DESCRIPTION (( 'STEP AP203' ),
    '1' );
FILE_NAME ('961162.step',
    '2023-09-27T08:26:57',
    ( '' ),
    ( '' ),
    'SwSTEP 2.0',
    'SolidWorks 2022',
    '' );
FILE_SCHEMA (( 'CONFIG_CONTROL_DESIGN' ));
ENDSEC;

DATA;
#1 = EDGE_LOOP ( 'NONE', ( #326 ) ) ;
#2 = AXIS2_PLACEMENT_3D ( 'NONE', #180, #33, #57 ) ;
#3 = VERTEX_POINT ( 'NONE', #99 ) ;
#4 = EDGE_LOOP ( 'NONE', ( #391 ) ) ;
#5 = DIRECTION ( 'NONE',  ( 3.491481338843133355E-15, -0.000000000000000000, 1.000000000000000000 ) ) ;
#6 = APPROVAL_STATUS ( 'not_yet_approved' ) ;
#7 = ADVANCED_FACE ( 'NONE', ( #330, #271 ), #283, .T. ) ;
#8 = CARTESIAN_POINT ( 'NONE',  ( 0.6300000000000032241, 0.000000000000000000, 0.8999999999999958034 ) ) ;
#9 = CIRCLE ( 'NONE', #222, 1.499999999999996669 ) ;
#10 = AXIS2_PLACEMENT_3D ( 'NONE', #312, #43, #315 ) ;
#11 = DIRECTION ( 'NONE',  ( 3.491481338843133355E-15, -0.000000000000000000, 1.000000000000000000 ) ) ;
#12 = PERSON_AND_ORGANIZATION_ROLE ( 'classification_officer' ) ;
#13 = DIRECTION ( 'NONE',  ( 3.491481338843133355E-15, -0.000000000000000000, 1.000000000000000000 ) ) ;
#14 = FACE_OUTER_BOUND ( 'NONE', #56, .T. ) ;
#15 = AXIS2_PLACEMENT_3D ( 'NONE', #314, #108, #353 ) ;
#16 = DATE_AND_TIME ( #377, #135 ) ;
#17 = CARTESIAN_POINT ( 'NONE',  ( 1.767562427789335472E-15, 0.000000000000000000, 0.5062499999999997558 ) ) ;
#18 = EDGE_CURVE ( 'NONE', #143, #143, #311, .T. ) ;
#19 = DIRECTION ( 'NONE',  ( 1.000000000000000000, 0.000000000000000000, -3.491481338843132961E-15 ) ) ;
#20 = SHAPE_DEFINITION_REPRESENTATION ( #65, #60 ) ;
#21 = PLANE ( 'NONE',  #199 ) ;
#22 = DESIGN_CONTEXT ( 'detailed design', #193, 'design' ) ;
#23 = DIRECTION ( 'NONE',  ( 1.000000000000000000, 0.000000000000000000, -3.491481338843133355E-15 ) ) ;
#24 = AXIS2_PLACEMENT_3D ( 'NONE', #275, #129, #394 ) ;
#25 = DIRECTION ( 'NONE',  ( -3.491481338843133355E-15, 0.000000000000000000, -1.000000000000000000 ) ) ;
#26 = ORIENTED_EDGE ( 'NONE', *, *, #18, .T. ) ;
#27 = ORIENTED_EDGE ( 'NONE', *, *, #302, .F. ) ;
#28 = CONICAL_SURFACE ( 'NONE', #200, 0.9849999999999999867, 1.047197551196608289 ) ;
#29 = PRODUCT_DEFINITION_FORMATION_WITH_SPECIFIED_SOURCE ( 'ANY', '', #136, .NOT_KNOWN. ) ;
#30 = EDGE_CURVE ( 'NONE', #114, #114, #191, .T. ) ;
#31 = ORIENTED_EDGE ( 'NONE', *, *, #58, .F. ) ;
#32 = EDGE_LOOP ( 'NONE', ( #358 ) ) ;
#33 = DIRECTION ( 'NONE',  ( 3.491481338843133355E-15, -0.000000000000000000, 1.000000000000000000 ) ) ;
#34 = COORDINATED_UNIVERSAL_TIME_OFFSET ( 1, 0, .AHEAD. ) ;
#35 = ORIENTED_EDGE ( 'NONE', *, *, #92, .T. ) ;
#36 = AXIS2_PLACEMENT_3D ( 'NONE', #272, #288, #142 ) ;
#37 = LOCAL_TIME ( 10, 26, 57.00000000000000000, #168 ) ;
#38 = DIRECTION ( 'NONE',  ( 3.491481338843133355E-15, -0.000000000000000000, 1.000000000000000000 ) ) ;
#39 = PERSON_AND_ORGANIZATION ( #291, #162 ) ;
#40 = CIRCLE ( 'NONE', #260, 0.7251923788646668090 ) ;
#41 = APPROVAL ( #6, 'UNSPECIFIED' ) ;
#42 = PERSON_AND_ORGANIZATION ( #291, #162 ) ;
#43 = DIRECTION ( 'NONE',  ( 3.491481338843133355E-15, -0.000000000000000000, 1.000000000000000000 ) ) ;
#44 = FACE_BOUND ( 'NONE', #95, .T. ) ;
#45 = APPLICATION_CONTEXT ( 'configuration controlled 3d designs of mechanical parts and assemblies' ) ;
#46 = CC_DESIGN_PERSON_AND_ORGANIZATION_ASSIGNMENT ( #104, #72, ( #29 ) ) ;
#47 = FACE_OUTER_BOUND ( 'NONE', #209, .T. ) ;
#48 = AXIS2_PLACEMENT_3D ( 'NONE', #165, #205, #236 ) ;
#49 = DIRECTION ( 'NONE',  ( 1.000000000000000000, 0.000000000000000000, 0.000000000000000000 ) ) ;
#50 = DIRECTION ( 'NONE',  ( 1.000000000000000000, 0.000000000000000000, -5.782411586589354089E-15 ) ) ;
#51 = MANIFOLD_SOLID_BREP ( 'Corps-Déplacer/Copier1', #292 ) ;
#52 = CYLINDRICAL_SURFACE ( 'NONE', #373, 0.6299999999999994493 ) ;
#53 = ADVANCED_FACE ( 'NONE', ( #286, #382 ), #227, .T. ) ;
#54 = CC_DESIGN_APPROVAL ( #378, ( #29 ) ) ;
#55 = ADVANCED_FACE ( 'NONE', ( #305, #230 ), #379, .F. ) ;
#56 = EDGE_LOOP ( 'NONE', ( #242 ) ) ;
#57 = DIRECTION ( 'NONE',  ( 1.000000000000000000, 0.000000000000000000, -2.612243548462300825E-15 ) ) ;
#58 = EDGE_CURVE ( 'NONE', #123, #123, #40, .T. ) ;
#59 = ORIENTED_EDGE ( 'NONE', *, *, #385, .F. ) ;
#60 = ADVANCED_BREP_SHAPE_REPRESENTATION ( '961162', ( #51, #187 ), #393 ) ;
#61 = EDGE_LOOP ( 'NONE', ( #208 ) ) ;
#62 = APPROVAL_ROLE ( '' ) ;
#63 = EDGE_LOOP ( 'NONE', ( #301 ) ) ;
#64 = VERTEX_POINT ( 'NONE', #155 ) ;
#65 = PRODUCT_DEFINITION_SHAPE ( 'NONE', 'NONE',  #249 ) ;
#66 = EDGE_LOOP ( 'NONE', ( #215 ) ) ;
#67 = AXIS2_PLACEMENT_3D ( 'NONE', #201, #75, #194 ) ;
#68 = CARTESIAN_POINT ( 'NONE',  ( 0.6277645209389173253, 0.000000000000000000, -2.191828110046029152E-15 ) ) ;
#69 = CC_DESIGN_APPROVAL ( #41, ( #249 ) ) ;
#70 = DIRECTION ( 'NONE',  ( 3.491481338843133355E-15, -0.000000000000000000, 1.000000000000000000 ) ) ;
#71 = PERSON_AND_ORGANIZATION ( #291, #162 ) ;
#72 = PERSON_AND_ORGANIZATION_ROLE ( 'creator' ) ;
#73 = CONICAL_SURFACE ( 'NONE', #177, 0.7251923788646668090, 1.047197551196608067 ) ;
#74 = FACE_BOUND ( 'NONE', #229, .T. ) ;
#75 = DIRECTION ( 'NONE',  ( 3.491481338843133355E-15, -0.000000000000000000, 1.000000000000000000 ) ) ;
#76 = CARTESIAN_POINT ( 'NONE',  ( 1.316288464743861212E-13, 0.000000000000000000, 37.69999999999999574 ) ) ;
#77 = CALENDAR_DATE ( 2023, 27, 9 ) ;
#78 = CARTESIAN_POINT ( 'NONE',  ( 1.326762908760390423E-13, 0.000000000000000000, 38.00000000000000000 ) ) ;
#79 = UNCERTAINTY_MEASURE_WITH_UNIT (LENGTH_MEASURE( 1.000000000000000082E-05 ), #159, 'distance_accuracy_value', 'NONE');
#80 = DIRECTION ( 'NONE',  ( 3.491481338843133355E-15, -0.000000000000000000, 1.000000000000000000 ) ) ;
#81 = EDGE_CURVE ( 'NONE', #3, #3, #253, .T. ) ;
#82 = FACE_OUTER_BOUND ( 'NONE', #121, .T. ) ;
#83 = DIRECTION ( 'NONE',  ( 3.491481338843133355E-15, -0.000000000000000000, 1.000000000000000000 ) ) ;
#84 = CONICAL_SURFACE ( 'NONE', #119, 1.499999999999996669, 0.7853981633974389531 ) ;
#85 = CARTESIAN_POINT ( 'NONE',  ( 3.972794855199367561E-14, 0.000000000000000000, 11.37853670017240404 ) ) ;
#86 = DIRECTION ( 'NONE',  ( 1.000000000000000000, 0.000000000000000000, -4.625929269271495577E-15 ) ) ;
#87 = ADVANCED_FACE ( 'NONE', ( #113, #234 ), #185, .T. ) ;
#88 = PLANE ( 'NONE',  #329 ) ;
#89 = FACE_OUTER_BOUND ( 'NONE', #1, .T. ) ;
#90 = AXIS2_PLACEMENT_3D ( 'NONE', #141, #263, #350 ) ;
#91 = ORIENTED_EDGE ( 'NONE', *, *, #181, .T. ) ;
#92 = EDGE_CURVE ( 'NONE', #148, #148, #362, .T. ) ;
#93 = DIRECTION ( 'NONE',  ( 3.491481338843133355E-15, -0.000000000000000000, 1.000000000000000000 ) ) ;
#94 = EDGE_LOOP ( 'NONE', ( #245 ) ) ;
#95 = EDGE_LOOP ( 'NONE', ( #203 ) ) ;
#96 = AXIS2_PLACEMENT_3D ( 'NONE', #170, #83, #50 ) ;
#97 = EDGE_LOOP ( 'NONE', ( #328 ) ) ;
#98 = EDGE_LOOP ( 'NONE', ( #210 ) ) ;
#99 = CARTESIAN_POINT ( 'NONE',  ( 0.9850000000000023181, 0.000000000000000000, 0.6562499999999936717 ) ) ;
#100 = DIRECTION ( 'NONE',  ( 3.491481338843133355E-15, -0.000000000000000000, 1.000000000000000000 ) ) ;
#101 = VERTEX_POINT ( 'NONE', #134 ) ;
#102 =( NAMED_UNIT ( * ) PLANE_ANGLE_UNIT ( ) SI_UNIT ( $, .RADIAN. ) );
#103 = FACE_BOUND ( 'NONE', #97, .T. ) ;
#104 = PERSON_AND_ORGANIZATION ( #291, #162 ) ;
#105 = SECURITY_CLASSIFICATION_LEVEL ( 'unclassified' ) ;
#106 = CIRCLE ( 'NONE', #2, 0.6640741737109288056 ) ;
#107 = APPROVAL_PERSON_ORGANIZATION ( #381, #296, #192 ) ;
#108 = DIRECTION ( 'NONE',  ( -3.491481338843133355E-15, 0.000000000000000000, -1.000000000000000000 ) ) ;
#109 = FACE_OUTER_BOUND ( 'NONE', #232, .T. ) ;
#110 = FACE_BOUND ( 'NONE', #4, .T. ) ;
#111 = DIRECTION ( 'NONE',  ( -3.491481338843133355E-15, 0.000000000000000000, -1.000000000000000000 ) ) ;
#112 = CIRCLE ( 'NONE', #10, 0.9849999999999999867 ) ;
#113 = FACE_BOUND ( 'NONE', #32, .T. ) ;
#114 = VERTEX_POINT ( 'NONE', #354 ) ;
#115 = APPROVAL_PERSON_ORGANIZATION ( #340, #378, #258 ) ;
#116 = ADVANCED_FACE ( 'NONE', ( #349, #82 ), #132, .T. ) ;
#117 = CARTESIAN_POINT ( 'NONE',  ( 1.326762908760390423E-13, 0.000000000000000000, 38.00000000000000000 ) ) ;
#118 = FACE_OUTER_BOUND ( 'NONE', #149, .T. ) ;
#119 = AXIS2_PLACEMENT_3D ( 'NONE', #76, #131, #344 ) ;
#120 = EDGE_LOOP ( 'NONE', ( #35 ) ) ;
#121 = EDGE_LOOP ( 'NONE', ( #91 ) ) ;
#122 = ORIENTED_EDGE ( 'NONE', *, *, #144, .F. ) ;
#123 = VERTEX_POINT ( 'NONE', #243 ) ;
#124 = AXIS2_PLACEMENT_3D ( 'NONE', #264, #317, #388 ) ;
#125 = EDGE_LOOP ( 'NONE', ( #335 ) ) ;
#126 = SECURITY_CLASSIFICATION ( '', '', #105 ) ;
#127 =( NAMED_UNIT ( * ) SI_UNIT ( $, .STERADIAN. ) SOLID_ANGLE_UNIT ( ) );
#128 = EDGE_CURVE ( 'NONE', #214, #214, #151, .T. ) ;
#129 = DIRECTION ( 'NONE',  ( 3.491481338843133355E-15, -0.000000000000000000, 1.000000000000000000 ) ) ;
#130 = PERSON_AND_ORGANIZATION_ROLE ( 'design_owner' ) ;
#131 = DIRECTION ( 'NONE',  ( -3.491481338843133355E-15, 0.000000000000000000, -1.000000000000000000 ) ) ;
#132 = CYLINDRICAL_SURFACE ( 'NONE', #278, 0.9849999999999999867 ) ;
#133 = CARTESIAN_POINT ( 'NONE',  ( 0.9850000000000008749, 0.000000000000000000, 0.2437499999999974687 ) ) ;
#134 = CARTESIAN_POINT ( 'NONE',  ( 0.6300000000000269829, 0.000000000000000000, 7.999999999999998224 ) ) ;
#135 = LOCAL_TIME ( 10, 26, 57.00000000000000000, #137 ) ;
#136 = PRODUCT ( '961162', '961162', '', ( #158 ) ) ;
#137 = COORDINATED_UNIVERSAL_TIME_OFFSET ( 1, 0, .AHEAD. ) ;
#138 = CONICAL_SURFACE ( 'NONE', #374, 0.6277645209389173253, 1.047197551196603849 ) ;
#139 = DIRECTION ( 'NONE',  ( -1.000000000000000000, 0.000000000000000000, 3.491481338843133355E-15 ) ) ;
#140 = CALENDAR_DATE ( 2023, 27, 9 ) ;
#141 = CARTESIAN_POINT ( 'NONE',  ( 2.793185071074506684E-14, 0.000000000000000000, 8.000000000000000000 ) ) ;
#142 = DIRECTION ( 'NONE',  ( 1.000000000000000000, 0.000000000000000000, -3.522281169496055046E-15 ) ) ;
#143 = VERTEX_POINT ( 'NONE', #265 ) ;
#144 = EDGE_CURVE ( 'NONE', #363, #363, #106, .T. ) ;
#145 = AXIS2_PLACEMENT_3D ( 'NONE', #359, #298, #153 ) ;
#146 = CARTESIAN_POINT ( 'NONE',  ( -8.374622506612892336E-34, 0.000000000000000000, -2.398587216676271418E-19 ) ) ;
#147 = CARTESIAN_POINT ( 'NONE',  ( 0.000000000000000000, 0.000000000000000000, 0.000000000000000000 ) ) ;
#148 = VERTEX_POINT ( 'NONE', #375 ) ;
#149 = EDGE_LOOP ( 'NONE', ( #154 ) ) ;
#150 = EDGE_CURVE ( 'NONE', #372, #372, #239, .T. ) ;
#151 = CIRCLE ( 'NONE', #206, 0.6300000000000000044 ) ;
#152 = ORIENTED_EDGE ( 'NONE', *, *, #30, .T. ) ;
#153 = DIRECTION ( 'NONE',  ( 1.000000000000000000, 0.000000000000000000, -3.438625486688988325E-15 ) ) ;
#154 = ORIENTED_EDGE ( 'NONE', *, *, #30, .F. ) ;
#155 = CARTESIAN_POINT ( 'NONE',  ( 0.9850000000000006528, 0.000000000000000000, 0.2062499999999946598 ) ) ;
#156 = CIRCLE ( 'NONE', #304, 0.7251923788646666980 ) ;
#157 = EDGE_LOOP ( 'NONE', ( #321 ) ) ;
#158 = MECHANICAL_CONTEXT ( 'NONE', #45, 'mechanical' ) ;
#159 =( LENGTH_UNIT ( ) NAMED_UNIT ( * ) SI_UNIT ( .MILLI., .METRE. ) );
#160 = ADVANCED_FACE ( 'NONE', ( #307, #103 ), #73, .T. ) ;
#161 = AXIS2_PLACEMENT_3D ( 'NONE', #78, #195, #224 ) ;
#162 = ORGANIZATION ( 'UNSPECIFIED', 'UNSPECIFIED', '' ) ;
#163 = FACE_OUTER_BOUND ( 'NONE', #213, .T. ) ;
#164 = DIRECTION ( 'NONE',  ( 1.000000000000000000, 0.000000000000000000, -3.469446951953614189E-15 ) ) ;
#165 = CARTESIAN_POINT ( 'NONE',  ( 2.793185071074506684E-14, 0.000000000000000000, 8.000000000000000000 ) ) ;
#166 = CIRCLE ( 'NONE', #392, 0.6277645209389173253 ) ;
#167 = FACE_OUTER_BOUND ( 'NONE', #63, .T. ) ;
#168 = COORDINATED_UNIVERSAL_TIME_OFFSET ( 1, 0, .AHEAD. ) ;
#169 = ADVANCED_FACE ( 'NONE', ( #74, #225 ), #84, .T. ) ;
#170 = CARTESIAN_POINT ( 'NONE',  ( 1.326762908760390423E-13, 0.000000000000000000, 38.00000000000000000 ) ) ;
#171 = FACE_OUTER_BOUND ( 'NONE', #61, .T. ) ;
#172 = AXIS2_PLACEMENT_3D ( 'NONE', #276, #5, #250 ) ;
#173 = CARTESIAN_POINT ( 'NONE',  ( 1.326762908760390423E-13, 0.000000000000000000, 38.00000000000000000 ) ) ;
#174 = LOCAL_TIME ( 10, 26, 57.00000000000000000, #34 ) ;
#175 = CC_DESIGN_DATE_AND_TIME_ASSIGNMENT ( #313, #197, ( #126 ) ) ;
#176 = ORIENTED_EDGE ( 'NONE', *, *, #128, .T. ) ;
#177 = AXIS2_PLACEMENT_3D ( 'NONE', #190, #11, #341 ) ;
#178 = CIRCLE ( 'NONE', #96, 1.200000000000000622 ) ;
#179 = EDGE_LOOP ( 'NONE', ( #297 ) ) ;
#180 = CARTESIAN_POINT ( 'NONE',  ( 2.883551257685768636E-14, 0.000000000000000000, 8.258819045102512746 ) ) ;
#181 = EDGE_CURVE ( 'NONE', #64, #64, #112, .T. ) ;
#182 = EDGE_LOOP ( 'NONE', ( #31 ) ) ;
#183 = CALENDAR_DATE ( 2023, 27, 9 ) ;
#184 = ORIENTED_EDGE ( 'NONE', *, *, #361, .T. ) ;
#185 = CONICAL_SURFACE ( 'NONE', #15, 0.9849999999999999867, 1.047197551196608067 ) ;
#186 = ORIENTED_EDGE ( 'NONE', *, *, #285, .F. ) ;
#187 = AXIS2_PLACEMENT_3D ( 'NONE', #366, #303, #212 ) ;
#188 = APPLICATION_PROTOCOL_DEFINITION ( 'international standard', 'config_control_design', 1994, #45 ) ;
#189 = DATE_AND_TIME ( #183, #293 ) ;
#190 = CARTESIAN_POINT ( 'NONE',  ( 1.767562427789335472E-15, 0.000000000000000000, 0.5062499999999997558 ) ) ;
#191 = CIRCLE ( 'NONE', #36, 0.9849999999999999867 ) ;
#192 = APPROVAL_ROLE ( '' ) ;
#193 = APPLICATION_CONTEXT ( 'configuration controlled 3d designs of mechanical parts and assemblies' ) ;
#194 = DIRECTION ( 'NONE',  ( 1.000000000000000000, 0.000000000000000000, -3.522281169496055046E-15 ) ) ;
#195 = DIRECTION ( 'NONE',  ( 3.491481338843133355E-15, -0.000000000000000000, 1.000000000000000000 ) ) ;
#196 = DIRECTION ( 'NONE',  ( 1.000000000000000000, 0.000000000000000000, -4.625929269271490844E-15 ) ) ;
#197 = DATE_TIME_ROLE ( 'classification_date' ) ;
#198 = CC_DESIGN_PERSON_AND_ORGANIZATION_ASSIGNMENT ( #39, #300, ( #249 ) ) ;
#199 = AXIS2_PLACEMENT_3D ( 'NONE', #267, #111, #139 ) ;
#200 = AXIS2_PLACEMENT_3D ( 'NONE', #389, #25, #324 ) ;
#201 = CARTESIAN_POINT ( 'NONE',  ( 2.291284628615796404E-15, 0.000000000000000000, 0.6562499999999971134 ) ) ;
#202 = CYLINDRICAL_SURFACE ( 'NONE', #325, 0.9849999999999999867 ) ;
#203 = ORIENTED_EDGE ( 'NONE', *, *, #150, .F. ) ;
#204 = CARTESIAN_POINT ( 'NONE',  ( 1.326762908760390423E-13, 0.000000000000000000, 38.00000000000000000 ) ) ;
#205 = DIRECTION ( 'NONE',  ( 3.491481338843133355E-15, -0.000000000000000000, 1.000000000000000000 ) ) ;
#206 = AXIS2_PLACEMENT_3D ( 'NONE', #308, #93, #295 ) ;
#207 = FACE_OUTER_BOUND ( 'NONE', #269, .T. ) ;
#208 = ORIENTED_EDGE ( 'NONE', *, *, #327, .F. ) ;
#209 = EDGE_LOOP ( 'NONE', ( #184 ) ) ;
#210 = ORIENTED_EDGE ( 'NONE', *, *, #361, .F. ) ;
#211 = EDGE_LOOP ( 'NONE', ( #176 ) ) ;
#212 = DIRECTION ( 'NONE',  ( 1.000000000000000000, 0.000000000000000000, 0.000000000000000000 ) ) ;
#213 = EDGE_LOOP ( 'NONE', ( #26 ) ) ;
#214 = VERTEX_POINT ( 'NONE', #8 ) ;
#215 = ORIENTED_EDGE ( 'NONE', *, *, #150, .T. ) ;
#216 = CARTESIAN_POINT ( 'NONE',  ( 1.500000000000128120, 0.000000000000000000, 37.69999999999998863 ) ) ;
#217 = TOROIDAL_SURFACE ( 'NONE', #48, 1.629999999999999005, 1.000000000000000000 ) ;
#218 = DIRECTION ( 'NONE',  ( 1.000000000000000000, 0.000000000000000000, 0.000000000000000000 ) ) ;
#219 = ADVANCED_FACE ( 'NONE', ( #109, #163 ), #280, .T. ) ;
#220 = CC_DESIGN_SECURITY_CLASSIFICATION ( #126, ( #29 ) ) ;
#221 = PERSON_AND_ORGANIZATION ( #291, #162 ) ;
#222 = AXIS2_PLACEMENT_3D ( 'NONE', #369, #70, #86 ) ;
#223 = PERSON_AND_ORGANIZATION_ROLE ( 'design_supplier' ) ;
#224 = DIRECTION ( 'NONE',  ( 1.000000000000000000, 0.000000000000000000, 0.000000000000000000 ) ) ;
#225 = FACE_OUTER_BOUND ( 'NONE', #360, .T. ) ;
#226 = APPROVAL_DATE_TIME ( #16, #378 ) ;
#227 = CYLINDRICAL_SURFACE ( 'NONE', #161, 0.7251923788646668090 ) ;
#228 = DIRECTION ( 'NONE',  ( 3.491481338843133355E-15, -0.000000000000000000, 1.000000000000000000 ) ) ;
#229 = EDGE_LOOP ( 'NONE', ( #59 ) ) ;
#230 = FACE_OUTER_BOUND ( 'NONE', #395, .T. ) ;
#231 = FACE_OUTER_BOUND ( 'NONE', #211, .T. ) ;
#232 = EDGE_LOOP ( 'NONE', ( #27 ) ) ;
#233 = AXIS2_PLACEMENT_3D ( 'NONE', #261, #320, #290 ) ;
#234 = FACE_OUTER_BOUND ( 'NONE', #386, .T. ) ;
#235 = CYLINDRICAL_SURFACE ( 'NONE', #319, 1.499999999999998224 ) ;
#236 = DIRECTION ( 'NONE',  ( 1.000000000000000000, 0.000000000000000000, -3.491481338843133750E-15 ) ) ;
#237 = CC_DESIGN_DATE_AND_TIME_ASSIGNMENT ( #339, #387, ( #249 ) ) ;
#238 = DIRECTION ( 'NONE',  ( 3.491481338843133355E-15, -0.000000000000000000, 1.000000000000000000 ) ) ;
#239 = CIRCLE ( 'NONE', #244, 0.7251923788646666980 ) ;
#240 = APPROVAL_PERSON_ORGANIZATION ( #71, #41, #62 ) ;
#241 = ORIENTED_EDGE ( 'NONE', *, *, #257, .T. ) ;
#242 = ORIENTED_EDGE ( 'NONE', *, *, #285, .T. ) ;
#243 = CARTESIAN_POINT ( 'NONE',  ( 0.7251923788646684743, 0.000000000000000000, 0.5062499999999973133 ) ) ;
#244 = AXIS2_PLACEMENT_3D ( 'NONE', #259, #256, #376 ) ;
#245 = ORIENTED_EDGE ( 'NONE', *, *, #81, .F. ) ;
#246 = VERTEX_POINT ( 'NONE', #255 ) ;
#247 = ORIENTED_EDGE ( 'NONE', *, *, #302, .T. ) ;
#248 = APPLICATION_PROTOCOL_DEFINITION ( 'international standard', 'config_control_design', 1994, #193 ) ;
#249 = PRODUCT_DEFINITION ( 'UNKNOWN', '', #29, #22 ) ;
#250 = DIRECTION ( 'NONE',  ( 1.000000000000000000, 0.000000000000000000, 0.000000000000000000 ) ) ;
#251 = DIRECTION ( 'NONE',  ( 1.000000000000000000, 0.000000000000000000, -3.438625486688988325E-15 ) ) ;
#252 = VERTEX_POINT ( 'NONE', #68 ) ;
#253 = CIRCLE ( 'NONE', #67, 0.9849999999999999867 ) ;
#254 = LOCAL_TIME ( 10, 26, 57.00000000000000000, #343 ) ;
#255 = CARTESIAN_POINT ( 'NONE',  ( 1.200000000000133182, 0.000000000000000000, 37.99999999999999289 ) ) ;
#256 = DIRECTION ( 'NONE',  ( 3.491481338843133355E-15, -0.000000000000000000, 1.000000000000000000 ) ) ;
#257 = EDGE_CURVE ( 'NONE', #306, #306, #9, .T. ) ;
#258 = APPROVAL_ROLE ( '' ) ;
#259 = CARTESIAN_POINT ( 'NONE',  ( 1.374770777169477842E-15, 0.000000000000000000, 0.3937499999999982681 ) ) ;
#260 = AXIS2_PLACEMENT_3D ( 'NONE', #17, #13, #251 ) ;
#261 = CARTESIAN_POINT ( 'NONE',  ( 8.510485763430169108E-16, 0.000000000000000000, 0.2437500000000009104 ) ) ;
#262 = APPROVAL_DATE_TIME ( #281, #296 ) ;
#263 = DIRECTION ( 'NONE',  ( 3.491481338843133355E-15, -0.000000000000000000, 1.000000000000000000 ) ) ;
#264 = CARTESIAN_POINT ( 'NONE',  ( 3.142333204958820020E-15, 0.7251923788646666980, 0.9000000000000000222 ) ) ;
#265 = CARTESIAN_POINT ( 'NONE',  ( 0.7251923788646696956, 0.000000000000000000, 0.8437499999999947820 ) ) ;
#266 = DIRECTION ( 'NONE',  ( 3.491481338843133355E-15, -0.000000000000000000, 1.000000000000000000 ) ) ;
#267 = CARTESIAN_POINT ( 'NONE',  ( 1.326762908760390423E-13, 1.200000000000000622, 38.00000000000000000 ) ) ;
#268 = VERTEX_POINT ( 'NONE', #133 ) ;
#269 = EDGE_LOOP ( 'NONE', ( #122 ) ) ;
#270 = ADVANCED_FACE ( 'NONE', ( #118, #347 ), #202, .T. ) ;
#271 = FACE_BOUND ( 'NONE', #273, .T. ) ;
#272 = CARTESIAN_POINT ( 'NONE',  ( 2.422215178822423765E-15, 0.000000000000000000, 0.6937499999999998668 ) ) ;
#273 = EDGE_LOOP ( 'NONE', ( #333 ) ) ;
#274 = CALENDAR_DATE ( 2023, 27, 9 ) ;
#275 = CARTESIAN_POINT ( 'NONE',  ( 2.883551257685768636E-14, 0.000000000000000000, 8.258819045102512746 ) ) ;
#276 = CARTESIAN_POINT ( 'NONE',  ( 1.326762908760390423E-13, 0.000000000000000000, 38.00000000000000000 ) ) ;
#277 = CARTESIAN_POINT ( 'NONE',  ( 0.7251923788646681412, 0.000000000000000000, 0.3937499999999957145 ) ) ;
#278 = AXIS2_PLACEMENT_3D ( 'NONE', #371, #100, #218 ) ;
#279 = PRODUCT_RELATED_PRODUCT_CATEGORY ( 'detail', '', ( #136 ) ) ;
#280 = CYLINDRICAL_SURFACE ( 'NONE', #172, 0.7251923788646668090 ) ;
#281 = DATE_AND_TIME ( #77, #254 ) ;
#282 = CARTESIAN_POINT ( 'NONE',  ( 0.000000000000000000, 0.000000000000000000, 0.000000000000000000 ) ) ;
#283 = CONICAL_SURFACE ( 'NONE', #24, 0.6640741737109288056, 0.2617993877991428020 ) ;
#284 = CC_DESIGN_APPROVAL ( #296, ( #126 ) ) ;
#285 = EDGE_CURVE ( 'NONE', #268, #268, #380, .T. ) ;
#286 = FACE_OUTER_BOUND ( 'NONE', #182, .T. ) ;
#287 = DIRECTION ( 'NONE',  ( 3.491481338843133355E-15, -0.000000000000000000, 1.000000000000000000 ) ) ;
#288 = DIRECTION ( 'NONE',  ( 3.491481338843133355E-15, -0.000000000000000000, 1.000000000000000000 ) ) ;
#289 = FACE_OUTER_BOUND ( 'NONE', #120, .T. ) ;
#290 = DIRECTION ( 'NONE',  ( 1.000000000000000000, 0.000000000000000000, -3.494763347859366968E-15 ) ) ;
#291 = PERSON ( 'UNSPECIFIED', 'UNSPECIFIED', 'UNSPECIFIED', ('UNSPECIFIED'), ('UNSPECIFIED'), ('UNSPECIFIED') ) ;
#292 = CLOSED_SHELL ( 'NONE', ( #310, #357, #116, #345, #53, #160, #270, #87, #219, #55, #316, #337, #7, #322, #169, #352 ) ) ;
#293 = LOCAL_TIME ( 10, 26, 57.00000000000000000, #368 ) ;
#294 = DIRECTION ( 'NONE',  ( 3.491481338843133355E-15, -0.000000000000000000, 1.000000000000000000 ) ) ;
#295 = DIRECTION ( 'NONE',  ( 1.000000000000000000, 0.000000000000000000, -3.441911658684141010E-15 ) ) ;
#296 = APPROVAL ( #346, 'UNSPECIFIED' ) ;
#297 = ORIENTED_EDGE ( 'NONE', *, *, #92, .F. ) ;
#298 = DIRECTION ( 'NONE',  ( 3.491481338843133355E-15, -0.000000000000000000, 1.000000000000000000 ) ) ;
#299 = EDGE_LOOP ( 'NONE', ( #186 ) ) ;
#300 = PERSON_AND_ORGANIZATION_ROLE ( 'creator' ) ;
#301 = ORIENTED_EDGE ( 'NONE', *, *, #181, .F. ) ;
#302 = EDGE_CURVE ( 'NONE', #336, #336, #156, .T. ) ;
#303 = DIRECTION ( 'NONE',  ( 0.000000000000000000, 0.000000000000000000, 1.000000000000000000 ) ) ;
#304 = AXIS2_PLACEMENT_3D ( 'NONE', #390, #323, #356 ) ;
#305 = FACE_BOUND ( 'NONE', #157, .T. ) ;
#306 = VERTEX_POINT ( 'NONE', #216 ) ;
#307 = FACE_OUTER_BOUND ( 'NONE', #94, .T. ) ;
#308 = CARTESIAN_POINT ( 'NONE',  ( 3.142333204958813314E-15, 0.000000000000000000, 0.8999999999999980238 ) ) ;
#309 = APPROVAL_DATE_TIME ( #189, #41 ) ;
#310 = ADVANCED_FACE ( 'NONE', ( #171 ), #88, .F. ) ;
#311 = CIRCLE ( 'NONE', #145, 0.7251923788646668090 ) ;
#312 = CARTESIAN_POINT ( 'NONE',  ( 7.201180261363896478E-16, 0.000000000000000000, 0.2062499999999981015 ) ) ;
#313 = DATE_AND_TIME ( #140, #37 ) ;
#314 = CARTESIAN_POINT ( 'NONE',  ( 2.422215178822423765E-15, 0.000000000000000000, 0.6937499999999998668 ) ) ;
#315 = DIRECTION ( 'NONE',  ( 1.000000000000000000, 0.000000000000000000, -3.494763347859366968E-15 ) ) ;
#316 = ADVANCED_FACE ( 'NONE', ( #355, #231 ), #52, .T. ) ;
#317 = DIRECTION ( 'NONE',  ( -3.491481338843133355E-15, 0.000000000000000000, -1.000000000000000000 ) ) ;
#318 = DIRECTION ( 'NONE',  ( 1.000000000000000000, 0.000000000000000000, -3.491481338843132961E-15 ) ) ;
#319 = AXIS2_PLACEMENT_3D ( 'NONE', #173, #294, #196 ) ;
#320 = DIRECTION ( 'NONE',  ( 3.491481338843133355E-15, -0.000000000000000000, 1.000000000000000000 ) ) ;
#321 = ORIENTED_EDGE ( 'NONE', *, *, #128, .F. ) ;
#322 = ADVANCED_FACE ( 'NONE', ( #89, #289 ), #235, .T. ) ;
#323 = DIRECTION ( 'NONE',  ( 3.491481338843133355E-15, -0.000000000000000000, 1.000000000000000000 ) ) ;
#324 = DIRECTION ( 'NONE',  ( -1.000000000000000000, 0.000000000000000000, 3.494763347859366968E-15 ) ) ;
#325 = AXIS2_PLACEMENT_3D ( 'NONE', #204, #238, #383 ) ;
#326 = ORIENTED_EDGE ( 'NONE', *, *, #257, .F. ) ;
#327 = EDGE_CURVE ( 'NONE', #252, #252, #166, .T. ) ;
#328 = ORIENTED_EDGE ( 'NONE', *, *, #58, .T. ) ;
#329 = AXIS2_PLACEMENT_3D ( 'NONE', #146, #80, #23 ) ;
#330 = FACE_OUTER_BOUND ( 'NONE', #179, .T. ) ;
#331 = PERSON_AND_ORGANIZATION ( #291, #162 ) ;
#332 = CC_DESIGN_PERSON_AND_ORGANIZATION_ASSIGNMENT ( #331, #130, ( #136 ) ) ;
#333 = ORIENTED_EDGE ( 'NONE', *, *, #144, .T. ) ;
#334 = CARTESIAN_POINT ( 'NONE',  ( 0.6640741737109576714, 0.000000000000000000, 8.258819045102510970 ) ) ;
#335 = ORIENTED_EDGE ( 'NONE', *, *, #81, .T. ) ;
#336 = VERTEX_POINT ( 'NONE', #338 ) ;
#337 = ADVANCED_FACE ( 'NONE', ( #207, #47 ), #217, .F. ) ;
#338 = CARTESIAN_POINT ( 'NONE',  ( 0.7251923788646698066, 0.000000000000000000, 0.8999999999999955813 ) ) ;
#339 = DATE_AND_TIME ( #274, #174 ) ;
#340 = PERSON_AND_ORGANIZATION ( #291, #162 ) ;
#341 = DIRECTION ( 'NONE',  ( 1.000000000000000000, 0.000000000000000000, -3.438625486688988325E-15 ) ) ;
#342 = CIRCLE ( 'NONE', #90, 0.6299999999999990052 ) ;
#343 = COORDINATED_UNIVERSAL_TIME_OFFSET ( 1, 0, .AHEAD. ) ;
#344 = DIRECTION ( 'NONE',  ( -1.000000000000000000, 0.000000000000000000, 4.625929269271495577E-15 ) ) ;
#345 = ADVANCED_FACE ( 'NONE', ( #44, #14 ), #28, .T. ) ;
#346 = APPROVAL_STATUS ( 'not_yet_approved' ) ;
#347 = FACE_OUTER_BOUND ( 'NONE', #125, .T. ) ;
#348 = APPROVAL_STATUS ( 'not_yet_approved' ) ;
#349 = FACE_OUTER_BOUND ( 'NONE', #299, .T. ) ;
#350 = DIRECTION ( 'NONE',  ( 1.000000000000000000, 0.000000000000000000, -2.753529326947317068E-15 ) ) ;
#351 = AXIS2_PLACEMENT_3D ( 'NONE', #85, #38, #164 ) ;
#352 = ADVANCED_FACE ( 'NONE', ( #384 ), #21, .F. ) ;
#353 = DIRECTION ( 'NONE',  ( -1.000000000000000000, 0.000000000000000000, 3.522281169496055046E-15 ) ) ;
#354 = CARTESIAN_POINT ( 'NONE',  ( 0.9850000000000023181, 0.000000000000000000, 0.6937499999999964251 ) ) ;
#355 = FACE_OUTER_BOUND ( 'NONE', #98, .T. ) ;
#356 = DIRECTION ( 'NONE',  ( 1.000000000000000000, 0.000000000000000000, -3.438625486688989114E-15 ) ) ;
#357 = ADVANCED_FACE ( 'NONE', ( #167, #110 ), #138, .T. ) ;
#358 = ORIENTED_EDGE ( 'NONE', *, *, #18, .F. ) ;
#359 = CARTESIAN_POINT ( 'NONE',  ( 2.945937379648884302E-15, 0.000000000000000000, 0.8437499999999973355 ) ) ;
#360 = EDGE_LOOP ( 'NONE', ( #241 ) ) ;
#361 = EDGE_CURVE ( 'NONE', #101, #101, #342, .T. ) ;
#362 = CIRCLE ( 'NONE', #351, 1.500000000000000000 ) ;
#363 = VERTEX_POINT ( 'NONE', #334 ) ;
#364 = CC_DESIGN_PERSON_AND_ORGANIZATION_ASSIGNMENT ( #221, #223, ( #29 ) ) ;
#365 = ORIENTED_EDGE ( 'NONE', *, *, #385, .T. ) ;
#366 = CARTESIAN_POINT ( 'NONE',  ( 0.000000000000000000, 0.000000000000000000, 0.000000000000000000 ) ) ;
#367 = EDGE_LOOP ( 'NONE', ( #365 ) ) ;
#368 = COORDINATED_UNIVERSAL_TIME_OFFSET ( 1, 0, .AHEAD. ) ;
#369 = CARTESIAN_POINT ( 'NONE',  ( 1.316288464743861212E-13, 0.000000000000000000, 37.69999999999999574 ) ) ;
#370 = CC_DESIGN_PERSON_AND_ORGANIZATION_ASSIGNMENT ( #42, #12, ( #126 ) ) ;
#371 = CARTESIAN_POINT ( 'NONE',  ( 1.326762908760390423E-13, 0.000000000000000000, 38.00000000000000000 ) ) ;
#372 = VERTEX_POINT ( 'NONE', #277 ) ;
#373 = AXIS2_PLACEMENT_3D ( 'NONE', #117, #228, #49 ) ;
#374 = AXIS2_PLACEMENT_3D ( 'NONE', #147, #287, #19 ) ;
#375 = CARTESIAN_POINT ( 'NONE',  ( 1.500000000000039746, 0.000000000000000000, 11.37853670017239871 ) ) ;
#376 = DIRECTION ( 'NONE',  ( 1.000000000000000000, 0.000000000000000000, -3.513378214660488697E-15 ) ) ;
#377 = CALENDAR_DATE ( 2023, 27, 9 ) ;
#378 = APPROVAL ( #348, 'UNSPECIFIED' ) ;
#379 = PLANE ( 'NONE',  #124 ) ;
#380 = CIRCLE ( 'NONE', #233, 0.9849999999999999867 ) ;
#381 = PERSON_AND_ORGANIZATION ( #291, #162 ) ;
#382 = FACE_OUTER_BOUND ( 'NONE', #66, .T. ) ;
#383 = DIRECTION ( 'NONE',  ( 1.000000000000000000, 0.000000000000000000, 0.000000000000000000 ) ) ;
#384 = FACE_OUTER_BOUND ( 'NONE', #367, .T. ) ;
#385 = EDGE_CURVE ( 'NONE', #246, #246, #178, .T. ) ;
#386 = EDGE_LOOP ( 'NONE', ( #152 ) ) ;
#387 = DATE_TIME_ROLE ( 'creation_date' ) ;
#388 = DIRECTION ( 'NONE',  ( -1.000000000000000000, 0.000000000000000000, 3.491481338843133355E-15 ) ) ;
#389 = CARTESIAN_POINT ( 'NONE',  ( 8.510485763430169108E-16, 0.000000000000000000, 0.2437500000000009104 ) ) ;
#390 = CARTESIAN_POINT ( 'NONE',  ( 3.142333204958813314E-15, 0.000000000000000000, 0.8999999999999980238 ) ) ;
#391 = ORIENTED_EDGE ( 'NONE', *, *, #327, .T. ) ;
#392 = AXIS2_PLACEMENT_3D ( 'NONE', #282, #266, #318 ) ;
#393 =( GEOMETRIC_REPRESENTATION_CONTEXT ( 3 ) GLOBAL_UNCERTAINTY_ASSIGNED_CONTEXT ( ( #79 ) ) GLOBAL_UNIT_ASSIGNED_CONTEXT ( ( #159, #102, #127 ) ) REPRESENTATION_CONTEXT ( 'NONE', 'WORKASPACE' ) );
#394 = DIRECTION ( 'NONE',  ( 1.000000000000000000, 0.000000000000000000, -2.612243548462300825E-15 ) ) ;
#395 = EDGE_LOOP ( 'NONE', ( #247 ) ) ;
ENDSEC;
END-ISO-10303-21;
