ISO-10303-21;
HEADER;
FILE_DESCRIPTION (( 'STEP AP203' ),
    '1' );
FILE_NAME ('961161.step',
    '2023-09-27T08:26:56',
    ( '' ),
    ( '' ),
    'SwSTEP 2.0',
    'SolidWorks 2022',
    '' );
FILE_SCHEMA (( 'CONFIG_CONTROL_DESIGN' ));
ENDSEC;

DATA;
#1 = CYLINDRICAL_SURFACE ( 'NONE', #140, 0.8329274057836295597 ) ;
#2 = AXIS2_PLACEMENT_3D ( 'NONE', #222, #347, #42 ) ;
#3 = DIRECTION ( 'NONE',  ( 1.000000000000000000, 0.000000000000000000, 0.000000000000000000 ) ) ;
#4 = DIRECTION ( 'NONE',  ( 3.491481338843133355E-15, -0.000000000000000000, 1.000000000000000000 ) ) ;
#5 = ADVANCED_FACE ( 'NONE', ( #330, #55 ), #191, .T. ) ;
#6 = FACE_OUTER_BOUND ( 'NONE', #265, .T. ) ;
#7 = DATE_AND_TIME ( #283, #141 ) ;
#8 = FACE_OUTER_BOUND ( 'NONE', #390, .T. ) ;
#9 = AXIS2_PLACEMENT_3D ( 'NONE', #246, #188, #365 ) ;
#10 = CALENDAR_DATE ( 2023, 27, 9 ) ;
#11 = CARTESIAN_POINT ( 'NONE',  ( 1.326762908760390423E-13, 0.000000000000000000, 38.00000000000000000 ) ) ;
#12 = CARTESIAN_POINT ( 'NONE',  ( 1.035000000000001918, 0.000000000000000000, 0.5395833333333327486 ) ) ;
#13 = VERTEX_POINT ( 'NONE', #324 ) ;
#14 = CARTESIAN_POINT ( 'NONE',  ( 1.883945139084117760E-15, 0.000000000000000000, 0.5395833333333364124 ) ) ;
#15 = DIRECTION ( 'NONE',  ( 1.000000000000000000, 0.000000000000000000, 0.000000000000000000 ) ) ;
#16 = DIRECTION ( 'NONE',  ( 1.000000000000000000, 0.000000000000000000, -4.369172385672645445E-15 ) ) ;
#17 = CIRCLE ( 'NONE', #69, 1.200000000000000622 ) ;
#18 = PERSON_AND_ORGANIZATION ( #193, #90 ) ;
#19 = CARTESIAN_POINT ( 'NONE',  ( 1.374770777169477842E-15, 0.000000000000000000, 0.3937499999999982681 ) ) ;
#20 = VERTEX_POINT ( 'NONE', #270 ) ;
#21 = EDGE_CURVE ( 'NONE', #255, #255, #17, .T. ) ;
#22 = EDGE_LOOP ( 'NONE', ( #326 ) ) ;
#23 = PERSON_AND_ORGANIZATION_ROLE ( 'classification_officer' ) ;
#24 = ORIENTED_EDGE ( 'NONE', *, *, #159, .F. ) ;
#25 = CALENDAR_DATE ( 2023, 27, 9 ) ;
#26 = ORIENTED_EDGE ( 'NONE', *, *, #238, .T. ) ;
#27 = EDGE_LOOP ( 'NONE', ( #230 ) ) ;
#28 = FACE_OUTER_BOUND ( 'NONE', #81, .T. ) ;
#29 = AXIS2_PLACEMENT_3D ( 'NONE', #181, #120, #269 ) ;
#30 = DIRECTION ( 'NONE',  ( 3.491481338843133355E-15, -0.000000000000000000, 1.000000000000000000 ) ) ;
#31 = ADVANCED_FACE ( 'NONE', ( #58, #28 ), #356, .T. ) ;
#32 = DIRECTION ( 'NONE',  ( 1.000000000000000000, 0.000000000000000000, 0.000000000000000000 ) ) ;
#33 = DIRECTION ( 'NONE',  ( 1.000000000000000000, 0.000000000000000000, -3.456876491982768081E-15 ) ) ;
#34 = AXIS2_PLACEMENT_3D ( 'NONE', #195, #131, #349 ) ;
#35 = CARTESIAN_POINT ( 'NONE',  ( 1.326762908760390423E-13, 1.200000000000000622, 38.00000000000000000 ) ) ;
#36 = FACE_BOUND ( 'NONE', #315, .T. ) ;
#37 = DIRECTION ( 'NONE',  ( -1.000000000000000000, 0.000000000000000000, 3.456876491982768081E-15 ) ) ;
#38 = EDGE_LOOP ( 'NONE', ( #359 ) ) ;
#39 = ADVANCED_FACE ( 'NONE', ( #342, #217 ), #291, .F. ) ;
#40 = CARTESIAN_POINT ( 'NONE',  ( 0.7600000000000270983, 0.000000000000000000, 7.999999999999996447 ) ) ;
#41 = CC_DESIGN_DATE_AND_TIME_ASSIGNMENT ( #52, #178, ( #102 ) ) ;
#42 = DIRECTION ( 'NONE',  ( 1.000000000000000000, 0.000000000000000000, 0.000000000000000000 ) ) ;
#43 = AXIS2_PLACEMENT_3D ( 'NONE', #19, #251, #228 ) ;
#44 = DIRECTION ( 'NONE',  ( 1.000000000000000000, 0.000000000000000000, -3.514527010858496895E-15 ) ) ;
#45 = EDGE_CURVE ( 'NONE', #288, #288, #118, .T. ) ;
#46 = FACE_BOUND ( 'NONE', #177, .T. ) ;
#47 = APPLICATION_PROTOCOL_DEFINITION ( 'international standard', 'config_control_design', 1994, #108 ) ;
#48 = FACE_OUTER_BOUND ( 'NONE', #296, .T. ) ;
#49 = AXIS2_PLACEMENT_3D ( 'NONE', #379, #105, #225 ) ;
#50 = VERTEX_POINT ( 'NONE', #348 ) ;
#51 = EDGE_LOOP ( 'NONE', ( #391 ) ) ;
#52 = DATE_AND_TIME ( #84, #64 ) ;
#53 = ORIENTED_EDGE ( 'NONE', *, *, #381, .T. ) ;
#54 = CC_DESIGN_PERSON_AND_ORGANIZATION_ASSIGNMENT ( #112, #176, ( #119 ) ) ;
#55 = FACE_OUTER_BOUND ( 'NONE', #83, .T. ) ;
#56 = AXIS2_PLACEMENT_3D ( 'NONE', #70, #276, #97 ) ;
#57 = PERSON_AND_ORGANIZATION ( #193, #90 ) ;
#58 = FACE_BOUND ( 'NONE', #38, .T. ) ;
#59 = ADVANCED_FACE ( 'NONE', ( #277, #6 ), #221, .T. ) ;
#60 = ORIENTED_EDGE ( 'NONE', *, *, #159, .T. ) ;
#61 = ADVANCED_FACE ( 'NONE', ( #280 ), #95, .F. ) ;
#62 = DIRECTION ( 'NONE',  ( -3.491481338843133355E-15, 0.000000000000000000, -1.000000000000000000 ) ) ;
#63 = CONICAL_SURFACE ( 'NONE', #240, 0.8329274057836295597, 1.047197551196596743 ) ;
#64 = LOCAL_TIME ( 10, 26, 56.00000000000000000, #82 ) ;
#65 = DIRECTION ( 'NONE',  ( 3.491481338843133355E-15, -0.000000000000000000, 1.000000000000000000 ) ) ;
#66 = CARTESIAN_POINT ( 'NONE',  ( 0.000000000000000000, 0.000000000000000000, 0.000000000000000000 ) ) ;
#67 = ADVANCED_FACE ( 'NONE', ( #192, #36 ), #63, .T. ) ;
#68 = PLANE ( 'NONE',  #205 ) ;
#69 = AXIS2_PLACEMENT_3D ( 'NONE', #362, #237, #183 ) ;
#70 = CARTESIAN_POINT ( 'NONE',  ( 5.021135416785733397E-33, 0.000000000000000000, 1.438110340423424777E-18 ) ) ;
#71 = FACE_OUTER_BOUND ( 'NONE', #117, .T. ) ;
#72 = CARTESIAN_POINT ( 'NONE',  ( 2.793185071074506684E-14, 0.000000000000000000, 8.000000000000000000 ) ) ;
#73 = CARTESIAN_POINT ( 'NONE',  ( 0.000000000000000000, 0.000000000000000000, 0.000000000000000000 ) ) ;
#74 = DIRECTION ( 'NONE',  ( 1.000000000000000000, 0.000000000000000000, -3.423796334164750927E-15 ) ) ;
#75 = AXIS2_PLACEMENT_3D ( 'NONE', #110, #374, #16 ) ;
#76 =( LENGTH_UNIT ( ) NAMED_UNIT ( * ) SI_UNIT ( .MILLI., .METRE. ) );
#77 = DIRECTION ( 'NONE',  ( 3.491481338843133355E-15, -0.000000000000000000, 1.000000000000000000 ) ) ;
#78 = DIRECTION ( 'NONE',  ( 3.491481338843133355E-15, -0.000000000000000000, 1.000000000000000000 ) ) ;
#79 = EDGE_LOOP ( 'NONE', ( #360 ) ) ;
#80 = APPROVAL_ROLE ( '' ) ;
#81 = EDGE_LOOP ( 'NONE', ( #208 ) ) ;
#82 = COORDINATED_UNIVERSAL_TIME_OFFSET ( 1, 0, .AHEAD. ) ;
#83 = EDGE_LOOP ( 'NONE', ( #384 ) ) ;
#84 = CALENDAR_DATE ( 2023, 27, 9 ) ;
#85 = ORIENTED_EDGE ( 'NONE', *, *, #279, .T. ) ;
#86 = EDGE_CURVE ( 'NONE', #353, #353, #258, .T. ) ;
#87 = APPROVAL_STATUS ( 'not_yet_approved' ) ;
#88 = EDGE_LOOP ( 'NONE', ( #85 ) ) ;
#89 = CONICAL_SURFACE ( 'NONE', #382, 0.7571501829524913685, 1.047197551196591192 ) ;
#90 = ORGANIZATION ( 'UNSPECIFIED', 'UNSPECIFIED', '' ) ;
#91 = EDGE_LOOP ( 'NONE', ( #299 ) ) ;
#92 = CARTESIAN_POINT ( 'NONE',  ( 1.782110266701180152E-15, 0.000000000000000000, 0.5104166666666659635 ) ) ;
#93 = APPROVAL ( #261, 'UNSPECIFIED' ) ;
#94 = EDGE_CURVE ( 'NONE', #301, #301, #274, .T. ) ;
#95 = PLANE ( 'NONE',  #56 ) ;
#96 = CONICAL_SURFACE ( 'NONE', #124, 1.034999999999999920, 1.047197551196622500 ) ;
#97 = DIRECTION ( 'NONE',  ( 1.000000000000000000, 0.000000000000000000, -3.491481338843133355E-15 ) ) ;
#98 = FACE_OUTER_BOUND ( 'NONE', #302, .T. ) ;
#99 = DIRECTION ( 'NONE',  ( 1.000000000000000000, 0.000000000000000000, -3.483064950255364665E-15 ) ) ;
#100 = AXIS2_PLACEMENT_3D ( 'NONE', #281, #4, #126 ) ;
#101 = CYLINDRICAL_SURFACE ( 'NONE', #2, 0.8329274057836295597 ) ;
#102 = SECURITY_CLASSIFICATION ( '', '', #147 ) ;
#103 = APPROVAL_DATE_TIME ( #7, #93 ) ;
#104 = DIRECTION ( 'NONE',  ( 3.491481338843133355E-15, -0.000000000000000000, 1.000000000000000000 ) ) ;
#105 = DIRECTION ( 'NONE',  ( 3.491481338843133355E-15, -0.000000000000000000, 1.000000000000000000 ) ) ;
#106 = CARTESIAN_POINT ( 'NONE',  ( 1.500000000000128120, 0.000000000000000000, 37.69999999999998863 ) ) ;
#107 = CARTESIAN_POINT ( 'NONE',  ( 1.326762908760390423E-13, 0.000000000000000000, 38.00000000000000000 ) ) ;
#108 = APPLICATION_CONTEXT ( 'configuration controlled 3d designs of mechanical parts and assemblies' ) ;
#109 = VERTEX_POINT ( 'NONE', #169 ) ;
#110 = CARTESIAN_POINT ( 'NONE',  ( 2.883551257685768636E-14, 0.000000000000000000, 8.258819045102512746 ) ) ;
#111 = EDGE_CURVE ( 'NONE', #358, #358, #351, .T. ) ;
#112 = PERSON_AND_ORGANIZATION ( #193, #90 ) ;
#113 = ORIENTED_EDGE ( 'NONE', *, *, #168, .F. ) ;
#114 = PRODUCT_DEFINITION ( 'UNKNOWN', '', #119, #267 ) ;
#115 = ORIENTED_EDGE ( 'NONE', *, *, #45, .F. ) ;
#116 = CALENDAR_DATE ( 2023, 27, 9 ) ;
#117 = EDGE_LOOP ( 'NONE', ( #144 ) ) ;
#118 = CIRCLE ( 'NONE', #232, 1.034999999999999920 ) ;
#119 = PRODUCT_DEFINITION_FORMATION_WITH_SPECIFIED_SOURCE ( 'ANY', '', #128, .NOT_KNOWN. ) ;
#120 = DIRECTION ( 'NONE',  ( -3.491481338843133355E-15, 0.000000000000000000, -1.000000000000000000 ) ) ;
#121 = FACE_OUTER_BOUND ( 'NONE', #206, .T. ) ;
#122 = DIRECTION ( 'NONE',  ( 3.491481338843133355E-15, -0.000000000000000000, 1.000000000000000000 ) ) ;
#123 = CC_DESIGN_DATE_AND_TIME_ASSIGNMENT ( #134, #209, ( #114 ) ) ;
#124 = AXIS2_PLACEMENT_3D ( 'NONE', #14, #170, #37 ) ;
#125 = DIRECTION ( 'NONE',  ( 1.000000000000000000, 0.000000000000000000, -3.469446951953614189E-15 ) ) ;
#126 = DIRECTION ( 'NONE',  ( 1.000000000000000000, 0.000000000000000000, -3.514527010858496895E-15 ) ) ;
#127 = CARTESIAN_POINT ( 'NONE',  ( 1.326762908760390423E-13, 0.000000000000000000, 38.00000000000000000 ) ) ;
#128 = PRODUCT ( '961161', '961161', '', ( #138 ) ) ;
#129 = AXIS2_PLACEMENT_3D ( 'NONE', #107, #314, #197 ) ;
#130 = CIRCLE ( 'NONE', #43, 0.8329274057836295597 ) ;
#131 = DIRECTION ( 'NONE',  ( 3.491481338843133355E-15, -0.000000000000000000, 1.000000000000000000 ) ) ;
#132 = LOCAL_TIME ( 10, 26, 56.00000000000000000, #143 ) ;
#133 = APPROVAL ( #87, 'UNSPECIFIED' ) ;
#134 = DATE_AND_TIME ( #10, #153 ) ;
#135 = CARTESIAN_POINT ( 'NONE',  ( 2.444036937190193349E-15, 0.8329274057836294487, 0.6999999999999999556 ) ) ;
#136 = CARTESIAN_POINT ( 'NONE',  ( 1.035000000000000586, 0.000000000000000000, 0.1604166666666662078 ) ) ;
#137 = EDGE_CURVE ( 'NONE', #307, #307, #285, .T. ) ;
#138 = MECHANICAL_CONTEXT ( 'NONE', #108, 'mechanical' ) ;
#139 = FACE_OUTER_BOUND ( 'NONE', #210, .T. ) ;
#140 = AXIS2_PLACEMENT_3D ( 'NONE', #189, #65, #32 ) ;
#141 = LOCAL_TIME ( 10, 26, 56.00000000000000000, #203 ) ;
#142 = ADVANCED_FACE ( 'NONE', ( #98, #310 ), #1, .T. ) ;
#143 = COORDINATED_UNIVERSAL_TIME_OFFSET ( 1, 0, .AHEAD. ) ;
#144 = ORIENTED_EDGE ( 'NONE', *, *, #137, .T. ) ;
#145 = SHAPE_DEFINITION_REPRESENTATION ( #282, #154 ) ;
#146 = EDGE_LOOP ( 'NONE', ( #179 ) ) ;
#147 = SECURITY_CLASSIFICATION_LEVEL ( 'unclassified' ) ;
#148 = ORIENTED_EDGE ( 'NONE', *, *, #137, .F. ) ;
#149 = EDGE_LOOP ( 'NONE', ( #150 ) ) ;
#150 = ORIENTED_EDGE ( 'NONE', *, *, #175, .F. ) ;
#151 = CLOSED_SHELL ( 'NONE', ( #61, #272, #289, #31, #142, #67, #245, #256, #335, #316, #59, #39, #373, #223, #5, #172 ) ) ;
#152 = AXIS2_PLACEMENT_3D ( 'NONE', #155, #122, #372 ) ;
#153 = LOCAL_TIME ( 10, 26, 56.00000000000000000, #163 ) ;
#154 = ADVANCED_BREP_SHAPE_REPRESENTATION ( '961161', ( #309, #164 ), #278 ) ;
#155 = CARTESIAN_POINT ( 'NONE',  ( 2.793185071074506684E-14, 0.000000000000000000, 8.000000000000000000 ) ) ;
#156 = DIRECTION ( 'NONE',  ( 3.491481338843133355E-15, -0.000000000000000000, 1.000000000000000000 ) ) ;
#157 = DIRECTION ( 'NONE',  ( 3.491481338843133355E-15, -0.000000000000000000, 1.000000000000000000 ) ) ;
#158 = CIRCLE ( 'NONE', #305, 0.8329274057836295597 ) ;
#159 = EDGE_CURVE ( 'NONE', #199, #199, #162, .T. ) ;
#160 = DIRECTION ( 'NONE',  ( 1.000000000000000000, 0.000000000000000000, -3.491481338843132961E-15 ) ) ;
#161 = CYLINDRICAL_SURFACE ( 'NONE', #332, 1.034999999999999920 ) ;
#162 = CIRCLE ( 'NONE', #249, 1.034999999999999920 ) ;
#163 = COORDINATED_UNIVERSAL_TIME_OFFSET ( 1, 0, .AHEAD. ) ;
#164 = AXIS2_PLACEMENT_3D ( 'NONE', #73, #250, #15 ) ;
#165 = DIRECTION ( 'NONE',  ( 1.000000000000000000, 0.000000000000000000, -4.565061778886339566E-15 ) ) ;
#166 = CARTESIAN_POINT ( 'NONE',  ( 1.200000000000133182, 0.000000000000000000, 37.99999999999999289 ) ) ;
#167 = CARTESIAN_POINT ( 'NONE',  ( 1.035000000000001696, 0.000000000000000000, 0.5104166666666624108 ) ) ;
#168 = EDGE_CURVE ( 'NONE', #20, #20, #392, .T. ) ;
#169 = CARTESIAN_POINT ( 'NONE',  ( 0.7600000000000025624, 0.000000000000000000, 0.6999999999999966249 ) ) ;
#170 = DIRECTION ( 'NONE',  ( -3.491481338843133355E-15, 0.000000000000000000, -1.000000000000000000 ) ) ;
#171 = PERSON_AND_ORGANIZATION ( #193, #90 ) ;
#172 = ADVANCED_FACE ( 'NONE', ( #215 ), #68, .F. ) ;
#173 = PLANE ( 'NONE',  #298 ) ;
#174 = AXIS2_PLACEMENT_3D ( 'NONE', #313, #243, #125 ) ;
#175 = EDGE_CURVE ( 'NONE', #345, #345, #218, .T. ) ;
#176 = PERSON_AND_ORGANIZATION_ROLE ( 'design_supplier' ) ;
#177 = EDGE_LOOP ( 'NONE', ( #394 ) ) ;
#178 = DATE_TIME_ROLE ( 'classification_date' ) ;
#179 = ORIENTED_EDGE ( 'NONE', *, *, #279, .F. ) ;
#180 = APPROVAL_ROLE ( '' ) ;
#181 = CARTESIAN_POINT ( 'NONE',  ( 1.316288464743861212E-13, 0.000000000000000000, 37.69999999999999574 ) ) ;
#182 = APPROVAL_PERSON_ORGANIZATION ( #18, #93, #80 ) ;
#183 = DIRECTION ( 'NONE',  ( 1.000000000000000000, 0.000000000000000000, -5.782411586589354089E-15 ) ) ;
#184 = EDGE_LOOP ( 'NONE', ( #294 ) ) ;
#185 = DIRECTION ( 'NONE',  ( -1.000000000000000000, 0.000000000000000000, 3.491481338843133355E-15 ) ) ;
#186 = AXIS2_PLACEMENT_3D ( 'NONE', #127, #156, #3 ) ;
#187 = CC_DESIGN_APPROVAL ( #93, ( #114 ) ) ;
#188 = DIRECTION ( 'NONE',  ( 3.491481338843133355E-15, -0.000000000000000000, 1.000000000000000000 ) ) ;
#189 = CARTESIAN_POINT ( 'NONE',  ( 1.326762908760390423E-13, 0.000000000000000000, 38.00000000000000000 ) ) ;
#190 = CARTESIAN_POINT ( 'NONE',  ( 6.619266704890104357E-16, 0.000000000000000000, 0.1895833333333332704 ) ) ;
#191 = CONICAL_SURFACE ( 'NONE', #29, 1.499999999999996669, 0.7853981633974389531 ) ;
#192 = FACE_OUTER_BOUND ( 'NONE', #388, .T. ) ;
#193 = PERSON ( 'UNSPECIFIED', 'UNSPECIFIED', 'UNSPECIFIED', ('UNSPECIFIED'), ('UNSPECIFIED'), ('UNSPECIFIED') ) ;
#194 = CC_DESIGN_PERSON_AND_ORGANIZATION_ASSIGNMENT ( #57, #385, ( #119 ) ) ;
#195 = CARTESIAN_POINT ( 'NONE',  ( 6.619266704890104357E-16, 0.000000000000000000, 0.1895833333333332704 ) ) ;
#196 = PERSON_AND_ORGANIZATION ( #193, #90 ) ;
#197 = DIRECTION ( 'NONE',  ( 1.000000000000000000, 0.000000000000000000, -6.704245317784761908E-15 ) ) ;
#198 = FACE_OUTER_BOUND ( 'NONE', #300, .T. ) ;
#199 = VERTEX_POINT ( 'NONE', #167 ) ;
#200 = DIRECTION ( 'NONE',  ( 1.000000000000000000, 0.000000000000000000, -4.625929269271490844E-15 ) ) ;
#201 = DIRECTION ( 'NONE',  ( 1.000000000000000000, 0.000000000000000000, -3.491481338843132961E-15 ) ) ;
#202 = ORIENTED_EDGE ( 'NONE', *, *, #111, .T. ) ;
#203 = COORDINATED_UNIVERSAL_TIME_OFFSET ( 1, 0, .AHEAD. ) ;
#204 = CARTESIAN_POINT ( 'NONE',  ( 0.7571501829524913685, 0.000000000000000000, -2.643575734480287622E-15 ) ) ;
#205 = AXIS2_PLACEMENT_3D ( 'NONE', #35, #62, #185 ) ;
#206 = EDGE_LOOP ( 'NONE', ( #271 ) ) ;
#207 = PERSON_AND_ORGANIZATION ( #193, #90 ) ;
#208 = ORIENTED_EDGE ( 'NONE', *, *, #343, .T. ) ;
#209 = DATE_TIME_ROLE ( 'creation_date' ) ;
#210 = EDGE_LOOP ( 'NONE', ( #148 ) ) ;
#211 = CC_DESIGN_PERSON_AND_ORGANIZATION_ASSIGNMENT ( #171, #259, ( #128 ) ) ;
#212 = EDGE_LOOP ( 'NONE', ( #328 ) ) ;
#213 = CIRCLE ( 'NONE', #34, 1.034999999999999920 ) ;
#214 = EDGE_LOOP ( 'NONE', ( #386 ) ) ;
#215 = FACE_OUTER_BOUND ( 'NONE', #79, .T. ) ;
#216 = CC_DESIGN_PERSON_AND_ORGANIZATION_ASSIGNMENT ( #196, #317, ( #114 ) ) ;
#217 = FACE_OUTER_BOUND ( 'NONE', #22, .T. ) ;
#218 = CIRCLE ( 'NONE', #387, 1.499999999999996669 ) ;
#219 = DIRECTION ( 'NONE',  ( 3.491481338843133355E-15, -0.000000000000000000, 1.000000000000000000 ) ) ;
#220 = DIRECTION ( 'NONE',  ( 1.000000000000000000, 0.000000000000000000, -3.514527010858496895E-15 ) ) ;
#221 = CYLINDRICAL_SURFACE ( 'NONE', #186, 0.7599999999999995648 ) ;
#222 = CARTESIAN_POINT ( 'NONE',  ( 1.326762908760390423E-13, 0.000000000000000000, 38.00000000000000000 ) ) ;
#223 = ADVANCED_FACE ( 'NONE', ( #395, #121 ), #242, .T. ) ;
#224 = DIRECTION ( 'NONE',  ( -3.491481338843133355E-15, 0.000000000000000000, -1.000000000000000000 ) ) ;
#225 = DIRECTION ( 'NONE',  ( 1.000000000000000000, 0.000000000000000000, -4.369172385672645445E-15 ) ) ;
#226 = AXIS2_PLACEMENT_3D ( 'NONE', #190, #339, #306 ) ;
#227 = DIRECTION ( 'NONE',  ( 3.491481338843133355E-15, -0.000000000000000000, 1.000000000000000000 ) ) ;
#228 = DIRECTION ( 'NONE',  ( 1.000000000000000000, 0.000000000000000000, -3.514527010858496895E-15 ) ) ;
#229 = CARTESIAN_POINT ( 'NONE',  ( 1.035000000000000586, 0.000000000000000000, 0.1895833333333296622 ) ) ;
#230 = ORIENTED_EDGE ( 'NONE', *, *, #168, .T. ) ;
#231 = APPROVAL_DATE_TIME ( #235, #133 ) ;
#232 = AXIS2_PLACEMENT_3D ( 'NONE', #346, #370, #99 ) ;
#233 = ORIENTED_EDGE ( 'NONE', *, *, #45, .T. ) ;
#234 = EDGE_LOOP ( 'NONE', ( #329 ) ) ;
#235 = DATE_AND_TIME ( #116, #376 ) ;
#236 = APPROVAL ( #297, 'UNSPECIFIED' ) ;
#237 = DIRECTION ( 'NONE',  ( 3.491481338843133355E-15, -0.000000000000000000, 1.000000000000000000 ) ) ;
#238 = EDGE_CURVE ( 'NONE', #13, #13, #130, .T. ) ;
#239 = ORIENTED_EDGE ( 'NONE', *, *, #238, .F. ) ;
#240 = AXIS2_PLACEMENT_3D ( 'NONE', #369, #341, #220 ) ;
#241 = EDGE_LOOP ( 'NONE', ( #115 ) ) ;
#242 = CYLINDRICAL_SURFACE ( 'NONE', #304, 1.499999999999998224 ) ;
#243 = DIRECTION ( 'NONE',  ( 3.491481338843133355E-15, -0.000000000000000000, 1.000000000000000000 ) ) ;
#244 = CIRCLE ( 'NONE', #75, 0.7940741737109289211 ) ;
#245 = ADVANCED_FACE ( 'NONE', ( #139, #198 ), #323, .T. ) ;
#246 = CARTESIAN_POINT ( 'NONE',  ( 1.883945139084117760E-15, 0.000000000000000000, 0.5395833333333364124 ) ) ;
#247 = CARTESIAN_POINT ( 'NONE',  ( 2.444036937190190588E-15, 0.000000000000000000, 0.6999999999999992895 ) ) ;
#248 = FACE_OUTER_BOUND ( 'NONE', #263, .T. ) ;
#249 = AXIS2_PLACEMENT_3D ( 'NONE', #92, #308, #33 ) ;
#250 = DIRECTION ( 'NONE',  ( 0.000000000000000000, 0.000000000000000000, 1.000000000000000000 ) ) ;
#251 = DIRECTION ( 'NONE',  ( 3.491481338843133355E-15, -0.000000000000000000, 1.000000000000000000 ) ) ;
#252 =( NAMED_UNIT ( * ) SI_UNIT ( $, .STERADIAN. ) SOLID_ANGLE_UNIT ( ) );
#253 = FACE_BOUND ( 'NONE', #88, .T. ) ;
#254 =( NAMED_UNIT ( * ) PLANE_ANGLE_UNIT ( ) SI_UNIT ( $, .RADIAN. ) );
#255 = VERTEX_POINT ( 'NONE', #166 ) ;
#256 = ADVANCED_FACE ( 'NONE', ( #46, #71 ), #96, .T. ) ;
#257 = EDGE_CURVE ( 'NONE', #109, #109, #264, .T. ) ;
#258 = CIRCLE ( 'NONE', #174, 1.500000000000000000 ) ;
#259 = PERSON_AND_ORGANIZATION_ROLE ( 'design_owner' ) ;
#260 = DIRECTION ( 'NONE',  ( 3.491481338843133355E-15, -0.000000000000000000, 1.000000000000000000 ) ) ;
#261 = APPROVAL_STATUS ( 'not_yet_approved' ) ;
#262 = APPROVAL_DATE_TIME ( #295, #236 ) ;
#263 = EDGE_LOOP ( 'NONE', ( #202 ) ) ;
#264 = CIRCLE ( 'NONE', #319, 0.7600000000000000089 ) ;
#265 = EDGE_LOOP ( 'NONE', ( #273 ) ) ;
#266 = CC_DESIGN_PERSON_AND_ORGANIZATION_ASSIGNMENT ( #268, #23, ( #102 ) ) ;
#267 = DESIGN_CONTEXT ( 'detailed design', #336, 'design' ) ;
#268 = PERSON_AND_ORGANIZATION ( #193, #90 ) ;
#269 = DIRECTION ( 'NONE',  ( -1.000000000000000000, 0.000000000000000000, 4.625929269271495577E-15 ) ) ;
#270 = CARTESIAN_POINT ( 'NONE',  ( 0.8329274057836320022, 0.000000000000000000, 0.6999999999999962919 ) ) ;
#271 = ORIENTED_EDGE ( 'NONE', *, *, #86, .T. ) ;
#272 = ADVANCED_FACE ( 'NONE', ( #378, #290 ), #89, .T. ) ;
#273 = ORIENTED_EDGE ( 'NONE', *, *, #257, .T. ) ;
#274 = CIRCLE ( 'NONE', #340, 0.7571501829524913685 ) ;
#275 = DIRECTION ( 'NONE',  ( 1.000000000000000000, 0.000000000000000000, -4.625929269271495577E-15 ) ) ;
#276 = DIRECTION ( 'NONE',  ( 3.491481338843133355E-15, -0.000000000000000000, 1.000000000000000000 ) ) ;
#277 = FACE_OUTER_BOUND ( 'NONE', #234, .T. ) ;
#278 =( GEOMETRIC_REPRESENTATION_CONTEXT ( 3 ) GLOBAL_UNCERTAINTY_ASSIGNED_CONTEXT ( ( #377 ) ) GLOBAL_UNIT_ASSIGNED_CONTEXT ( ( #76, #254, #252 ) ) REPRESENTATION_CONTEXT ( 'NONE', 'WORKASPACE' ) );
#279 = EDGE_CURVE ( 'NONE', #352, #352, #244, .T. ) ;
#280 = FACE_OUTER_BOUND ( 'NONE', #364, .T. ) ;
#281 = CARTESIAN_POINT ( 'NONE',  ( 2.291284628615796404E-15, 0.000000000000000000, 0.6562499999999971134 ) ) ;
#282 = PRODUCT_DEFINITION_SHAPE ( 'NONE', 'NONE',  #114 ) ;
#283 = CALENDAR_DATE ( 2023, 27, 9 ) ;
#284 = FACE_OUTER_BOUND ( 'NONE', #51, .T. ) ;
#285 = CIRCLE ( 'NONE', #9, 1.034999999999999920 ) ;
#286 = FACE_OUTER_BOUND ( 'NONE', #214, .T. ) ;
#287 = CARTESIAN_POINT ( 'NONE',  ( 0.7940741737109577869, 0.000000000000000000, 8.258819045102509193 ) ) ;
#288 = VERTEX_POINT ( 'NONE', #136 ) ;
#289 = ADVANCED_FACE ( 'NONE', ( #284, #48 ), #161, .T. ) ;
#290 = FACE_BOUND ( 'NONE', #91, .T. ) ;
#291 = TOROIDAL_SURFACE ( 'NONE', #152, 1.759999999999999121, 1.000000000000000000 ) ;
#292 = APPLICATION_PROTOCOL_DEFINITION ( 'international standard', 'config_control_design', 1994, #336 ) ;
#293 = DIRECTION ( 'NONE',  ( -1.000000000000000000, 0.000000000000000000, 3.491481338843133355E-15 ) ) ;
#294 = ORIENTED_EDGE ( 'NONE', *, *, #257, .F. ) ;
#295 = DATE_AND_TIME ( #25, #132 ) ;
#296 = EDGE_LOOP ( 'NONE', ( #233 ) ) ;
#297 = APPROVAL_STATUS ( 'not_yet_approved' ) ;
#298 = AXIS2_PLACEMENT_3D ( 'NONE', #135, #224, #293 ) ;
#299 = ORIENTED_EDGE ( 'NONE', *, *, #94, .T. ) ;
#300 = EDGE_LOOP ( 'NONE', ( #60 ) ) ;
#301 = VERTEX_POINT ( 'NONE', #204 ) ;
#302 = EDGE_LOOP ( 'NONE', ( #239 ) ) ;
#303 = CARTESIAN_POINT ( 'NONE',  ( 1.316288464743861212E-13, 0.000000000000000000, 37.69999999999999574 ) ) ;
#304 = AXIS2_PLACEMENT_3D ( 'NONE', #366, #77, #200 ) ;
#305 = AXIS2_PLACEMENT_3D ( 'NONE', #380, #350, #44 ) ;
#306 = DIRECTION ( 'NONE',  ( -1.000000000000000000, 0.000000000000000000, 3.483064950255364665E-15 ) ) ;
#307 = VERTEX_POINT ( 'NONE', #12 ) ;
#308 = DIRECTION ( 'NONE',  ( 3.491481338843133355E-15, -0.000000000000000000, 1.000000000000000000 ) ) ;
#309 = MANIFOLD_SOLID_BREP ( 'Corps-Déplacer/Copier1', #151 ) ;
#310 = FACE_OUTER_BOUND ( 'NONE', #338, .T. ) ;
#311 = CIRCLE ( 'NONE', #363, 0.7599999999999991207 ) ;
#312 = APPROVAL_PERSON_ORGANIZATION ( #361, #236, #180 ) ;
#313 = CARTESIAN_POINT ( 'NONE',  ( 3.803399840446228583E-14, 0.000000000000000000, 10.89337009518843935 ) ) ;
#314 = DIRECTION ( 'NONE',  ( 3.491481338843133355E-15, -0.000000000000000000, 1.000000000000000000 ) ) ;
#315 = EDGE_LOOP ( 'NONE', ( #26 ) ) ;
#316 = ADVANCED_FACE ( 'NONE', ( #325, #321 ), #173, .F. ) ;
#317 = PERSON_AND_ORGANIZATION_ROLE ( 'creator' ) ;
#318 = CARTESIAN_POINT ( 'NONE',  ( 0.000000000000000000, 0.000000000000000000, 0.000000000000000000 ) ) ;
#319 = AXIS2_PLACEMENT_3D ( 'NONE', #355, #78, #74 ) ;
#320 = CC_DESIGN_APPROVAL ( #236, ( #119 ) ) ;
#321 = FACE_OUTER_BOUND ( 'NONE', #27, .T. ) ;
#322 = VERTEX_POINT ( 'NONE', #40 ) ;
#323 = CYLINDRICAL_SURFACE ( 'NONE', #129, 1.034999999999999920 ) ;
#324 = CARTESIAN_POINT ( 'NONE',  ( 0.8329274057836310030, 0.000000000000000000, 0.3937499999999953260 ) ) ;
#325 = FACE_BOUND ( 'NONE', #184, .T. ) ;
#326 = ORIENTED_EDGE ( 'NONE', *, *, #368, .T. ) ;
#327 = APPROVAL_PERSON_ORGANIZATION ( #207, #133, #331 ) ;
#328 = ORIENTED_EDGE ( 'NONE', *, *, #21, .F. ) ;
#329 = ORIENTED_EDGE ( 'NONE', *, *, #368, .F. ) ;
#330 = FACE_BOUND ( 'NONE', #212, .T. ) ;
#331 = APPROVAL_ROLE ( '' ) ;
#332 = AXIS2_PLACEMENT_3D ( 'NONE', #11, #260, #383 ) ;
#333 = CC_DESIGN_APPROVAL ( #133, ( #102 ) ) ;
#334 = ORIENTED_EDGE ( 'NONE', *, *, #94, .F. ) ;
#335 = ADVANCED_FACE ( 'NONE', ( #8, #248 ), #101, .T. ) ;
#336 = APPLICATION_CONTEXT ( 'configuration controlled 3d designs of mechanical parts and assemblies' ) ;
#337 = CARTESIAN_POINT ( 'NONE',  ( 1.500000000000037970, 0.000000000000000000, 10.89337009518843402 ) ) ;
#338 = EDGE_LOOP ( 'NONE', ( #53 ) ) ;
#339 = DIRECTION ( 'NONE',  ( -3.491481338843133355E-15, 0.000000000000000000, -1.000000000000000000 ) ) ;
#340 = AXIS2_PLACEMENT_3D ( 'NONE', #66, #219, #160 ) ;
#341 = DIRECTION ( 'NONE',  ( 3.491481338843133355E-15, -0.000000000000000000, 1.000000000000000000 ) ) ;
#342 = FACE_OUTER_BOUND ( 'NONE', #146, .T. ) ;
#343 = EDGE_CURVE ( 'NONE', #354, #354, #213, .T. ) ;
#344 = DIRECTION ( 'NONE',  ( 1.000000000000000000, 0.000000000000000000, -3.514527010858497289E-15 ) ) ;
#345 = VERTEX_POINT ( 'NONE', #106 ) ;
#346 = CARTESIAN_POINT ( 'NONE',  ( 5.600917981060968883E-16, 0.000000000000000000, 0.1604166666666698160 ) ) ;
#347 = DIRECTION ( 'NONE',  ( 3.491481338843133355E-15, -0.000000000000000000, 1.000000000000000000 ) ) ;
#348 = CARTESIAN_POINT ( 'NONE',  ( 0.8329274057836306699, 0.000000000000000000, 0.3062499999999980238 ) ) ;
#349 = DIRECTION ( 'NONE',  ( 1.000000000000000000, 0.000000000000000000, -3.483064950255364665E-15 ) ) ;
#350 = DIRECTION ( 'NONE',  ( 3.491481338843133355E-15, -0.000000000000000000, 1.000000000000000000 ) ) ;
#351 = CIRCLE ( 'NONE', #100, 0.8329274057836295597 ) ;
#352 = VERTEX_POINT ( 'NONE', #287 ) ;
#353 = VERTEX_POINT ( 'NONE', #337 ) ;
#354 = VERTEX_POINT ( 'NONE', #229 ) ;
#355 = CARTESIAN_POINT ( 'NONE',  ( 2.444036937190190588E-15, 0.000000000000000000, 0.6999999999999992895 ) ) ;
#356 = CONICAL_SURFACE ( 'NONE', #226, 1.034999999999999920, 1.047197551196596743 ) ;
#357 = CC_DESIGN_SECURITY_CLASSIFICATION ( #102, ( #119 ) ) ;
#358 = VERTEX_POINT ( 'NONE', #371 ) ;
#359 = ORIENTED_EDGE ( 'NONE', *, *, #381, .F. ) ;
#360 = ORIENTED_EDGE ( 'NONE', *, *, #21, .T. ) ;
#361 = PERSON_AND_ORGANIZATION ( #193, #90 ) ;
#362 = CARTESIAN_POINT ( 'NONE',  ( 1.326762908760390423E-13, 0.000000000000000000, 38.00000000000000000 ) ) ;
#363 = AXIS2_PLACEMENT_3D ( 'NONE', #72, #227, #165 ) ;
#364 = EDGE_LOOP ( 'NONE', ( #334 ) ) ;
#365 = DIRECTION ( 'NONE',  ( 1.000000000000000000, 0.000000000000000000, -3.456876491982768081E-15 ) ) ;
#366 = CARTESIAN_POINT ( 'NONE',  ( 1.326762908760390423E-13, 0.000000000000000000, 38.00000000000000000 ) ) ;
#367 = PRODUCT_RELATED_PRODUCT_CATEGORY ( 'detail', '', ( #128 ) ) ;
#368 = EDGE_CURVE ( 'NONE', #322, #322, #311, .T. ) ;
#369 = CARTESIAN_POINT ( 'NONE',  ( 1.374770777169477842E-15, 0.000000000000000000, 0.3937499999999982681 ) ) ;
#370 = DIRECTION ( 'NONE',  ( 3.491481338843133355E-15, -0.000000000000000000, 1.000000000000000000 ) ) ;
#371 = CARTESIAN_POINT ( 'NONE',  ( 0.8329274057836318912, 0.000000000000000000, 0.6562499999999942268 ) ) ;
#372 = DIRECTION ( 'NONE',  ( 1.000000000000000000, 0.000000000000000000, -3.491481338843133355E-15 ) ) ;
#373 = ADVANCED_FACE ( 'NONE', ( #286, #253 ), #393, .T. ) ;
#374 = DIRECTION ( 'NONE',  ( 3.491481338843133355E-15, -0.000000000000000000, 1.000000000000000000 ) ) ;
#375 = AXIS2_PLACEMENT_3D ( 'NONE', #247, #157, #344 ) ;
#376 = LOCAL_TIME ( 10, 26, 56.00000000000000000, #389 ) ;
#377 = UNCERTAINTY_MEASURE_WITH_UNIT (LENGTH_MEASURE( 1.000000000000000082E-05 ), #76, 'distance_accuracy_value', 'NONE');
#378 = FACE_OUTER_BOUND ( 'NONE', #241, .T. ) ;
#379 = CARTESIAN_POINT ( 'NONE',  ( 2.883551257685768636E-14, 0.000000000000000000, 8.258819045102512746 ) ) ;
#380 = CARTESIAN_POINT ( 'NONE',  ( 1.069266160020712943E-15, 0.000000000000000000, 0.3062500000000009659 ) ) ;
#381 = EDGE_CURVE ( 'NONE', #50, #50, #158, .T. ) ;
#382 = AXIS2_PLACEMENT_3D ( 'NONE', #318, #104, #201 ) ;
#383 = DIRECTION ( 'NONE',  ( 1.000000000000000000, 0.000000000000000000, -6.704245317784761908E-15 ) ) ;
#384 = ORIENTED_EDGE ( 'NONE', *, *, #175, .T. ) ;
#385 = PERSON_AND_ORGANIZATION_ROLE ( 'creator' ) ;
#386 = ORIENTED_EDGE ( 'NONE', *, *, #86, .F. ) ;
#387 = AXIS2_PLACEMENT_3D ( 'NONE', #303, #30, #275 ) ;
#388 = EDGE_LOOP ( 'NONE', ( #24 ) ) ;
#389 = COORDINATED_UNIVERSAL_TIME_OFFSET ( 1, 0, .AHEAD. ) ;
#390 = EDGE_LOOP ( 'NONE', ( #113 ) ) ;
#391 = ORIENTED_EDGE ( 'NONE', *, *, #343, .F. ) ;
#392 = CIRCLE ( 'NONE', #375, 0.8329274057836294487 ) ;
#393 = CONICAL_SURFACE ( 'NONE', #49, 0.7940741737109289211, 0.2617993877991425244 ) ;
#394 = ORIENTED_EDGE ( 'NONE', *, *, #111, .F. ) ;
#395 = FACE_OUTER_BOUND ( 'NONE', #149, .T. ) ;
ENDSEC;
END-ISO-10303-21;
