ISO-10303-21;
HEADER;
FILE_DESCRIPTION (( 'STEP AP203' ),
    '1' );
FILE_NAME ('961160.step',
    '2023-09-27T08:26:55',
    ( '' ),
    ( '' ),
    'SwSTEP 2.0',
    'SolidWorks 2022',
    '' );
FILE_SCHEMA (( 'CONFIG_CONTROL_DESIGN' ));
ENDSEC;

DATA;
#1 = FACE_BOUND ( 'NONE', #330, .T. ) ;
#2 = UNCERTAINTY_MEASURE_WITH_UNIT (LENGTH_MEASURE( 1.000000000000000082E-05 ), #248, 'distance_accuracy_value', 'NONE');
#3 = CIRCLE ( 'NONE', #113, 0.9290741737109289300 ) ;
#4 = CARTESIAN_POINT ( 'NONE',  ( 0.000000000000000000, 0.000000000000000000, 0.000000000000000000 ) ) ;
#5 = CONICAL_SURFACE ( 'NONE', #134, 1.499999999999996669, 0.7853981633974389531 ) ;
#6 = CARTESIAN_POINT ( 'NONE',  ( 1.326762908760390423E-13, 0.000000000000000000, 38.00000000000000000 ) ) ;
#7 = DIRECTION ( 'NONE',  ( 3.491481338843133355E-15, -0.000000000000000000, 1.000000000000000000 ) ) ;
#8 = CALENDAR_DATE ( 2023, 27, 9 ) ;
#9 = FACE_OUTER_BOUND ( 'NONE', #273, .T. ) ;
#10 = CONICAL_SURFACE ( 'NONE', #210, 0.8915358449660651941, 1.047197551196595189 ) ;
#11 = DIRECTION ( 'NONE',  ( 3.491481338843133355E-15, -0.000000000000000000, 1.000000000000000000 ) ) ;
#12 = ADVANCED_FACE ( 'NONE', ( #62, #281 ), #142, .T. ) ;
#13 = DIRECTION ( 'NONE',  ( -3.491481338843133355E-15, 0.000000000000000000, -1.000000000000000000 ) ) ;
#14 = CARTESIAN_POINT ( 'NONE',  ( 4.728047646350040591E-16, 0.000000000000000000, 0.1354166666666656305 ) ) ;
#15 = COORDINATED_UNIVERSAL_TIME_OFFSET ( 1, 0, .AHEAD. ) ;
#16 = FACE_BOUND ( 'NONE', #363, .T. ) ;
#17 = AXIS2_PLACEMENT_3D ( 'NONE', #6, #339, #368 ) ;
#18 = LOCAL_TIME ( 10, 26, 55.00000000000000000, #294 ) ;
#19 = APPROVAL_ROLE ( '' ) ;
#20 = DIRECTION ( 'NONE',  ( 1.000000000000000000, 0.000000000000000000, -3.469446951953614189E-15 ) ) ;
#21 = PERSON_AND_ORGANIZATION ( #235, #26 ) ;
#22 = ORIENTED_EDGE ( 'NONE', *, *, #267, .F. ) ;
#23 = APPROVAL_DATE_TIME ( #296, #150 ) ;
#24 = AXIS2_PLACEMENT_3D ( 'NONE', #186, #147, #120 ) ;
#25 = EDGE_LOOP ( 'NONE', ( #161 ) ) ;
#26 = ORGANIZATION ( 'UNSPECIFIED', 'UNSPECIFIED', '' ) ;
#27 = DIRECTION ( 'NONE',  ( 3.491481338843133355E-15, -0.000000000000000000, 1.000000000000000000 ) ) ;
#28 = ORIENTED_EDGE ( 'NONE', *, *, #254, .F. ) ;
#29 = APPLICATION_CONTEXT ( 'configuration controlled 3d designs of mechanical parts and assemblies' ) ;
#30 = DIRECTION ( 'NONE',  ( 1.000000000000000000, 0.000000000000000000, 0.000000000000000000 ) ) ;
#31 = ADVANCED_FACE ( 'NONE', ( #9, #144 ), #315, .T. ) ;
#32 = EDGE_LOOP ( 'NONE', ( #136 ) ) ;
#33 = TOROIDAL_SURFACE ( 'NONE', #152, 1.894999999999999130, 1.000000000000000000 ) ;
#34 = APPLICATION_PROTOCOL_DEFINITION ( 'international standard', 'config_control_design', 1994, #369 ) ;
#35 = DIRECTION ( 'NONE',  ( 1.000000000000000000, 0.000000000000000000, -5.782411586589354089E-15 ) ) ;
#36 = DIRECTION ( 'NONE',  ( 1.000000000000000000, 0.000000000000000000, -3.491481338843133355E-15 ) ) ;
#37 = EDGE_CURVE ( 'NONE', #217, #217, #173, .T. ) ;
#38 = DIRECTION ( 'NONE',  ( 3.491481338843133355E-15, -0.000000000000000000, 1.000000000000000000 ) ) ;
#39 = ADVANCED_FACE ( 'NONE', ( #197, #1 ), #92, .T. ) ;
#40 = CONICAL_SURFACE ( 'NONE', #98, 0.9290741737109289300, 0.2617993877991424134 ) ;
#41 = VERTEX_POINT ( 'NONE', #334 ) ;
#42 = AXIS2_PLACEMENT_3D ( 'NONE', #290, #27, #163 ) ;
#43 = FACE_OUTER_BOUND ( 'NONE', #305, .T. ) ;
#44 = CALENDAR_DATE ( 2023, 27, 9 ) ;
#45 = DIRECTION ( 'NONE',  ( 3.491481338843133355E-15, -0.000000000000000000, 1.000000000000000000 ) ) ;
#46 = SECURITY_CLASSIFICATION_LEVEL ( 'unclassified' ) ;
#47 = CARTESIAN_POINT ( 'NONE',  ( 1.745740669421568255E-15, 0.000000000000000000, 0.5000000000000004441 ) ) ;
#48 = CC_DESIGN_PERSON_AND_ORGANIZATION_ASSIGNMENT ( #21, #343, ( #251 ) ) ;
#49 = CONICAL_SURFACE ( 'NONE', #326, 1.090000000000000080, 1.047197551196611620 ) ;
#50 =( GEOMETRIC_REPRESENTATION_CONTEXT ( 3 ) GLOBAL_UNCERTAINTY_ASSIGNED_CONTEXT ( ( #2 ) ) GLOBAL_UNIT_ASSIGNED_CONTEXT ( ( #248, #174, #111 ) ) REPRESENTATION_CONTEXT ( 'NONE', 'WORKASPACE' ) );
#51 = DIRECTION ( 'NONE',  ( 1.000000000000000000, 0.000000000000000000, -3.513057318668114882E-15 ) ) ;
#52 = PRODUCT_RELATED_PRODUCT_CATEGORY ( 'detail', '', ( #180 ) ) ;
#53 = FACE_OUTER_BOUND ( 'NONE', #133, .T. ) ;
#54 = DIRECTION ( 'NONE',  ( 3.491481338843133355E-15, -0.000000000000000000, 1.000000000000000000 ) ) ;
#55 = CALENDAR_DATE ( 2023, 27, 9 ) ;
#56 = EDGE_CURVE ( 'NONE', #165, #165, #71, .T. ) ;
#57 = DIRECTION ( 'NONE',  ( 1.000000000000000000, 0.000000000000000000, -3.734305667001668009E-15 ) ) ;
#58 = AXIS2_PLACEMENT_3D ( 'NONE', #336, #249, #311 ) ;
#59 = PRODUCT_DEFINITION_FORMATION_WITH_SPECIFIED_SOURCE ( 'ANY', '', #180, .NOT_KNOWN. ) ;
#60 = MANIFOLD_SOLID_BREP ( 'Corps-Déplacer/Copier1', #200 ) ;
#61 = CARTESIAN_POINT ( 'NONE',  ( 1.090000000000001412, 0.000000000000000000, 0.3645833333333310389 ) ) ;
#62 = FACE_OUTER_BOUND ( 'NONE', #387, .T. ) ;
#63 = AXIS2_PLACEMENT_3D ( 'NONE', #346, #261, #380 ) ;
#64 = EDGE_LOOP ( 'NONE', ( #129 ) ) ;
#65 = LOCAL_TIME ( 10, 26, 55.00000000000000000, #209 ) ;
#66 = EDGE_LOOP ( 'NONE', ( #389 ) ) ;
#67 = CC_DESIGN_PERSON_AND_ORGANIZATION_ASSIGNMENT ( #156, #284, ( #59 ) ) ;
#68 = EDGE_LOOP ( 'NONE', ( #328 ) ) ;
#69 = VERTEX_POINT ( 'NONE', #276 ) ;
#70 = ORIENTED_EDGE ( 'NONE', *, *, #177, .F. ) ;
#71 = CIRCLE ( 'NONE', #263, 1.200000000000000622 ) ;
#72 = APPROVAL_PERSON_ORGANIZATION ( #393, #150, #386 ) ;
#73 = PERSON_AND_ORGANIZATION ( #235, #26 ) ;
#74 = FACE_OUTER_BOUND ( 'NONE', #275, .T. ) ;
#75 = ADVANCED_FACE ( 'NONE', ( #370 ), #344, .F. ) ;
#76 = CARTESIAN_POINT ( 'NONE',  ( 1.326762908760390423E-13, 0.000000000000000000, 38.00000000000000000 ) ) ;
#77 = APPROVAL ( #203, 'UNSPECIFIED' ) ;
#78 = CARTESIAN_POINT ( 'NONE',  ( 1.954883815507749883E-32, 0.000000000000000000, 5.599009777768082858E-18 ) ) ;
#79 = DIRECTION ( 'NONE',  ( 3.491481338843133355E-15, -0.000000000000000000, 1.000000000000000000 ) ) ;
#80 = DATE_AND_TIME ( #270, #353 ) ;
#81 = CARTESIAN_POINT ( 'NONE',  ( 1.636631877582708111E-15, 0.000000000000000000, 0.4687499999999969469 ) ) ;
#82 = DIRECTION ( 'NONE',  ( -3.491481338843133355E-15, 0.000000000000000000, -1.000000000000000000 ) ) ;
#83 = CIRCLE ( 'NONE', #300, 0.9456624327025928700 ) ;
#84 = LOCAL_TIME ( 10, 26, 55.00000000000000000, #324 ) ;
#85 = CARTESIAN_POINT ( 'NONE',  ( 1.745740669421568255E-15, 0.000000000000000000, 0.5000000000000004441 ) ) ;
#86 = FACE_OUTER_BOUND ( 'NONE', #298, .T. ) ;
#87 = ADVANCED_FACE ( 'NONE', ( #223, #338 ), #256, .T. ) ;
#88 = CALENDAR_DATE ( 2023, 27, 9 ) ;
#89 = DIRECTION ( 'NONE',  ( 3.491481338843133355E-15, -0.000000000000000000, 1.000000000000000000 ) ) ;
#90 = APPROVAL_STATUS ( 'not_yet_approved' ) ;
#91 = AXIS2_PLACEMENT_3D ( 'NONE', #138, #365, #258 ) ;
#92 = CONICAL_SURFACE ( 'NONE', #230, 0.9456624327025928700, 1.047197551196611620 ) ;
#93 = EDGE_CURVE ( 'NONE', #188, #188, #307, .T. ) ;
#94 = VERTEX_POINT ( 'NONE', #61 ) ;
#95 = ORIENTED_EDGE ( 'NONE', *, *, #132, .T. ) ;
#96 = CARTESIAN_POINT ( 'NONE',  ( 0.9456624327025937582, 0.000000000000000000, 0.2812500000000003886 ) ) ;
#97 = EDGE_LOOP ( 'NONE', ( #242 ) ) ;
#98 = AXIS2_PLACEMENT_3D ( 'NONE', #265, #153, #57 ) ;
#99 = EDGE_LOOP ( 'NONE', ( #190 ) ) ;
#100 = CIRCLE ( 'NONE', #42, 1.090000000000000080 ) ;
#101 = EDGE_LOOP ( 'NONE', ( #160 ) ) ;
#102 = PERSON_AND_ORGANIZATION_ROLE ( 'design_owner' ) ;
#103 = EDGE_LOOP ( 'NONE', ( #195 ) ) ;
#104 = CARTESIAN_POINT ( 'NONE',  ( 1.090000000000000524, 0.000000000000000000, 0.1145833333333307891 ) ) ;
#105 = DIRECTION ( 'NONE',  ( 3.491481338843133355E-15, -0.000000000000000000, 1.000000000000000000 ) ) ;
#106 = AXIS2_PLACEMENT_3D ( 'NONE', #85, #115, #208 ) ;
#107 = CIRCLE ( 'NONE', #367, 1.090000000000000080 ) ;
#108 = DIRECTION ( 'NONE',  ( 1.000000000000000000, 0.000000000000000000, -3.491481338843133355E-15 ) ) ;
#109 = VERTEX_POINT ( 'NONE', #141 ) ;
#110 = CARTESIAN_POINT ( 'NONE',  ( 9.819791265496442724E-16, 0.000000000000000000, 0.2812500000000037192 ) ) ;
#111 =( NAMED_UNIT ( * ) SI_UNIT ( $, .STERADIAN. ) SOLID_ANGLE_UNIT ( ) );
#112 = CARTESIAN_POINT ( 'NONE',  ( 7.637615428719239830E-16, 0.000000000000000000, 0.2187499999999967248 ) ) ;
#113 = AXIS2_PLACEMENT_3D ( 'NONE', #289, #11, #347 ) ;
#114 = CARTESIAN_POINT ( 'NONE',  ( 0.000000000000000000, 0.000000000000000000, 0.000000000000000000 ) ) ;
#115 = DIRECTION ( 'NONE',  ( 3.491481338843133355E-15, -0.000000000000000000, 1.000000000000000000 ) ) ;
#116 = ADVANCED_FACE ( 'NONE', ( #309, #43 ), #175, .T. ) ;
#117 = DIRECTION ( 'NONE',  ( 1.000000000000000000, 0.000000000000000000, -3.481383122659876478E-15 ) ) ;
#118 = CIRCLE ( 'NONE', #313, 0.8949999999999991296 ) ;
#119 = CYLINDRICAL_SURFACE ( 'NONE', #24, 1.090000000000000080 ) ;
#120 = DIRECTION ( 'NONE',  ( 1.000000000000000000, 0.000000000000000000, -6.365957710006631387E-15 ) ) ;
#121 = DATE_AND_TIME ( #55, #18 ) ;
#122 = DIRECTION ( 'NONE',  ( -3.491481338843133355E-15, 0.000000000000000000, -1.000000000000000000 ) ) ;
#123 = DATE_AND_TIME ( #88, #84 ) ;
#124 = EDGE_CURVE ( 'NONE', #268, #268, #250, .T. ) ;
#125 = CONICAL_SURFACE ( 'NONE', #139, 1.090000000000000080, 1.047197551196611620 ) ;
#126 = ORIENTED_EDGE ( 'NONE', *, *, #303, .F. ) ;
#127 = DATE_AND_TIME ( #8, #65 ) ;
#128 = VERTEX_POINT ( 'NONE', #241 ) ;
#129 = ORIENTED_EDGE ( 'NONE', *, *, #124, .T. ) ;
#130 = VERTEX_POINT ( 'NONE', #297 ) ;
#131 = ORIENTED_EDGE ( 'NONE', *, *, #371, .T. ) ;
#132 = EDGE_CURVE ( 'NONE', #94, #94, #341, .T. ) ;
#133 = EDGE_LOOP ( 'NONE', ( #22 ) ) ;
#134 = AXIS2_PLACEMENT_3D ( 'NONE', #206, #82, #204 ) ;
#135 = CARTESIAN_POINT ( 'NONE',  ( 0.8950000000000271072, 0.000000000000000000, 7.999999999999996447 ) ) ;
#136 = ORIENTED_EDGE ( 'NONE', *, *, #37, .T. ) ;
#137 = DIRECTION ( 'NONE',  ( 1.000000000000000000, 0.000000000000000000, -4.625929269271495577E-15 ) ) ;
#138 = CARTESIAN_POINT ( 'NONE',  ( 1.326762908760390423E-13, 0.000000000000000000, 38.00000000000000000 ) ) ;
#139 = AXIS2_PLACEMENT_3D ( 'NONE', #14, #13, #259 ) ;
#140 = CC_DESIGN_APPROVAL ( #150, ( #184 ) ) ;
#141 = CARTESIAN_POINT ( 'NONE',  ( 0.8950000000000017941, 0.000000000000000000, 0.4999999999999972800 ) ) ;
#142 = CYLINDRICAL_SURFACE ( 'NONE', #91, 0.9456624327025928700 ) ;
#143 = DIRECTION ( 'NONE',  ( 1.000000000000000000, 0.000000000000000000, -6.365957710006631387E-15 ) ) ;
#144 = FACE_OUTER_BOUND ( 'NONE', #390, .T. ) ;
#145 = AXIS2_PLACEMENT_3D ( 'NONE', #377, #79, #202 ) ;
#146 = FACE_BOUND ( 'NONE', #166, .T. ) ;
#147 = DIRECTION ( 'NONE',  ( 3.491481338843133355E-15, -0.000000000000000000, 1.000000000000000000 ) ) ;
#148 = EDGE_CURVE ( 'NONE', #130, #130, #185, .T. ) ;
#149 = DIRECTION ( 'NONE',  ( 3.491481338843133355E-15, -0.000000000000000000, 1.000000000000000000 ) ) ;
#150 = APPROVAL ( #366, 'UNSPECIFIED' ) ;
#151 = APPROVAL_DATE_TIME ( #121, #262 ) ;
#152 = AXIS2_PLACEMENT_3D ( 'NONE', #378, #149, #321 ) ;
#153 = DIRECTION ( 'NONE',  ( 3.491481338843133355E-15, -0.000000000000000000, 1.000000000000000000 ) ) ;
#154 = APPROVAL_ROLE ( '' ) ;
#155 = DIRECTION ( 'NONE',  ( -3.491481338843133355E-15, 0.000000000000000000, -1.000000000000000000 ) ) ;
#156 = PERSON_AND_ORGANIZATION ( #235, #26 ) ;
#157 = EDGE_LOOP ( 'NONE', ( #70 ) ) ;
#158 = COORDINATED_UNIVERSAL_TIME_OFFSET ( 1, 0, .AHEAD. ) ;
#159 = AXIS2_PLACEMENT_3D ( 'NONE', #345, #89, #20 ) ;
#160 = ORIENTED_EDGE ( 'NONE', *, *, #332, .F. ) ;
#161 = ORIENTED_EDGE ( 'NONE', *, *, #303, .T. ) ;
#162 = ADVANCED_FACE ( 'NONE', ( #169, #222 ), #176, .F. ) ;
#163 = DIRECTION ( 'NONE',  ( 1.000000000000000000, 0.000000000000000000, -3.481383122659876478E-15 ) ) ;
#164 = EDGE_LOOP ( 'NONE', ( #269 ) ) ;
#165 = VERTEX_POINT ( 'NONE', #246 ) ;
#166 = EDGE_LOOP ( 'NONE', ( #212 ) ) ;
#167 = DESIGN_CONTEXT ( 'detailed design', #369, 'design' ) ;
#168 = ADVANCED_FACE ( 'NONE', ( #74, #286 ), #10, .T. ) ;
#169 = FACE_BOUND ( 'NONE', #101, .T. ) ;
#170 = VERTEX_POINT ( 'NONE', #337 ) ;
#171 = DIRECTION ( 'NONE',  ( 1.000000000000000000, 0.000000000000000000, -3.491481338843133355E-15 ) ) ;
#172 = DIRECTION ( 'NONE',  ( 1.000000000000000000, 0.000000000000000000, -3.496825623737946861E-15 ) ) ;
#173 = CIRCLE ( 'NONE', #376, 1.499999999999996669 ) ;
#174 =( NAMED_UNIT ( * ) PLANE_ANGLE_UNIT ( ) SI_UNIT ( $, .RADIAN. ) );
#175 = CYLINDRICAL_SURFACE ( 'NONE', #191, 1.090000000000000080 ) ;
#176 = PLANE ( 'NONE',  #58 ) ;
#177 = EDGE_CURVE ( 'NONE', #128, #128, #280, .T. ) ;
#178 = CYLINDRICAL_SURFACE ( 'NONE', #63, 1.499999999999998224 ) ;
#179 = DIRECTION ( 'NONE',  ( 1.000000000000000000, 0.000000000000000000, -3.496825623737946861E-15 ) ) ;
#180 = PRODUCT ( '961160', '961160', '', ( #201 ) ) ;
#181 = FACE_OUTER_BOUND ( 'NONE', #358, .T. ) ;
#182 = APPROVAL_DATE_TIME ( #127, #77 ) ;
#183 = FACE_BOUND ( 'NONE', #391, .T. ) ;
#184 = PRODUCT_DEFINITION ( 'UNKNOWN', '', #59, #167 ) ;
#185 = CIRCLE ( 'NONE', #350, 0.8915358449660651941 ) ;
#186 = CARTESIAN_POINT ( 'NONE',  ( 1.326762908760390423E-13, 0.000000000000000000, 38.00000000000000000 ) ) ;
#187 = CC_DESIGN_DATE_AND_TIME_ASSIGNMENT ( #123, #237, ( #251 ) ) ;
#188 = VERTEX_POINT ( 'NONE', #211 ) ;
#189 = ADVANCED_FACE ( 'NONE', ( #325, #205 ), #119, .T. ) ;
#190 = ORIENTED_EDGE ( 'NONE', *, *, #56, .F. ) ;
#191 = AXIS2_PLACEMENT_3D ( 'NONE', #283, #7, #143 ) ;
#192 = EDGE_LOOP ( 'NONE', ( #126 ) ) ;
#193 = EDGE_CURVE ( 'NONE', #357, #357, #83, .T. ) ;
#194 = ORIENTED_EDGE ( 'NONE', *, *, #132, .F. ) ;
#195 = ORIENTED_EDGE ( 'NONE', *, *, #359, .F. ) ;
#196 = ORIENTED_EDGE ( 'NONE', *, *, #371, .F. ) ;
#197 = FACE_OUTER_BOUND ( 'NONE', #216, .T. ) ;
#198 = DIRECTION ( 'NONE',  ( 3.491481338843133355E-15, -0.000000000000000000, 1.000000000000000000 ) ) ;
#199 = DIRECTION ( 'NONE',  ( 3.491481338843133355E-15, -0.000000000000000000, 1.000000000000000000 ) ) ;
#200 = CLOSED_SHELL ( 'NONE', ( #75, #168, #116, #234, #12, #39, #189, #285, #31, #162, #87, #310, #295, #240, #322, #264 ) ) ;
#201 = MECHANICAL_CONTEXT ( 'NONE', #29, 'mechanical' ) ;
#202 = DIRECTION ( 'NONE',  ( 1.000000000000000000, 0.000000000000000000, -3.481383122659876478E-15 ) ) ;
#203 = APPROVAL_STATUS ( 'not_yet_approved' ) ;
#204 = DIRECTION ( 'NONE',  ( -1.000000000000000000, 0.000000000000000000, 4.625929269271495577E-15 ) ) ;
#205 = FACE_OUTER_BOUND ( 'NONE', #301, .T. ) ;
#206 = CARTESIAN_POINT ( 'NONE',  ( 1.316288464743861212E-13, 0.000000000000000000, 37.69999999999999574 ) ) ;
#207 = DIRECTION ( 'NONE',  ( -1.000000000000000000, 0.000000000000000000, 3.491481338843133355E-15 ) ) ;
#208 = DIRECTION ( 'NONE',  ( 1.000000000000000000, 0.000000000000000000, -3.439500613512734766E-15 ) ) ;
#209 = COORDINATED_UNIVERSAL_TIME_OFFSET ( 1, 0, .AHEAD. ) ;
#210 = AXIS2_PLACEMENT_3D ( 'NONE', #114, #227, #171 ) ;
#211 = CARTESIAN_POINT ( 'NONE',  ( 0.9456624327025944243, 0.000000000000000000, 0.4687499999999936162 ) ) ;
#212 = ORIENTED_EDGE ( 'NONE', *, *, #93, .F. ) ;
#213 = ORIENTED_EDGE ( 'NONE', *, *, #124, .F. ) ;
#214 = AXIS2_PLACEMENT_3D ( 'NONE', #232, #155, #207 ) ;
#215 = DIRECTION ( 'NONE',  ( 1.000000000000000000, 0.000000000000000000, -3.493816633812232898E-15 ) ) ;
#216 = EDGE_LOOP ( 'NONE', ( #194 ) ) ;
#217 = VERTEX_POINT ( 'NONE', #304 ) ;
#218 = ORIENTED_EDGE ( 'NONE', *, *, #37, .F. ) ;
#219 = ORIENTED_EDGE ( 'NONE', *, *, #56, .T. ) ;
#220 = APPLICATION_PROTOCOL_DEFINITION ( 'international standard', 'config_control_design', 1994, #29 ) ;
#221 = AXIS2_PLACEMENT_3D ( 'NONE', #78, #38, #108 ) ;
#222 = FACE_OUTER_BOUND ( 'NONE', #66, .T. ) ;
#223 = FACE_OUTER_BOUND ( 'NONE', #192, .T. ) ;
#224 = DIRECTION ( 'NONE',  ( 3.491481338843133355E-15, -0.000000000000000000, 1.000000000000000000 ) ) ;
#225 = AXIS2_PLACEMENT_3D ( 'NONE', #76, #198, #279 ) ;
#226 = CC_DESIGN_APPROVAL ( #77, ( #251 ) ) ;
#227 = DIRECTION ( 'NONE',  ( 3.491481338843133355E-15, -0.000000000000000000, 1.000000000000000000 ) ) ;
#228 = CARTESIAN_POINT ( 'NONE',  ( 2.793185071074506684E-14, 0.000000000000000000, 8.000000000000000000 ) ) ;
#229 = FACE_OUTER_BOUND ( 'NONE', #97, .T. ) ;
#230 = AXIS2_PLACEMENT_3D ( 'NONE', #110, #105, #312 ) ;
#231 = APPROVAL_PERSON_ORGANIZATION ( #383, #262, #19 ) ;
#232 = CARTESIAN_POINT ( 'NONE',  ( 1.326762908760390423E-13, 1.200000000000000622, 38.00000000000000000 ) ) ;
#233 = PLANE ( 'NONE',  #214 ) ;
#234 = ADVANCED_FACE ( 'NONE', ( #183, #229 ), #125, .T. ) ;
#235 = PERSON ( 'UNSPECIFIED', 'UNSPECIFIED', 'UNSPECIFIED', ('UNSPECIFIED'), ('UNSPECIFIED'), ('UNSPECIFIED') ) ;
#236 = FACE_OUTER_BOUND ( 'NONE', #333, .T. ) ;
#237 = DATE_TIME_ROLE ( 'classification_date' ) ;
#238 = AXIS2_PLACEMENT_3D ( 'NONE', #277, #319, #117 ) ;
#239 = EDGE_LOOP ( 'NONE', ( #245 ) ) ;
#240 = ADVANCED_FACE ( 'NONE', ( #379, #86 ), #178, .T. ) ;
#241 = CARTESIAN_POINT ( 'NONE',  ( 1.090000000000000524, 0.000000000000000000, 0.1354166666666618279 ) ) ;
#242 = ORIENTED_EDGE ( 'NONE', *, *, #177, .T. ) ;
#243 = ORIENTED_EDGE ( 'NONE', *, *, #316, .T. ) ;
#244 = CC_DESIGN_PERSON_AND_ORGANIZATION_ASSIGNMENT ( #318, #348, ( #59 ) ) ;
#245 = ORIENTED_EDGE ( 'NONE', *, *, #148, .T. ) ;
#246 = CARTESIAN_POINT ( 'NONE',  ( 1.200000000000133182, 0.000000000000000000, 37.99999999999999289 ) ) ;
#247 = ORIENTED_EDGE ( 'NONE', *, *, #359, .T. ) ;
#248 =( LENGTH_UNIT ( ) NAMED_UNIT ( * ) SI_UNIT ( .MILLI., .METRE. ) );
#249 = DIRECTION ( 'NONE',  ( -3.491481338843133355E-15, 0.000000000000000000, -1.000000000000000000 ) ) ;
#250 = CIRCLE ( 'NONE', #306, 0.9456624327025928700 ) ;
#251 = SECURITY_CLASSIFICATION ( '', '', #46 ) ;
#252 = DIRECTION ( 'NONE',  ( 3.491481338843133355E-15, -0.000000000000000000, 1.000000000000000000 ) ) ;
#253 = DIRECTION ( 'NONE',  ( 0.000000000000000000, 0.000000000000000000, 1.000000000000000000 ) ) ;
#254 = EDGE_CURVE ( 'NONE', #329, #329, #335, .T. ) ;
#255 = DIRECTION ( 'NONE',  ( 3.491481338843133355E-15, -0.000000000000000000, 1.000000000000000000 ) ) ;
#256 = CYLINDRICAL_SURFACE ( 'NONE', #225, 0.8949999999999995737 ) ;
#257 = DATE_TIME_ROLE ( 'creation_date' ) ;
#258 = DIRECTION ( 'NONE',  ( 1.000000000000000000, 0.000000000000000000, 0.000000000000000000 ) ) ;
#259 = DIRECTION ( 'NONE',  ( -1.000000000000000000, 0.000000000000000000, 3.481383122659876478E-15 ) ) ;
#260 = FACE_OUTER_BOUND ( 'NONE', #302, .T. ) ;
#261 = DIRECTION ( 'NONE',  ( 3.491481338843133355E-15, -0.000000000000000000, 1.000000000000000000 ) ) ;
#262 = APPROVAL ( #90, 'UNSPECIFIED' ) ;
#263 = AXIS2_PLACEMENT_3D ( 'NONE', #372, #252, #35 ) ;
#264 = ADVANCED_FACE ( 'NONE', ( #236 ), #233, .F. ) ;
#265 = CARTESIAN_POINT ( 'NONE',  ( 2.883551257685768636E-14, 0.000000000000000000, 8.258819045102512746 ) ) ;
#266 = CARTESIAN_POINT ( 'NONE',  ( 1.345675099345788088E-15, 0.000000000000000000, 0.3854166666666658525 ) ) ;
#267 = EDGE_CURVE ( 'NONE', #69, #69, #3, .T. ) ;
#268 = VERTEX_POINT ( 'NONE', #388 ) ;
#269 = ORIENTED_EDGE ( 'NONE', *, *, #332, .T. ) ;
#270 = CALENDAR_DATE ( 2023, 27, 9 ) ;
#271 = CIRCLE ( 'NONE', #159, 1.500000000000000000 ) ;
#272 = ORIENTED_EDGE ( 'NONE', *, *, #316, .F. ) ;
#273 = EDGE_LOOP ( 'NONE', ( #28 ) ) ;
#274 = CC_DESIGN_DATE_AND_TIME_ASSIGNMENT ( #80, #257, ( #184 ) ) ;
#275 = EDGE_LOOP ( 'NONE', ( #196 ) ) ;
#276 = CARTESIAN_POINT ( 'NONE',  ( 0.9290741737109576848, 0.000000000000000000, 8.258819045102509193 ) ) ;
#277 = CARTESIAN_POINT ( 'NONE',  ( 4.728047646350040591E-16, 0.000000000000000000, 0.1354166666666656305 ) ) ;
#278 = VERTEX_POINT ( 'NONE', #135 ) ;
#279 = DIRECTION ( 'NONE',  ( 1.000000000000000000, 0.000000000000000000, 0.000000000000000000 ) ) ;
#280 = CIRCLE ( 'NONE', #238, 1.090000000000000080 ) ;
#281 = FACE_OUTER_BOUND ( 'NONE', #64, .T. ) ;
#282 = CARTESIAN_POINT ( 'NONE',  ( 0.9456624327025945353, 0.000000000000000000, 0.4999999999999971689 ) ) ;
#283 = CARTESIAN_POINT ( 'NONE',  ( 1.326762908760390423E-13, 0.000000000000000000, 38.00000000000000000 ) ) ;
#284 = PERSON_AND_ORGANIZATION_ROLE ( 'design_supplier' ) ;
#285 = ADVANCED_FACE ( 'NONE', ( #146, #260 ), #49, .T. ) ;
#286 = FACE_BOUND ( 'NONE', #239, .T. ) ;
#287 = CARTESIAN_POINT ( 'NONE',  ( 9.819791265496442724E-16, 0.000000000000000000, 0.2812500000000037192 ) ) ;
#288 = APPROVAL_PERSON_ORGANIZATION ( #292, #77, #154 ) ;
#289 = CARTESIAN_POINT ( 'NONE',  ( 2.883551257685768636E-14, 0.000000000000000000, 8.258819045102512746 ) ) ;
#290 = CARTESIAN_POINT ( 'NONE',  ( 1.345675099345788088E-15, 0.000000000000000000, 0.3854166666666658525 ) ) ;
#291 = DIRECTION ( 'NONE',  ( -1.000000000000000000, 0.000000000000000000, 3.481383122659876478E-15 ) ) ;
#292 = PERSON_AND_ORGANIZATION ( #235, #26 ) ;
#293 = FACE_OUTER_BOUND ( 'NONE', #25, .T. ) ;
#294 = COORDINATED_UNIVERSAL_TIME_OFFSET ( 1, 0, .AHEAD. ) ;
#295 = ADVANCED_FACE ( 'NONE', ( #181, #16 ), #40, .T. ) ;
#296 = DATE_AND_TIME ( #44, #361 ) ;
#297 = CARTESIAN_POINT ( 'NONE',  ( 0.8915358449660651941, 0.000000000000000000, -3.112780765608761522E-15 ) ) ;
#298 = EDGE_LOOP ( 'NONE', ( #243 ) ) ;
#299 = ADVANCED_BREP_SHAPE_REPRESENTATION ( '961160', ( #60, #314 ), #50 ) ;
#300 = AXIS2_PLACEMENT_3D ( 'NONE', #287, #54, #179 ) ;
#301 = EDGE_LOOP ( 'NONE', ( #95 ) ) ;
#302 = EDGE_LOOP ( 'NONE', ( #247 ) ) ;
#303 = EDGE_CURVE ( 'NONE', #278, #278, #118, .T. ) ;
#304 = CARTESIAN_POINT ( 'NONE',  ( 1.500000000000128120, 0.000000000000000000, 37.69999999999998863 ) ) ;
#305 = EDGE_LOOP ( 'NONE', ( #131 ) ) ;
#306 = AXIS2_PLACEMENT_3D ( 'NONE', #112, #224, #342 ) ;
#307 = CIRCLE ( 'NONE', #381, 0.9456624327025928700 ) ;
#308 = AXIS2_PLACEMENT_3D ( 'NONE', #47, #320, #51 ) ;
#309 = FACE_OUTER_BOUND ( 'NONE', #157, .T. ) ;
#310 = ADVANCED_FACE ( 'NONE', ( #53, #293 ), #33, .F. ) ;
#311 = DIRECTION ( 'NONE',  ( -1.000000000000000000, 0.000000000000000000, 3.491481338843133355E-15 ) ) ;
#312 = DIRECTION ( 'NONE',  ( 1.000000000000000000, 0.000000000000000000, -3.496825623737946861E-15 ) ) ;
#313 = AXIS2_PLACEMENT_3D ( 'NONE', #228, #323, #384 ) ;
#314 = AXIS2_PLACEMENT_3D ( 'NONE', #4, #253, #30 ) ;
#315 = CYLINDRICAL_SURFACE ( 'NONE', #17, 0.9456624327025928700 ) ;
#316 = EDGE_CURVE ( 'NONE', #170, #170, #271, .T. ) ;
#317 = CARTESIAN_POINT ( 'NONE',  ( 0.000000000000000000, 0.000000000000000000, 0.000000000000000000 ) ) ;
#318 = PERSON_AND_ORGANIZATION ( #235, #26 ) ;
#319 = DIRECTION ( 'NONE',  ( 3.491481338843133355E-15, -0.000000000000000000, 1.000000000000000000 ) ) ;
#320 = DIRECTION ( 'NONE',  ( 3.491481338843133355E-15, -0.000000000000000000, 1.000000000000000000 ) ) ;
#321 = DIRECTION ( 'NONE',  ( 1.000000000000000000, 0.000000000000000000, -3.491481338843133355E-15 ) ) ;
#322 = ADVANCED_FACE ( 'NONE', ( #385, #349 ), #5, .T. ) ;
#323 = DIRECTION ( 'NONE',  ( 3.491481338843133355E-15, -0.000000000000000000, 1.000000000000000000 ) ) ;
#324 = COORDINATED_UNIVERSAL_TIME_OFFSET ( 1, 0, .AHEAD. ) ;
#325 = FACE_OUTER_BOUND ( 'NONE', #103, .T. ) ;
#326 = AXIS2_PLACEMENT_3D ( 'NONE', #266, #122, #291 ) ;
#327 = CC_DESIGN_APPROVAL ( #262, ( #59 ) ) ;
#328 = ORIENTED_EDGE ( 'NONE', *, *, #148, .F. ) ;
#329 = VERTEX_POINT ( 'NONE', #282 ) ;
#330 = EDGE_LOOP ( 'NONE', ( #331 ) ) ;
#331 = ORIENTED_EDGE ( 'NONE', *, *, #193, .T. ) ;
#332 = EDGE_CURVE ( 'NONE', #109, #109, #382, .T. ) ;
#333 = EDGE_LOOP ( 'NONE', ( #219 ) ) ;
#334 = CARTESIAN_POINT ( 'NONE',  ( 1.090000000000001412, 0.000000000000000000, 0.3854166666666620777 ) ) ;
#335 = CIRCLE ( 'NONE', #106, 0.9456624327025928700 ) ;
#336 = CARTESIAN_POINT ( 'NONE',  ( 1.745740669421567072E-15, 0.9456624327025928700, 0.5000000000000001110 ) ) ;
#337 = CARTESIAN_POINT ( 'NONE',  ( 1.500000000000036193, 0.000000000000000000, 10.38954323616662379 ) ) ;
#338 = FACE_OUTER_BOUND ( 'NONE', #164, .T. ) ;
#339 = DIRECTION ( 'NONE',  ( 3.491481338843133355E-15, -0.000000000000000000, 1.000000000000000000 ) ) ;
#340 = CC_DESIGN_PERSON_AND_ORGANIZATION_ASSIGNMENT ( #73, #102, ( #180 ) ) ;
#341 = CIRCLE ( 'NONE', #145, 1.090000000000000080 ) ;
#342 = DIRECTION ( 'NONE',  ( 1.000000000000000000, 0.000000000000000000, -3.496825623737946861E-15 ) ) ;
#343 = PERSON_AND_ORGANIZATION_ROLE ( 'classification_officer' ) ;
#344 = PLANE ( 'NONE',  #221 ) ;
#345 = CARTESIAN_POINT ( 'NONE',  ( 3.627489632817968147E-14, 0.000000000000000000, 10.38954323616662911 ) ) ;
#346 = CARTESIAN_POINT ( 'NONE',  ( 1.326762908760390423E-13, 0.000000000000000000, 38.00000000000000000 ) ) ;
#347 = DIRECTION ( 'NONE',  ( 1.000000000000000000, 0.000000000000000000, -3.734305667001668009E-15 ) ) ;
#348 = PERSON_AND_ORGANIZATION_ROLE ( 'creator' ) ;
#349 = FACE_OUTER_BOUND ( 'NONE', #32, .T. ) ;
#350 = AXIS2_PLACEMENT_3D ( 'NONE', #317, #45, #36 ) ;
#351 = PERSON_AND_ORGANIZATION ( #235, #26 ) ;
#352 = CC_DESIGN_SECURITY_CLASSIFICATION ( #251, ( #59 ) ) ;
#353 = LOCAL_TIME ( 10, 26, 55.00000000000000000, #158 ) ;
#354 = CARTESIAN_POINT ( 'NONE',  ( 4.000655700757801179E-16, 0.000000000000000000, 0.1145833333333345916 ) ) ;
#355 = EDGE_LOOP ( 'NONE', ( #218 ) ) ;
#356 = PERSON_AND_ORGANIZATION_ROLE ( 'creator' ) ;
#357 = VERTEX_POINT ( 'NONE', #96 ) ;
#358 = EDGE_LOOP ( 'NONE', ( #272 ) ) ;
#359 = EDGE_CURVE ( 'NONE', #41, #41, #100, .T. ) ;
#360 = ORIENTED_EDGE ( 'NONE', *, *, #93, .T. ) ;
#361 = LOCAL_TIME ( 10, 26, 55.00000000000000000, #15 ) ;
#362 = DIRECTION ( 'NONE',  ( 3.491481338843133355E-15, -0.000000000000000000, 1.000000000000000000 ) ) ;
#363 = EDGE_LOOP ( 'NONE', ( #392 ) ) ;
#364 = ORIENTED_EDGE ( 'NONE', *, *, #193, .F. ) ;
#365 = DIRECTION ( 'NONE',  ( 3.491481338843133355E-15, -0.000000000000000000, 1.000000000000000000 ) ) ;
#366 = APPROVAL_STATUS ( 'not_yet_approved' ) ;
#367 = AXIS2_PLACEMENT_3D ( 'NONE', #354, #362, #215 ) ;
#368 = DIRECTION ( 'NONE',  ( 1.000000000000000000, 0.000000000000000000, 0.000000000000000000 ) ) ;
#369 = APPLICATION_CONTEXT ( 'configuration controlled 3d designs of mechanical parts and assemblies' ) ;
#370 = FACE_OUTER_BOUND ( 'NONE', #68, .T. ) ;
#371 = EDGE_CURVE ( 'NONE', #395, #395, #107, .T. ) ;
#372 = CARTESIAN_POINT ( 'NONE',  ( 1.326762908760390423E-13, 0.000000000000000000, 38.00000000000000000 ) ) ;
#373 = PRODUCT_DEFINITION_SHAPE ( 'NONE', 'NONE',  #184 ) ;
#374 = SHAPE_DEFINITION_REPRESENTATION ( #373, #299 ) ;
#375 = CC_DESIGN_PERSON_AND_ORGANIZATION_ASSIGNMENT ( #351, #356, ( #184 ) ) ;
#376 = AXIS2_PLACEMENT_3D ( 'NONE', #394, #255, #137 ) ;
#377 = CARTESIAN_POINT ( 'NONE',  ( 1.272935904786564295E-15, 0.000000000000000000, 0.3645833333333348136 ) ) ;
#378 = CARTESIAN_POINT ( 'NONE',  ( 2.793185071074506684E-14, 0.000000000000000000, 8.000000000000000000 ) ) ;
#379 = FACE_OUTER_BOUND ( 'NONE', #355, .T. ) ;
#380 = DIRECTION ( 'NONE',  ( 1.000000000000000000, 0.000000000000000000, -4.625929269271490844E-15 ) ) ;
#381 = AXIS2_PLACEMENT_3D ( 'NONE', #81, #199, #172 ) ;
#382 = CIRCLE ( 'NONE', #308, 0.8950000000000000178 ) ;
#383 = PERSON_AND_ORGANIZATION ( #235, #26 ) ;
#384 = DIRECTION ( 'NONE',  ( 1.000000000000000000, 0.000000000000000000, -3.876477041288958460E-15 ) ) ;
#385 = FACE_BOUND ( 'NONE', #99, .T. ) ;
#386 = APPROVAL_ROLE ( '' ) ;
#387 = EDGE_LOOP ( 'NONE', ( #364 ) ) ;
#388 = CARTESIAN_POINT ( 'NONE',  ( 0.9456624327025935361, 0.000000000000000000, 0.2187499999999934219 ) ) ;
#389 = ORIENTED_EDGE ( 'NONE', *, *, #254, .T. ) ;
#390 = EDGE_LOOP ( 'NONE', ( #360 ) ) ;
#391 = EDGE_LOOP ( 'NONE', ( #213 ) ) ;
#392 = ORIENTED_EDGE ( 'NONE', *, *, #267, .T. ) ;
#393 = PERSON_AND_ORGANIZATION ( #235, #26 ) ;
#394 = CARTESIAN_POINT ( 'NONE',  ( 1.316288464743861212E-13, 0.000000000000000000, 37.69999999999999574 ) ) ;
#395 = VERTEX_POINT ( 'NONE', #104 ) ;
ENDSEC;
END-ISO-10303-21;
