ISO-10303-21;
HEADER;
FILE_DESCRIPTION (( 'STEP AP203' ),
    '1' );
FILE_NAME ('961159.step',
    '2023-09-27T08:26:55',
    ( '' ),
    ( '' ),
    'SwSTEP 2.0',
    'SolidWorks 2022',
    '' );
FILE_SCHEMA (( 'CONFIG_CONTROL_DESIGN' ));
ENDSEC;

DATA;
#1 = CARTESIAN_POINT ( 'NONE',  ( 1.767562427789335472E-15, 0.000000000000000000, 0.5062499999999997558 ) ) ;
#2 = AXIS2_PLACEMENT_3D ( 'NONE', #268, #118, #369 ) ;
#3 = ORIENTED_EDGE ( 'NONE', *, *, #304, .F. ) ;
#4 = EDGE_CURVE ( 'NONE', #167, #167, #316, .T. ) ;
#5 = DATE_AND_TIME ( #87, #182 ) ;
#6 = EDGE_LOOP ( 'NONE', ( #66 ) ) ;
#7 = AXIS2_PLACEMENT_3D ( 'NONE', #241, #392, #210 ) ;
#8 = COORDINATED_UNIVERSAL_TIME_OFFSET ( 1, 0, .AHEAD. ) ;
#9 = EDGE_LOOP ( 'NONE', ( #112 ) ) ;
#10 = EDGE_LOOP ( 'NONE', ( #221 ) ) ;
#11 = VERTEX_POINT ( 'NONE', #128 ) ;
#12 = CARTESIAN_POINT ( 'NONE',  ( 0.8350000000000022959, 0.000000000000000000, 0.6562499999999942268 ) ) ;
#13 = AXIS2_PLACEMENT_3D ( 'NONE', #363, #236, #266 ) ;
#14 = CARTESIAN_POINT ( 'NONE',  ( 0.5751923788646700064, 0.000000000000000000, 0.8437499999999952260 ) ) ;
#15 = CARTESIAN_POINT ( 'NONE',  ( 1.767562427789335472E-15, 0.000000000000000000, 0.5062499999999997558 ) ) ;
#16 = DIRECTION ( 'NONE',  ( 3.491481338843133355E-15, -0.000000000000000000, 1.000000000000000000 ) ) ;
#17 = APPROVAL ( #208, 'UNSPECIFIED' ) ;
#18 = DIRECTION ( 'NONE',  ( 1.000000000000000000, 0.000000000000000000, -4.625929269271490844E-15 ) ) ;
#19 = CARTESIAN_POINT ( 'NONE',  ( 0.000000000000000000, 0.000000000000000000, 0.000000000000000000 ) ) ;
#20 = DIRECTION ( 'NONE',  ( -1.000000000000000000, 0.000000000000000000, 3.491481338843133355E-15 ) ) ;
#21 = AXIS2_PLACEMENT_3D ( 'NONE', #385, #234, #75 ) ;
#22 = FACE_BOUND ( 'NONE', #43, .T. ) ;
#23 = FACE_OUTER_BOUND ( 'NONE', #164, .T. ) ;
#24 = APPLICATION_CONTEXT ( 'configuration controlled 3d designs of mechanical parts and assemblies' ) ;
#25 = FACE_OUTER_BOUND ( 'NONE', #190, .T. ) ;
#26 = TOROIDAL_SURFACE ( 'NONE', #391, 1.479999999999999094, 1.000000000000000000 ) ;
#27 = FACE_OUTER_BOUND ( 'NONE', #218, .T. ) ;
#28 = EDGE_CURVE ( 'NONE', #312, #312, #317, .T. ) ;
#29 = CARTESIAN_POINT ( 'NONE',  ( 1.326762908760390423E-13, 0.000000000000000000, 38.00000000000000000 ) ) ;
#30 = ADVANCED_FACE ( 'NONE', ( #283 ), #231, .F. ) ;
#31 = DIRECTION ( 'NONE',  ( 3.491481338843133355E-15, -0.000000000000000000, 1.000000000000000000 ) ) ;
#32 = APPLICATION_PROTOCOL_DEFINITION ( 'international standard', 'config_control_design', 1994, #24 ) ;
#33 = CC_DESIGN_APPROVAL ( #41, ( #120 ) ) ;
#34 = APPROVAL_ROLE ( '' ) ;
#35 = ORIENTED_EDGE ( 'NONE', *, *, #290, .F. ) ;
#36 = VERTEX_POINT ( 'NONE', #341 ) ;
#37 = CIRCLE ( 'NONE', #76, 0.4799999999999990941 ) ;
#38 = ORIENTED_EDGE ( 'NONE', *, *, #267, .T. ) ;
#39 = AXIS2_PLACEMENT_3D ( 'NONE', #332, #31, #184 ) ;
#40 =( NAMED_UNIT ( * ) SI_UNIT ( $, .STERADIAN. ) SOLID_ANGLE_UNIT ( ) );
#41 = APPROVAL ( #335, 'UNSPECIFIED' ) ;
#42 = CARTESIAN_POINT ( 'NONE',  ( 1.500000000000128120, 0.000000000000000000, 37.69999999999998863 ) ) ;
#43 = EDGE_LOOP ( 'NONE', ( #142 ) ) ;
#44 = EDGE_CURVE ( 'NONE', #378, #378, #37, .T. ) ;
#45 = CONICAL_SURFACE ( 'NONE', #21, 1.499999999999996669, 0.7853981633974389531 ) ;
#46 = DIRECTION ( 'NONE',  ( 1.000000000000000000, 0.000000000000000000, -3.469446951953614189E-15 ) ) ;
#47 = VERTEX_POINT ( 'NONE', #12 ) ;
#48 = FACE_OUTER_BOUND ( 'NONE', #63, .T. ) ;
#49 = ORIENTED_EDGE ( 'NONE', *, *, #44, .T. ) ;
#50 = AXIS2_PLACEMENT_3D ( 'NONE', #292, #227, #20 ) ;
#51 = LOCAL_TIME ( 10, 26, 55.00000000000000000, #8 ) ;
#52 = ORIENTED_EDGE ( 'NONE', *, *, #116, .F. ) ;
#53 = DIRECTION ( 'NONE',  ( 1.000000000000000000, 0.000000000000000000, 0.000000000000000000 ) ) ;
#54 = PERSON_AND_ORGANIZATION_ROLE ( 'design_owner' ) ;
#55 = CC_DESIGN_PERSON_AND_ORGANIZATION_ASSIGNMENT ( #333, #153, ( #120 ) ) ;
#56 = DIRECTION ( 'NONE',  ( 1.000000000000000000, 0.000000000000000000, -3.505803431989056433E-15 ) ) ;
#57 = PERSON_AND_ORGANIZATION ( #260, #380 ) ;
#58 = DIRECTION ( 'NONE',  ( 3.491481338843133355E-15, -0.000000000000000000, 1.000000000000000000 ) ) ;
#59 = DATE_AND_TIME ( #330, #152 ) ;
#60 = CARTESIAN_POINT ( 'NONE',  ( 0.000000000000000000, 0.000000000000000000, 0.000000000000000000 ) ) ;
#61 = DIRECTION ( 'NONE',  ( 1.000000000000000000, 0.000000000000000000, -3.374461439006788768E-15 ) ) ;
#62 = AXIS2_PLACEMENT_3D ( 'NONE', #189, #126, #307 ) ;
#63 = EDGE_LOOP ( 'NONE', ( #146 ) ) ;
#64 = ORIENTED_EDGE ( 'NONE', *, *, #169, .F. ) ;
#65 = ORIENTED_EDGE ( 'NONE', *, *, #169, .T. ) ;
#66 = ORIENTED_EDGE ( 'NONE', *, *, #276, .T. ) ;
#67 = CARTESIAN_POINT ( 'NONE',  ( 0.4777645209389174696, 0.000000000000000000, -1.668105909219559938E-15 ) ) ;
#68 = ORIENTED_EDGE ( 'NONE', *, *, #304, .T. ) ;
#69 = DIRECTION ( 'NONE',  ( 1.000000000000000000, 0.000000000000000000, -3.491481338843133355E-15 ) ) ;
#70 = CARTESIAN_POINT ( 'NONE',  ( 1.326762908760390423E-13, 0.000000000000000000, 38.00000000000000000 ) ) ;
#71 = LOCAL_TIME ( 10, 26, 55.00000000000000000, #111 ) ;
#72 = DIRECTION ( 'NONE',  ( -3.491481338843133355E-15, 0.000000000000000000, -1.000000000000000000 ) ) ;
#73 = ORIENTED_EDGE ( 'NONE', *, *, #337, .T. ) ;
#74 = EDGE_LOOP ( 'NONE', ( #343 ) ) ;
#75 = DIRECTION ( 'NONE',  ( -1.000000000000000000, 0.000000000000000000, 4.625929269271495577E-15 ) ) ;
#76 = AXIS2_PLACEMENT_3D ( 'NONE', #351, #349, #140 ) ;
#77 = EDGE_CURVE ( 'NONE', #320, #320, #305, .T. ) ;
#78 = CIRCLE ( 'NONE', #368, 0.5751923788646670088 ) ;
#79 = DIRECTION ( 'NONE',  ( 1.000000000000000000, 0.000000000000000000, -3.505803431989056039E-15 ) ) ;
#80 = EDGE_CURVE ( 'NONE', #255, #255, #222, .T. ) ;
#81 = DIRECTION ( 'NONE',  ( 1.000000000000000000, 0.000000000000000000, 0.000000000000000000 ) ) ;
#82 = PERSON_AND_ORGANIZATION_ROLE ( 'creator' ) ;
#83 = CARTESIAN_POINT ( 'NONE',  ( 7.201180261363896478E-16, 0.000000000000000000, 0.2062499999999981015 ) ) ;
#84 = AXIS2_PLACEMENT_3D ( 'NONE', #170, #105, #226 ) ;
#85 = CALENDAR_DATE ( 2023, 27, 9 ) ;
#86 = CYLINDRICAL_SURFACE ( 'NONE', #168, 0.5751923788646670088 ) ;
#87 = CALENDAR_DATE ( 2023, 27, 9 ) ;
#88 = PLANE ( 'NONE',  #139 ) ;
#89 = CC_DESIGN_PERSON_AND_ORGANIZATION_ASSIGNMENT ( #259, #54, ( #346 ) ) ;
#90 = COORDINATED_UNIVERSAL_TIME_OFFSET ( 1, 0, .AHEAD. ) ;
#91 = EDGE_LOOP ( 'NONE', ( #156 ) ) ;
#92 = ORIENTED_EDGE ( 'NONE', *, *, #116, .T. ) ;
#93 =( NAMED_UNIT ( * ) PLANE_ANGLE_UNIT ( ) SI_UNIT ( $, .RADIAN. ) );
#94 = CLOSED_SHELL ( 'NONE', ( #327, #121, #356, #157, #114, #282, #172, #97, #137, #342, #254, #161, #294, #374, #124, #30 ) ) ;
#95 = EDGE_LOOP ( 'NONE', ( #357 ) ) ;
#96 = PRODUCT_RELATED_PRODUCT_CATEGORY ( 'detail', '', ( #346 ) ) ;
#97 = ADVANCED_FACE ( 'NONE', ( #22, #253 ), #270, .T. ) ;
#98 = VERTEX_POINT ( 'NONE', #104 ) ;
#99 = AXIS2_PLACEMENT_3D ( 'NONE', #171, #322, #383 ) ;
#100 = CONICAL_SURFACE ( 'NONE', #298, 0.5140741737109288945, 0.2617993877991430240 ) ;
#101 = PRODUCT_DEFINITION ( 'UNKNOWN', '', #120, #232 ) ;
#102 = CARTESIAN_POINT ( 'NONE',  ( 0.4800000000000030909, 0.000000000000000000, 0.8999999999999963585 ) ) ;
#103 = DIRECTION ( 'NONE',  ( 1.000000000000000000, 0.000000000000000000, -3.581382861484570853E-15 ) ) ;
#104 = CARTESIAN_POINT ( 'NONE',  ( 0.8350000000000024070, 0.000000000000000000, 0.6937499999999969802 ) ) ;
#105 = DIRECTION ( 'NONE',  ( 3.491481338843133355E-15, -0.000000000000000000, 1.000000000000000000 ) ) ;
#106 = CIRCLE ( 'NONE', #297, 0.8350000000000000755 ) ;
#107 = APPROVAL_PERSON_ORGANIZATION ( #303, #238, #308 ) ;
#108 = EDGE_LOOP ( 'NONE', ( #340 ) ) ;
#109 = DIRECTION ( 'NONE',  ( 1.000000000000000000, 0.000000000000000000, -3.491481338843133750E-15 ) ) ;
#110 = DIRECTION ( 'NONE',  ( 1.000000000000000000, 0.000000000000000000, 0.000000000000000000 ) ) ;
#111 = COORDINATED_UNIVERSAL_TIME_OFFSET ( 1, 0, .AHEAD. ) ;
#112 = ORIENTED_EDGE ( 'NONE', *, *, #4, .T. ) ;
#113 = FACE_BOUND ( 'NONE', #382, .T. ) ;
#114 = ADVANCED_FACE ( 'NONE', ( #358, #196 ), #285, .T. ) ;
#115 = DIRECTION ( 'NONE',  ( 3.491481338843133355E-15, -0.000000000000000000, 1.000000000000000000 ) ) ;
#116 = EDGE_CURVE ( 'NONE', #98, #98, #106, .T. ) ;
#117 = FACE_OUTER_BOUND ( 'NONE', #310, .T. ) ;
#118 = DIRECTION ( 'NONE',  ( 3.491481338843133355E-15, -0.000000000000000000, 1.000000000000000000 ) ) ;
#119 = CIRCLE ( 'NONE', #151, 0.8349999999999999645 ) ;
#120 = PRODUCT_DEFINITION_FORMATION_WITH_SPECIFIED_SOURCE ( 'ANY', '', #346, .NOT_KNOWN. ) ;
#121 = ADVANCED_FACE ( 'NONE', ( #315, #319 ), #280, .T. ) ;
#122 = DIRECTION ( 'NONE',  ( 1.000000000000000000, 0.000000000000000000, -3.491481338843133750E-15 ) ) ;
#123 = FACE_OUTER_BOUND ( 'NONE', #108, .T. ) ;
#124 = ADVANCED_FACE ( 'NONE', ( #135, #48 ), #45, .T. ) ;
#125 = AXIS2_PLACEMENT_3D ( 'NONE', #29, #180, #81 ) ;
#126 = DIRECTION ( 'NONE',  ( 3.491481338843133355E-15, -0.000000000000000000, 1.000000000000000000 ) ) ;
#127 = ORIENTED_EDGE ( 'NONE', *, *, #28, .T. ) ;
#128 = CARTESIAN_POINT ( 'NONE',  ( 0.5751923788646683411, 0.000000000000000000, 0.3937499999999962697 ) ) ;
#129 = CARTESIAN_POINT ( 'NONE',  ( 1.200000000000133182, 0.000000000000000000, 37.99999999999999289 ) ) ;
#130 = CONICAL_SURFACE ( 'NONE', #229, 0.5751923788646670088, 1.047197551196607623 ) ;
#131 = EDGE_LOOP ( 'NONE', ( #3 ) ) ;
#132 = PLANE ( 'NONE',  #275 ) ;
#133 = CARTESIAN_POINT ( 'NONE',  ( 2.945937379648884302E-15, 0.000000000000000000, 0.8437499999999973355 ) ) ;
#134 = CARTESIAN_POINT ( 'NONE',  ( 0.4800000000000238520, 0.000000000000000000, 7.099999999999996980 ) ) ;
#135 = FACE_BOUND ( 'NONE', #174, .T. ) ;
#136 = APPLICATION_CONTEXT ( 'configuration controlled 3d designs of mechanical parts and assemblies' ) ;
#137 = ADVANCED_FACE ( 'NONE', ( #207, #326 ), #86, .T. ) ;
#138 = AXIS2_PLACEMENT_3D ( 'NONE', #355, #203, #324 ) ;
#139 = AXIS2_PLACEMENT_3D ( 'NONE', #217, #252, #69 ) ;
#140 = DIRECTION ( 'NONE',  ( 1.000000000000000000, 0.000000000000000000, -3.614007241618354687E-15 ) ) ;
#141 = DIRECTION ( 'NONE',  ( 3.491481338843133355E-15, -0.000000000000000000, 1.000000000000000000 ) ) ;
#142 = ORIENTED_EDGE ( 'NONE', *, *, #28, .F. ) ;
#143 = DIRECTION ( 'NONE',  ( 3.491481338843133355E-15, -0.000000000000000000, 1.000000000000000000 ) ) ;
#144 = DIRECTION ( 'NONE',  ( 3.491481338843133355E-15, -0.000000000000000000, 1.000000000000000000 ) ) ;
#145 = AXIS2_PLACEMENT_3D ( 'NONE', #295, #215, #365 ) ;
#146 = ORIENTED_EDGE ( 'NONE', *, *, #77, .T. ) ;
#147 = DIRECTION ( 'NONE',  ( 1.000000000000000000, 0.000000000000000000, -3.581382861484570853E-15 ) ) ;
#148 = DIRECTION ( 'NONE',  ( 1.000000000000000000, 0.000000000000000000, -3.374461439006788768E-15 ) ) ;
#149 = PERSON_AND_ORGANIZATION ( #260, #380 ) ;
#150 = DIRECTION ( 'NONE',  ( 3.491481338843133355E-15, -0.000000000000000000, 1.000000000000000000 ) ) ;
#151 = AXIS2_PLACEMENT_3D ( 'NONE', #83, #144, #56 ) ;
#152 = LOCAL_TIME ( 10, 26, 55.00000000000000000, #154 ) ;
#153 = PERSON_AND_ORGANIZATION_ROLE ( 'design_supplier' ) ;
#154 = COORDINATED_UNIVERSAL_TIME_OFFSET ( 1, 0, .AHEAD. ) ;
#155 = FACE_OUTER_BOUND ( 'NONE', #314, .T. ) ;
#156 = ORIENTED_EDGE ( 'NONE', *, *, #311, .F. ) ;
#157 = ADVANCED_FACE ( 'NONE', ( #179, #334 ), #197, .T. ) ;
#158 = EDGE_LOOP ( 'NONE', ( #35 ) ) ;
#159 = ORIENTED_EDGE ( 'NONE', *, *, #80, .F. ) ;
#160 = EDGE_LOOP ( 'NONE', ( #127 ) ) ;
#161 = ADVANCED_FACE ( 'NONE', ( #245, #25 ), #26, .F. ) ;
#162 =( GEOMETRIC_REPRESENTATION_CONTEXT ( 3 ) GLOBAL_UNCERTAINTY_ASSIGNED_CONTEXT ( ( #287 ) ) GLOBAL_UNIT_ASSIGNED_CONTEXT ( ( #373, #93, #40 ) ) REPRESENTATION_CONTEXT ( 'NONE', 'WORKASPACE' ) );
#163 = EDGE_LOOP ( 'NONE', ( #223 ) ) ;
#164 = EDGE_LOOP ( 'NONE', ( #159 ) ) ;
#165 = DIRECTION ( 'NONE',  ( 3.491481338843133355E-15, -0.000000000000000000, 1.000000000000000000 ) ) ;
#166 = PRODUCT_DEFINITION_SHAPE ( 'NONE', 'NONE',  #101 ) ;
#167 = VERTEX_POINT ( 'NONE', #281 ) ;
#168 = AXIS2_PLACEMENT_3D ( 'NONE', #336, #269, #53 ) ;
#169 = EDGE_CURVE ( 'NONE', #286, #286, #119, .T. ) ;
#170 = CARTESIAN_POINT ( 'NONE',  ( 3.142333204958813314E-15, 0.000000000000000000, 0.8999999999999980238 ) ) ;
#171 = CARTESIAN_POINT ( 'NONE',  ( 2.422215178822423765E-15, 0.000000000000000000, 0.6937499999999998668 ) ) ;
#172 = ADVANCED_FACE ( 'NONE', ( #390, #27 ), #186, .T. ) ;
#173 = VERTEX_POINT ( 'NONE', #129 ) ;
#174 = EDGE_LOOP ( 'NONE', ( #345 ) ) ;
#175 = APPROVAL_PERSON_ORGANIZATION ( #272, #41, #34 ) ;
#176 = DIRECTION ( 'NONE',  ( 3.491481338843133355E-15, -0.000000000000000000, 1.000000000000000000 ) ) ;
#177 = EDGE_LOOP ( 'NONE', ( #293 ) ) ;
#178 = EDGE_LOOP ( 'NONE', ( #38 ) ) ;
#179 = FACE_BOUND ( 'NONE', #195, .T. ) ;
#180 = DIRECTION ( 'NONE',  ( 3.491481338843133355E-15, -0.000000000000000000, 1.000000000000000000 ) ) ;
#181 = CIRCLE ( 'NONE', #7, 1.200000000000000622 ) ;
#182 = LOCAL_TIME ( 10, 26, 55.00000000000000000, #90 ) ;
#183 = MECHANICAL_CONTEXT ( 'NONE', #24, 'mechanical' ) ;
#184 = DIRECTION ( 'NONE',  ( 1.000000000000000000, 0.000000000000000000, -3.505803431989056433E-15 ) ) ;
#185 = SECURITY_CLASSIFICATION_LEVEL ( 'unclassified' ) ;
#186 = CYLINDRICAL_SURFACE ( 'NONE', #125, 0.8350000000000000755 ) ;
#187 = FACE_OUTER_BOUND ( 'NONE', #248, .T. ) ;
#188 = AXIS2_PLACEMENT_3D ( 'NONE', #237, #394, #61 ) ;
#189 = CARTESIAN_POINT ( 'NONE',  ( 1.326762908760390423E-13, 0.000000000000000000, 38.00000000000000000 ) ) ;
#190 = EDGE_LOOP ( 'NONE', ( #49 ) ) ;
#191 = DIRECTION ( 'NONE',  ( 3.491481338843133355E-15, -0.000000000000000000, 1.000000000000000000 ) ) ;
#192 = AXIS2_PLACEMENT_3D ( 'NONE', #19, #257, #109 ) ;
#193 = AXIS2_PLACEMENT_3D ( 'NONE', #344, #191, #18 ) ;
#194 = MANIFOLD_SOLID_BREP ( 'Corps-Déplacer/Copier1', #94 ) ;
#195 = EDGE_LOOP ( 'NONE', ( #389 ) ) ;
#196 = FACE_OUTER_BOUND ( 'NONE', #6, .T. ) ;
#197 = CONICAL_SURFACE ( 'NONE', #145, 0.8349999999999999645, 1.047197551196607623 ) ;
#198 = FACE_OUTER_BOUND ( 'NONE', #9, .T. ) ;
#199 = DIRECTION ( 'NONE',  ( 1.000000000000000000, 0.000000000000000000, -3.505803431989056039E-15 ) ) ;
#200 = SHAPE_DEFINITION_REPRESENTATION ( #166, #375 ) ;
#201 = DIRECTION ( 'NONE',  ( -1.000000000000000000, 0.000000000000000000, 3.491481338843133355E-15 ) ) ;
#202 = CARTESIAN_POINT ( 'NONE',  ( 3.854017320957107845E-14, 0.000000000000000000, 11.03834432130775056 ) ) ;
#203 = DIRECTION ( 'NONE',  ( 3.491481338843133355E-15, -0.000000000000000000, 1.000000000000000000 ) ) ;
#204 = PERSON_AND_ORGANIZATION ( #260, #380 ) ;
#205 = CIRCLE ( 'NONE', #361, 0.8350000000000000755 ) ;
#206 = CIRCLE ( 'NONE', #39, 0.8349999999999999645 ) ;
#207 = FACE_OUTER_BOUND ( 'NONE', #163, .T. ) ;
#208 = APPROVAL_STATUS ( 'not_yet_approved' ) ;
#209 = CARTESIAN_POINT ( 'NONE',  ( 2.569317937189887580E-14, 0.000000000000000000, 7.358819045102514167 ) ) ;
#210 = DIRECTION ( 'NONE',  ( 1.000000000000000000, 0.000000000000000000, -5.782411586589354089E-15 ) ) ;
#211 = EDGE_CURVE ( 'NONE', #47, #47, #205, .T. ) ;
#212 = DIRECTION ( 'NONE',  ( 3.491481338843133355E-15, -0.000000000000000000, 1.000000000000000000 ) ) ;
#213 = APPROVAL_DATE_TIME ( #59, #41 ) ;
#214 = DATE_AND_TIME ( #85, #353 ) ;
#215 = DIRECTION ( 'NONE',  ( -3.491481338843133355E-15, 0.000000000000000000, -1.000000000000000000 ) ) ;
#216 = DATE_TIME_ROLE ( 'classification_date' ) ;
#217 = CARTESIAN_POINT ( 'NONE',  ( -1.815993241517311921E-32, 0.000000000000000000, -5.201211363538384280E-18 ) ) ;
#218 = EDGE_LOOP ( 'NONE', ( #220 ) ) ;
#219 = ORIENTED_EDGE ( 'NONE', *, *, #211, .F. ) ;
#220 = ORIENTED_EDGE ( 'NONE', *, *, #211, .T. ) ;
#221 = ORIENTED_EDGE ( 'NONE', *, *, #290, .T. ) ;
#222 = CIRCLE ( 'NONE', #367, 1.500000000000000000 ) ;
#223 = ORIENTED_EDGE ( 'NONE', *, *, #4, .F. ) ;
#224 = VERTEX_POINT ( 'NONE', #67 ) ;
#225 = DIRECTION ( 'NONE',  ( 1.000000000000000000, 0.000000000000000000, -3.581382861484570853E-15 ) ) ;
#226 = DIRECTION ( 'NONE',  ( 1.000000000000000000, 0.000000000000000000, -3.581382861484571642E-15 ) ) ;
#227 = DIRECTION ( 'NONE',  ( -3.491481338843133355E-15, 0.000000000000000000, -1.000000000000000000 ) ) ;
#228 = CIRCLE ( 'NONE', #362, 0.5751923788646668978 ) ;
#229 = AXIS2_PLACEMENT_3D ( 'NONE', #1, #300, #147 ) ;
#230 = CARTESIAN_POINT ( 'NONE',  ( 3.142333204958820020E-15, 0.5751923788646668978, 0.9000000000000000222 ) ) ;
#231 = PLANE ( 'NONE',  #50 ) ;
#232 = DESIGN_CONTEXT ( 'detailed design', #136, 'design' ) ;
#233 = CARTESIAN_POINT ( 'NONE',  ( 2.422215178822423765E-15, 0.000000000000000000, 0.6937499999999998668 ) ) ;
#234 = DIRECTION ( 'NONE',  ( -3.491481338843133355E-15, 0.000000000000000000, -1.000000000000000000 ) ) ;
#235 = DATE_AND_TIME ( #240, #71 ) ;
#236 = DIRECTION ( 'NONE',  ( 3.491481338843133355E-15, -0.000000000000000000, 1.000000000000000000 ) ) ;
#237 = CARTESIAN_POINT ( 'NONE',  ( 2.569317937189887580E-14, 0.000000000000000000, 7.358819045102514167 ) ) ;
#238 = APPROVAL ( #250, 'UNSPECIFIED' ) ;
#239 = CARTESIAN_POINT ( 'NONE',  ( 1.374770777169477842E-15, 0.000000000000000000, 0.3937499999999982681 ) ) ;
#240 = CALENDAR_DATE ( 2023, 27, 9 ) ;
#241 = CARTESIAN_POINT ( 'NONE',  ( 1.326762908760390423E-13, 0.000000000000000000, 38.00000000000000000 ) ) ;
#242 = APPROVAL_PERSON_ORGANIZATION ( #204, #17, #265 ) ;
#243 = PERSON_AND_ORGANIZATION ( #260, #380 ) ;
#244 = DIRECTION ( 'NONE',  ( 0.000000000000000000, 0.000000000000000000, 1.000000000000000000 ) ) ;
#245 = FACE_OUTER_BOUND ( 'NONE', #347, .T. ) ;
#246 = FACE_OUTER_BOUND ( 'NONE', #339, .T. ) ;
#247 = EDGE_CURVE ( 'NONE', #277, #277, #352, .T. ) ;
#248 = EDGE_LOOP ( 'NONE', ( #377 ) ) ;
#249 = CARTESIAN_POINT ( 'NONE',  ( 0.8350000000000007416, 0.000000000000000000, 0.2437499999999979960 ) ) ;
#250 = APPROVAL_STATUS ( 'not_yet_approved' ) ;
#251 = VERTEX_POINT ( 'NONE', #249 ) ;
#252 = DIRECTION ( 'NONE',  ( 3.491481338843133355E-15, -0.000000000000000000, 1.000000000000000000 ) ) ;
#253 = FACE_OUTER_BOUND ( 'NONE', #289, .T. ) ;
#254 = ADVANCED_FACE ( 'NONE', ( #187, #117 ), #263, .T. ) ;
#255 = VERTEX_POINT ( 'NONE', #354 ) ;
#256 = AXIS2_PLACEMENT_3D ( 'NONE', #370, #244, #296 ) ;
#257 = DIRECTION ( 'NONE',  ( 3.491481338843133355E-15, -0.000000000000000000, 1.000000000000000000 ) ) ;
#258 = ORIENTED_EDGE ( 'NONE', *, *, #247, .F. ) ;
#259 = PERSON_AND_ORGANIZATION ( #260, #380 ) ;
#260 = PERSON ( 'UNSPECIFIED', 'UNSPECIFIED', 'UNSPECIFIED', ('UNSPECIFIED'), ('UNSPECIFIED'), ('UNSPECIFIED') ) ;
#261 = DIRECTION ( 'NONE',  ( 1.000000000000000000, 0.000000000000000000, -3.491481338843132961E-15 ) ) ;
#262 = AXIS2_PLACEMENT_3D ( 'NONE', #60, #150, #122 ) ;
#263 = CYLINDRICAL_SURFACE ( 'NONE', #13, 0.4799999999999995381 ) ;
#264 = CC_DESIGN_DATE_AND_TIME_ASSIGNMENT ( #214, #360, ( #101 ) ) ;
#265 = APPROVAL_ROLE ( '' ) ;
#266 = DIRECTION ( 'NONE',  ( 1.000000000000000000, 0.000000000000000000, 0.000000000000000000 ) ) ;
#267 = EDGE_CURVE ( 'NONE', #173, #173, #181, .T. ) ;
#268 = CARTESIAN_POINT ( 'NONE',  ( 3.142333204958813314E-15, 0.000000000000000000, 0.8999999999999980238 ) ) ;
#269 = DIRECTION ( 'NONE',  ( 3.491481338843133355E-15, -0.000000000000000000, 1.000000000000000000 ) ) ;
#270 = CONICAL_SURFACE ( 'NONE', #99, 0.8350000000000000755, 1.047197551196607623 ) ;
#271 = CC_DESIGN_SECURITY_CLASSIFICATION ( #299, ( #120 ) ) ;
#272 = PERSON_AND_ORGANIZATION ( #260, #380 ) ;
#273 = EDGE_LOOP ( 'NONE', ( #64 ) ) ;
#274 = AXIS2_PLACEMENT_3D ( 'NONE', #70, #388, #110 ) ;
#275 = AXIS2_PLACEMENT_3D ( 'NONE', #230, #72, #201 ) ;
#276 = EDGE_CURVE ( 'NONE', #11, #11, #228, .T. ) ;
#277 = VERTEX_POINT ( 'NONE', #279 ) ;
#278 = ORIENTED_EDGE ( 'NONE', *, *, #77, .F. ) ;
#279 = CARTESIAN_POINT ( 'NONE',  ( 0.5140741737109545406, 0.000000000000000000, 7.358819045102512391 ) ) ;
#280 = CONICAL_SURFACE ( 'NONE', #192, 0.4777645209389174696, 1.047197551196603627 ) ;
#281 = CARTESIAN_POINT ( 'NONE',  ( 0.5751923788646701174, 0.000000000000000000, 0.8999999999999959144 ) ) ;
#282 = ADVANCED_FACE ( 'NONE', ( #329, #113 ), #130, .T. ) ;
#283 = FACE_OUTER_BOUND ( 'NONE', #178, .T. ) ;
#284 = CALENDAR_DATE ( 2023, 27, 9 ) ;
#285 = CYLINDRICAL_SURFACE ( 'NONE', #274, 0.5751923788646670088 ) ;
#286 = VERTEX_POINT ( 'NONE', #350 ) ;
#287 = UNCERTAINTY_MEASURE_WITH_UNIT (LENGTH_MEASURE( 1.000000000000000082E-05 ), #373, 'distance_accuracy_value', 'NONE');
#288 = FACE_BOUND ( 'NONE', #131, .T. ) ;
#289 = EDGE_LOOP ( 'NONE', ( #92 ) ) ;
#290 = EDGE_CURVE ( 'NONE', #251, #251, #206, .T. ) ;
#291 = CC_DESIGN_APPROVAL ( #17, ( #101 ) ) ;
#292 = CARTESIAN_POINT ( 'NONE',  ( 1.326762908760390423E-13, 1.200000000000000622, 38.00000000000000000 ) ) ;
#293 = ORIENTED_EDGE ( 'NONE', *, *, #311, .T. ) ;
#294 = ADVANCED_FACE ( 'NONE', ( #23, #301 ), #100, .T. ) ;
#295 = CARTESIAN_POINT ( 'NONE',  ( 8.510485763430169108E-16, 0.000000000000000000, 0.2437500000000009104 ) ) ;
#296 = DIRECTION ( 'NONE',  ( 1.000000000000000000, 0.000000000000000000, 0.000000000000000000 ) ) ;
#297 = AXIS2_PLACEMENT_3D ( 'NONE', #233, #141, #199 ) ;
#298 = AXIS2_PLACEMENT_3D ( 'NONE', #209, #143, #148 ) ;
#299 = SECURITY_CLASSIFICATION ( '', '', #185 ) ;
#300 = DIRECTION ( 'NONE',  ( 3.491481338843133355E-15, -0.000000000000000000, 1.000000000000000000 ) ) ;
#301 = FACE_BOUND ( 'NONE', #95, .T. ) ;
#302 = CARTESIAN_POINT ( 'NONE',  ( 2.291284628615796404E-15, 0.000000000000000000, 0.6562499999999971134 ) ) ;
#303 = PERSON_AND_ORGANIZATION ( #260, #380 ) ;
#304 = EDGE_CURVE ( 'NONE', #381, #381, #306, .T. ) ;
#305 = CIRCLE ( 'NONE', #138, 1.499999999999996669 ) ;
#306 = CIRCLE ( 'NONE', #2, 0.4799999999999999822 ) ;
#307 = DIRECTION ( 'NONE',  ( 1.000000000000000000, 0.000000000000000000, 0.000000000000000000 ) ) ;
#308 = APPROVAL_ROLE ( '' ) ;
#309 = CC_DESIGN_DATE_AND_TIME_ASSIGNMENT ( #5, #216, ( #299 ) ) ;
#310 = EDGE_LOOP ( 'NONE', ( #68 ) ) ;
#311 = EDGE_CURVE ( 'NONE', #224, #224, #387, .T. ) ;
#312 = VERTEX_POINT ( 'NONE', #14 ) ;
#313 = APPROVAL_DATE_TIME ( #393, #238 ) ;
#314 = EDGE_LOOP ( 'NONE', ( #278 ) ) ;
#315 = FACE_OUTER_BOUND ( 'NONE', #273, .T. ) ;
#316 = CIRCLE ( 'NONE', #84, 0.5751923788646668978 ) ;
#317 = CIRCLE ( 'NONE', #386, 0.5751923788646670088 ) ;
#318 = CC_DESIGN_APPROVAL ( #238, ( #299 ) ) ;
#319 = FACE_BOUND ( 'NONE', #177, .T. ) ;
#320 = VERTEX_POINT ( 'NONE', #42 ) ;
#321 = FACE_OUTER_BOUND ( 'NONE', #158, .T. ) ;
#322 = DIRECTION ( 'NONE',  ( -3.491481338843133355E-15, 0.000000000000000000, -1.000000000000000000 ) ) ;
#323 = CC_DESIGN_PERSON_AND_ORGANIZATION_ASSIGNMENT ( #149, #82, ( #120 ) ) ;
#324 = DIRECTION ( 'NONE',  ( 1.000000000000000000, 0.000000000000000000, -4.625929269271495577E-15 ) ) ;
#325 = APPLICATION_PROTOCOL_DEFINITION ( 'international standard', 'config_control_design', 1994, #136 ) ;
#326 = FACE_OUTER_BOUND ( 'NONE', #160, .T. ) ;
#327 = ADVANCED_FACE ( 'NONE', ( #371 ), #88, .F. ) ;
#328 = DIRECTION ( 'NONE',  ( 1.000000000000000000, 0.000000000000000000, -3.487135944077082479E-15 ) ) ;
#329 = FACE_OUTER_BOUND ( 'NONE', #348, .T. ) ;
#330 = CALENDAR_DATE ( 2023, 27, 9 ) ;
#331 = APPROVAL_DATE_TIME ( #235, #17 ) ;
#332 = CARTESIAN_POINT ( 'NONE',  ( 8.510485763430169108E-16, 0.000000000000000000, 0.2437500000000009104 ) ) ;
#333 = PERSON_AND_ORGANIZATION ( #260, #380 ) ;
#334 = FACE_OUTER_BOUND ( 'NONE', #10, .T. ) ;
#335 = APPROVAL_STATUS ( 'not_yet_approved' ) ;
#336 = CARTESIAN_POINT ( 'NONE',  ( 1.326762908760390423E-13, 0.000000000000000000, 38.00000000000000000 ) ) ;
#337 = EDGE_CURVE ( 'NONE', #36, #36, #78, .T. ) ;
#338 = CYLINDRICAL_SURFACE ( 'NONE', #62, 0.8349999999999999645 ) ;
#339 = EDGE_LOOP ( 'NONE', ( #65 ) ) ;
#340 = ORIENTED_EDGE ( 'NONE', *, *, #80, .T. ) ;
#341 = CARTESIAN_POINT ( 'NONE',  ( 0.5751923788646687852, 0.000000000000000000, 0.5062499999999976463 ) ) ;
#342 = ADVANCED_FACE ( 'NONE', ( #288, #198 ), #132, .F. ) ;
#343 = ORIENTED_EDGE ( 'NONE', *, *, #337, .F. ) ;
#344 = CARTESIAN_POINT ( 'NONE',  ( 1.326762908760390423E-13, 0.000000000000000000, 38.00000000000000000 ) ) ;
#345 = ORIENTED_EDGE ( 'NONE', *, *, #267, .F. ) ;
#346 = PRODUCT ( '961159', '961159', '', ( #183 ) ) ;
#347 = EDGE_LOOP ( 'NONE', ( #258 ) ) ;
#348 = EDGE_LOOP ( 'NONE', ( #219 ) ) ;
#349 = DIRECTION ( 'NONE',  ( 3.491481338843133355E-15, -0.000000000000000000, 1.000000000000000000 ) ) ;
#350 = CARTESIAN_POINT ( 'NONE',  ( 0.8350000000000006306, 0.000000000000000000, 0.2062499999999951872 ) ) ;
#351 = CARTESIAN_POINT ( 'NONE',  ( 2.478951750578624051E-14, 0.000000000000000000, 7.099999999999998757 ) ) ;
#352 = CIRCLE ( 'NONE', #188, 0.5140741737109288945 ) ;
#353 = LOCAL_TIME ( 10, 26, 55.00000000000000000, #366 ) ;
#354 = CARTESIAN_POINT ( 'NONE',  ( 1.500000000000038636, 0.000000000000000000, 11.03834432130774523 ) ) ;
#355 = CARTESIAN_POINT ( 'NONE',  ( 1.316288464743861212E-13, 0.000000000000000000, 37.69999999999999574 ) ) ;
#356 = ADVANCED_FACE ( 'NONE', ( #321, #246 ), #338, .T. ) ;
#357 = ORIENTED_EDGE ( 'NONE', *, *, #247, .T. ) ;
#358 = FACE_OUTER_BOUND ( 'NONE', #74, .T. ) ;
#359 = CC_DESIGN_PERSON_AND_ORGANIZATION_ASSIGNMENT ( #57, #395, ( #101 ) ) ;
#360 = DATE_TIME_ROLE ( 'creation_date' ) ;
#361 = AXIS2_PLACEMENT_3D ( 'NONE', #302, #115, #79 ) ;
#362 = AXIS2_PLACEMENT_3D ( 'NONE', #239, #212, #328 ) ;
#363 = CARTESIAN_POINT ( 'NONE',  ( 1.326762908760390423E-13, 0.000000000000000000, 38.00000000000000000 ) ) ;
#364 = CARTESIAN_POINT ( 'NONE',  ( 2.478951750578624367E-14, 0.000000000000000000, 7.099999999999999645 ) ) ;
#365 = DIRECTION ( 'NONE',  ( -1.000000000000000000, 0.000000000000000000, 3.505803431989056433E-15 ) ) ;
#366 = COORDINATED_UNIVERSAL_TIME_OFFSET ( 1, 0, .AHEAD. ) ;
#367 = AXIS2_PLACEMENT_3D ( 'NONE', #202, #16, #46 ) ;
#368 = AXIS2_PLACEMENT_3D ( 'NONE', #15, #165, #225 ) ;
#369 = DIRECTION ( 'NONE',  ( 1.000000000000000000, 0.000000000000000000, -3.388131789017201356E-15 ) ) ;
#370 = CARTESIAN_POINT ( 'NONE',  ( 0.000000000000000000, 0.000000000000000000, 0.000000000000000000 ) ) ;
#371 = FACE_OUTER_BOUND ( 'NONE', #91, .T. ) ;
#372 = PERSON_AND_ORGANIZATION_ROLE ( 'classification_officer' ) ;
#373 =( LENGTH_UNIT ( ) NAMED_UNIT ( * ) SI_UNIT ( .MILLI., .METRE. ) );
#374 = ADVANCED_FACE ( 'NONE', ( #155, #123 ), #376, .T. ) ;
#375 = ADVANCED_BREP_SHAPE_REPRESENTATION ( '961159', ( #194, #256 ), #162 ) ;
#376 = CYLINDRICAL_SURFACE ( 'NONE', #193, 1.499999999999998224 ) ;
#377 = ORIENTED_EDGE ( 'NONE', *, *, #44, .F. ) ;
#378 = VERTEX_POINT ( 'NONE', #134 ) ;
#379 = EDGE_LOOP ( 'NONE', ( #52 ) ) ;
#380 = ORGANIZATION ( 'UNSPECIFIED', 'UNSPECIFIED', '' ) ;
#381 = VERTEX_POINT ( 'NONE', #102 ) ;
#382 = EDGE_LOOP ( 'NONE', ( #73 ) ) ;
#383 = DIRECTION ( 'NONE',  ( -1.000000000000000000, 0.000000000000000000, 3.505803431989056039E-15 ) ) ;
#384 = CC_DESIGN_PERSON_AND_ORGANIZATION_ASSIGNMENT ( #243, #372, ( #299 ) ) ;
#385 = CARTESIAN_POINT ( 'NONE',  ( 1.316288464743861212E-13, 0.000000000000000000, 37.69999999999999574 ) ) ;
#386 = AXIS2_PLACEMENT_3D ( 'NONE', #133, #176, #103 ) ;
#387 = CIRCLE ( 'NONE', #262, 0.4777645209389174696 ) ;
#388 = DIRECTION ( 'NONE',  ( 3.491481338843133355E-15, -0.000000000000000000, 1.000000000000000000 ) ) ;
#389 = ORIENTED_EDGE ( 'NONE', *, *, #276, .F. ) ;
#390 = FACE_OUTER_BOUND ( 'NONE', #379, .T. ) ;
#391 = AXIS2_PLACEMENT_3D ( 'NONE', #364, #58, #261 ) ;
#392 = DIRECTION ( 'NONE',  ( 3.491481338843133355E-15, -0.000000000000000000, 1.000000000000000000 ) ) ;
#393 = DATE_AND_TIME ( #284, #51 ) ;
#394 = DIRECTION ( 'NONE',  ( 3.491481338843133355E-15, -0.000000000000000000, 1.000000000000000000 ) ) ;
#395 = PERSON_AND_ORGANIZATION_ROLE ( 'creator' ) ;
ENDSEC;
END-ISO-10303-21;
