ISO-10303-21;
HEADER;
FILE_DESCRIPTION (( 'STEP AP203' ),
    '1' );
FILE_NAME ('961158.step',
    '2023-09-27T08:26:54',
    ( '' ),
    ( '' ),
    'SwSTEP 2.0',
    'SolidWorks 2022',
    '' );
FILE_SCHEMA (( 'CONFIG_CONTROL_DESIGN' ));
ENDSEC;

DATA;
#1 = AXIS2_PLACEMENT_3D ( 'NONE', #165, #22, #353 ) ;
#2 = CARTESIAN_POINT ( 'NONE',  ( 0.000000000000000000, 0.000000000000000000, 0.000000000000000000 ) ) ;
#3 = ORIENTED_EDGE ( 'NONE', *, *, #315, .F. ) ;
#4 = UNCERTAINTY_MEASURE_WITH_UNIT (LENGTH_MEASURE( 1.000000000000000082E-05 ), #201, 'distance_accuracy_value', 'NONE');
#5 = EDGE_CURVE ( 'NONE', #229, #229, #146, .T. ) ;
#6 = FACE_OUTER_BOUND ( 'NONE', #364, .T. ) ;
#7 = CALENDAR_DATE ( 2023, 27, 9 ) ;
#8 = FACE_OUTER_BOUND ( 'NONE', #177, .T. ) ;
#9 = EDGE_LOOP ( 'NONE', ( #306 ) ) ;
#10 = DIRECTION ( 'NONE',  ( 3.491481338843133355E-15, -0.000000000000000000, 1.000000000000000000 ) ) ;
#11 = CONICAL_SURFACE ( 'NONE', #274, 1.499999999999996669, 0.7853981633974389531 ) ;
#12 = COORDINATED_UNIVERSAL_TIME_OFFSET ( 1, 0, .AHEAD. ) ;
#13 = APPROVAL_PERSON_ORGANIZATION ( #187, #303, #40 ) ;
#14 = EDGE_LOOP ( 'NONE', ( #237 ) ) ;
#15 = DIRECTION ( 'NONE',  ( 3.491481338843133355E-15, -0.000000000000000000, 1.000000000000000000 ) ) ;
#16 = EDGE_CURVE ( 'NONE', #324, #324, #149, .T. ) ;
#17 = DIRECTION ( 'NONE',  ( -1.000000000000000000, 0.000000000000000000, 3.464976015159859584E-15 ) ) ;
#18 = CARTESIAN_POINT ( 'NONE',  ( 7.855833012397154573E-16, 0.000000000000000000, 0.2250000000000029754 ) ) ;
#19 = DIRECTION ( 'NONE',  ( 1.000000000000000000, 0.000000000000000000, -5.782411586589354089E-15 ) ) ;
#20 = CARTESIAN_POINT ( 'NONE',  ( 0.8545299461620747827, 0.000000000000000000, 0.2250000000000000056 ) ) ;
#21 = CARTESIAN_POINT ( 'NONE',  ( 1.396592535537244862E-15, 0.000000000000000000, 0.3999999999999975797 ) ) ;
#22 = DIRECTION ( 'NONE',  ( 3.491481338843133355E-15, -0.000000000000000000, 1.000000000000000000 ) ) ;
#23 = CC_DESIGN_PERSON_AND_ORGANIZATION_ASSIGNMENT ( #124, #308, ( #262 ) ) ;
#24 = ADVANCED_FACE ( 'NONE', ( #327, #230 ), #11, .T. ) ;
#25 = VERTEX_POINT ( 'NONE', #196 ) ;
#26 = TOROIDAL_SURFACE ( 'NONE', #203, 1.814999999999999059, 1.000000000000000000 ) ;
#27 = APPROVAL_PERSON_ORGANIZATION ( #99, #57, #131 ) ;
#28 = EDGE_LOOP ( 'NONE', ( #240 ) ) ;
#29 = ORIENTED_EDGE ( 'NONE', *, *, #354, .F. ) ;
#30 = ADVANCED_FACE ( 'NONE', ( #108 ), #295, .F. ) ;
#31 = LOCAL_TIME ( 10, 26, 54.00000000000000000, #182 ) ;
#32 = CARTESIAN_POINT ( 'NONE',  ( 1.500000000000034195, 0.000000000000000000, 9.788107300772137975 ) ) ;
#33 = EDGE_CURVE ( 'NONE', #25, #25, #141, .T. ) ;
#34 = APPROVAL_STATUS ( 'not_yet_approved' ) ;
#35 = EDGE_LOOP ( 'NONE', ( #377 ) ) ;
#36 = CC_DESIGN_APPROVAL ( #362, ( #173 ) ) ;
#37 = ORIENTED_EDGE ( 'NONE', *, *, #354, .T. ) ;
#38 = DIRECTION ( 'NONE',  ( 1.000000000000000000, 0.000000000000000000, 0.000000000000000000 ) ) ;
#39 = ORIENTED_EDGE ( 'NONE', *, *, #393, .T. ) ;
#40 = APPROVAL_ROLE ( '' ) ;
#41 = DIRECTION ( 'NONE',  ( -3.491481338843133355E-15, 0.000000000000000000, -1.000000000000000000 ) ) ;
#42 = DATE_TIME_ROLE ( 'classification_date' ) ;
#43 = DIRECTION ( 'NONE',  ( 1.000000000000000000, 0.000000000000000000, -3.064614723343478334E-15 ) ) ;
#44 = EDGE_CURVE ( 'NONE', #394, #394, #134, .T. ) ;
#45 = AXIS2_PLACEMENT_3D ( 'NONE', #195, #351, #52 ) ;
#46 = AXIS2_PLACEMENT_3D ( 'NONE', #158, #258, #283 ) ;
#47 = FACE_BOUND ( 'NONE', #104, .T. ) ;
#48 = DIRECTION ( 'NONE',  ( 3.491481338843133355E-15, -0.000000000000000000, 1.000000000000000000 ) ) ;
#49 = DIRECTION ( 'NONE',  ( 3.491481338843133355E-15, -0.000000000000000000, 1.000000000000000000 ) ) ;
#50 = DIRECTION ( 'NONE',  ( -3.491481338843133355E-15, 0.000000000000000000, -1.000000000000000000 ) ) ;
#51 = CARTESIAN_POINT ( 'NONE',  ( 0.9700000000000009726, 0.000000000000000000, 0.2916666666666658525 ) ) ;
#52 = DIRECTION ( 'NONE',  ( 1.000000000000000000, 0.000000000000000000, 0.000000000000000000 ) ) ;
#53 = AXIS2_PLACEMENT_3D ( 'NONE', #319, #10, #43 ) ;
#54 = CC_DESIGN_DATE_AND_TIME_ASSIGNMENT ( #215, #42, ( #262 ) ) ;
#55 = DIRECTION ( 'NONE',  ( 3.491481338843133355E-15, -0.000000000000000000, 1.000000000000000000 ) ) ;
#56 = CARTESIAN_POINT ( 'NONE',  ( 1.316288464743861212E-13, 0.000000000000000000, 37.69999999999999574 ) ) ;
#57 = APPROVAL ( #34, 'UNSPECIFIED' ) ;
#58 = CYLINDRICAL_SURFACE ( 'NONE', #168, 1.499999999999998224 ) ;
#59 = AXIS2_PLACEMENT_3D ( 'NONE', #387, #169, #144 ) ;
#60 = VERTEX_POINT ( 'NONE', #32 ) ;
#61 = EDGE_CURVE ( 'NONE', #355, #355, #234, .T. ) ;
#62 = EDGE_LOOP ( 'NONE', ( #153 ) ) ;
#63 = ADVANCED_BREP_SHAPE_REPRESENTATION ( '961158', ( #241, #179 ), #275 ) ;
#64 = EDGE_LOOP ( 'NONE', ( #37 ) ) ;
#65 = APPROVAL_ROLE ( '' ) ;
#66 = ORIENTED_EDGE ( 'NONE', *, *, #393, .F. ) ;
#67 = APPROVAL_STATUS ( 'not_yet_approved' ) ;
#68 = DATE_AND_TIME ( #180, #210 ) ;
#69 = CC_DESIGN_PERSON_AND_ORGANIZATION_ASSIGNMENT ( #250, #284, ( #173 ) ) ;
#70 = FACE_OUTER_BOUND ( 'NONE', #62, .T. ) ;
#71 = EDGE_LOOP ( 'NONE', ( #366 ) ) ;
#72 = FACE_OUTER_BOUND ( 'NONE', #192, .T. ) ;
#73 = COORDINATED_UNIVERSAL_TIME_OFFSET ( 1, 0, .AHEAD. ) ;
#74 = DIRECTION ( 'NONE',  ( 1.000000000000000000, 0.000000000000000000, -3.489118184478044380E-15 ) ) ;
#75 = CC_DESIGN_PERSON_AND_ORGANIZATION_ASSIGNMENT ( #360, #122, ( #242 ) ) ;
#76 = CARTESIAN_POINT ( 'NONE',  ( 3.200524560606095299E-16, 0.000000000000000000, 0.09166666666666350993 ) ) ;
#77 = CONICAL_SURFACE ( 'NONE', #59, 0.8112286759728523089, 1.047197551196614063 ) ;
#78 = FACE_OUTER_BOUND ( 'NONE', #130, .T. ) ;
#79 = CYLINDRICAL_SURFACE ( 'NONE', #45, 0.9699999999999999734 ) ;
#80 = ADVANCED_FACE ( 'NONE', ( #143, #227 ), #197, .T. ) ;
#81 = FACE_OUTER_BOUND ( 'NONE', #374, .T. ) ;
#82 = DIRECTION ( 'NONE',  ( 3.491481338843133355E-15, -0.000000000000000000, 1.000000000000000000 ) ) ;
#83 = PRODUCT_RELATED_PRODUCT_CATEGORY ( 'detail', '', ( #242 ) ) ;
#84 = CARTESIAN_POINT ( 'NONE',  ( 1.200000000000133182, 0.000000000000000000, 37.99999999999999289 ) ) ;
#85 = DIRECTION ( 'NONE',  ( 3.491481338843133355E-15, -0.000000000000000000, 1.000000000000000000 ) ) ;
#86 = AXIS2_PLACEMENT_3D ( 'NONE', #183, #312, #347 ) ;
#87 = CARTESIAN_POINT ( 'NONE',  ( 1.326762908760390423E-13, 0.000000000000000000, 38.00000000000000000 ) ) ;
#88 = EDGE_CURVE ( 'NONE', #328, #328, #231, .T. ) ;
#89 = DIRECTION ( 'NONE',  ( 3.491481338843133355E-15, -0.000000000000000000, 1.000000000000000000 ) ) ;
#90 = CIRCLE ( 'NONE', #361, 0.9699999999999999734 ) ;
#91 = EDGE_LOOP ( 'NONE', ( #39 ) ) ;
#92 = CARTESIAN_POINT ( 'NONE',  ( 0.8545299461620754489, 0.000000000000000000, 0.3999999999999945821 ) ) ;
#93 = CARTESIAN_POINT ( 'NONE',  ( 0.8545299461620753378, 0.000000000000000000, 0.3749999999999973355 ) ) ;
#94 = ADVANCED_FACE ( 'NONE', ( #358, #350 ), #269, .T. ) ;
#95 = ORIENTED_EDGE ( 'NONE', *, *, #88, .F. ) ;
#96 = ORIENTED_EDGE ( 'NONE', *, *, #61, .T. ) ;
#97 = APPROVAL_DATE_TIME ( #317, #57 ) ;
#98 = DIRECTION ( 'NONE',  ( -3.491481338843133355E-15, 0.000000000000000000, -1.000000000000000000 ) ) ;
#99 = PERSON_AND_ORGANIZATION ( #265, #223 ) ;
#100 = CARTESIAN_POINT ( 'NONE',  ( 1.396592535537253539E-15, 0.8545299461620741166, 0.4000000000000000777 ) ) ;
#101 = EDGE_LOOP ( 'NONE', ( #301 ) ) ;
#102 = APPROVAL_PERSON_ORGANIZATION ( #337, #362, #65 ) ;
#103 = EDGE_CURVE ( 'NONE', #171, #171, #209, .T. ) ;
#104 = EDGE_LOOP ( 'NONE', ( #322 ) ) ;
#105 = DIRECTION ( 'NONE',  ( 3.491481338843133355E-15, -0.000000000000000000, 1.000000000000000000 ) ) ;
#106 = CARTESIAN_POINT ( 'NONE',  ( 2.478951750578624367E-14, 0.000000000000000000, 7.099999999999999645 ) ) ;
#107 = EDGE_CURVE ( 'NONE', #391, #391, #261, .T. ) ;
#108 = FACE_OUTER_BOUND ( 'NONE', #302, .T. ) ;
#109 = AXIS2_PLACEMENT_3D ( 'NONE', #18, #323, #111 ) ;
#110 = DIRECTION ( 'NONE',  ( 3.491481338843133355E-15, -0.000000000000000000, 1.000000000000000000 ) ) ;
#111 = DIRECTION ( 'NONE',  ( 1.000000000000000000, 0.000000000000000000, -3.489118184478044380E-15 ) ) ;
#112 = FACE_OUTER_BOUND ( 'NONE', #9, .T. ) ;
#113 = DIRECTION ( 'NONE',  ( 1.000000000000000000, 0.000000000000000000, -3.489118184478044380E-15 ) ) ;
#114 = CARTESIAN_POINT ( 'NONE',  ( 6.110092342975536620E-16, 0.000000000000000000, 0.1750000000000015432 ) ) ;
#115 = CARTESIAN_POINT ( 'NONE',  ( 0.8150000000000013900, 0.000000000000000000, 0.3999999999999947486 ) ) ;
#116 = DIRECTION ( 'NONE',  ( 1.000000000000000000, 0.000000000000000000, 0.000000000000000000 ) ) ;
#117 = VERTEX_POINT ( 'NONE', #272 ) ;
#118 = CONICAL_SURFACE ( 'NONE', #296, 0.8545299461620741166, 1.047197551196603182 ) ;
#119 = ADVANCED_FACE ( 'NONE', ( #112, #382 ), #79, .T. ) ;
#120 = CARTESIAN_POINT ( 'NONE',  ( 1.500000000000128120, 0.000000000000000000, 37.69999999999998863 ) ) ;
#121 = ORIENTED_EDGE ( 'NONE', *, *, #103, .F. ) ;
#122 = PERSON_AND_ORGANIZATION_ROLE ( 'design_owner' ) ;
#123 = ORIENTED_EDGE ( 'NONE', *, *, #61, .F. ) ;
#124 = PERSON_AND_ORGANIZATION ( #265, #223 ) ;
#125 = EDGE_CURVE ( 'NONE', #233, #233, #90, .T. ) ;
#126 = SHAPE_DEFINITION_REPRESENTATION ( #175, #63 ) ;
#127 = CARTESIAN_POINT ( 'NONE',  ( 1.326762908760390423E-13, 0.000000000000000000, 38.00000000000000000 ) ) ;
#128 = PERSON_AND_ORGANIZATION ( #265, #223 ) ;
#129 = CARTESIAN_POINT ( 'NONE',  ( 1.076540079476635283E-15, 0.000000000000000000, 0.3083333333333340698 ) ) ;
#130 = EDGE_LOOP ( 'NONE', ( #346 ) ) ;
#131 = APPROVAL_ROLE ( '' ) ;
#132 = ORIENTED_EDGE ( 'NONE', *, *, #103, .T. ) ;
#133 = DIRECTION ( 'NONE',  ( -1.000000000000000000, 0.000000000000000000, 3.491481338843133355E-15 ) ) ;
#134 = CIRCLE ( 'NONE', #356, 0.9699999999999999734 ) ;
#135 = AXIS2_PLACEMENT_3D ( 'NONE', #127, #221, #38 ) ;
#136 = DATE_AND_TIME ( #7, #199 ) ;
#137 = CYLINDRICAL_SURFACE ( 'NONE', #135, 0.8545299461620741166 ) ;
#138 = DIRECTION ( 'NONE',  ( 1.000000000000000000, 0.000000000000000000, -3.492919370120826356E-15 ) ) ;
#139 = DIRECTION ( 'NONE',  ( 3.491481338843133355E-15, -0.000000000000000000, 1.000000000000000000 ) ) ;
#140 = DIRECTION ( 'NONE',  ( 1.000000000000000000, 0.000000000000000000, -3.489118184478044380E-15 ) ) ;
#141 = CIRCLE ( 'NONE', #159, 0.8545299461620741166 ) ;
#142 = CARTESIAN_POINT ( 'NONE',  ( 0.8150000000000239275, 0.000000000000000000, 7.099999999999996092 ) ) ;
#143 = FACE_OUTER_BOUND ( 'NONE', #287, .T. ) ;
#144 = DIRECTION ( 'NONE',  ( 1.000000000000000000, 0.000000000000000000, -3.491481338843133355E-15 ) ) ;
#145 = DIRECTION ( 'NONE',  ( 1.000000000000000000, 0.000000000000000000, 0.000000000000000000 ) ) ;
#146 = CIRCLE ( 'NONE', #1, 0.9699999999999999734 ) ;
#147 = CIRCLE ( 'NONE', #271, 1.500000000000000000 ) ;
#148 = CC_DESIGN_PERSON_AND_ORGANIZATION_ASSIGNMENT ( #128, #282, ( #173 ) ) ;
#149 = CIRCLE ( 'NONE', #343, 1.200000000000000622 ) ;
#150 = CIRCLE ( 'NONE', #376, 0.8545299461620741166 ) ;
#151 = ADVANCED_FACE ( 'NONE', ( #370, #8 ), #379, .T. ) ;
#152 = ADVANCED_FACE ( 'NONE', ( #78, #156 ), #118, .T. ) ;
#153 = ORIENTED_EDGE ( 'NONE', *, *, #107, .T. ) ;
#154 = CONICAL_SURFACE ( 'NONE', #384, 0.9699999999999999734, 1.047197551196603182 ) ;
#155 = CARTESIAN_POINT ( 'NONE',  ( 7.855833012397154573E-16, 0.000000000000000000, 0.2250000000000029754 ) ) ;
#156 = FACE_BOUND ( 'NONE', #157, .T. ) ;
#157 = EDGE_LOOP ( 'NONE', ( #132 ) ) ;
#158 = CARTESIAN_POINT ( 'NONE',  ( 1.309305502066176192E-15, 0.000000000000000000, 0.3750000000000003331 ) ) ;
#159 = AXIS2_PLACEMENT_3D ( 'NONE', #114, #85, #140 ) ;
#160 = AXIS2_PLACEMENT_3D ( 'NONE', #268, #299, #352 ) ;
#161 = ADVANCED_FACE ( 'NONE', ( #47, #246 ), #184, .T. ) ;
#162 = DIRECTION ( 'NONE',  ( -3.491481338843133355E-15, 0.000000000000000000, -1.000000000000000000 ) ) ;
#163 = CARTESIAN_POINT ( 'NONE',  ( 2.478951750578624051E-14, 0.000000000000000000, 7.099999999999998757 ) ) ;
#164 = FACE_OUTER_BOUND ( 'NONE', #311, .T. ) ;
#165 = CARTESIAN_POINT ( 'NONE',  ( 1.076540079476635283E-15, 0.000000000000000000, 0.3083333333333340698 ) ) ;
#166 = CARTESIAN_POINT ( 'NONE',  ( 0.8112286759728523089, 0.000000000000000000, -2.832389783693636776E-15 ) ) ;
#167 = AXIS2_PLACEMENT_3D ( 'NONE', #21, #170, #298 ) ;
#168 = AXIS2_PLACEMENT_3D ( 'NONE', #294, #110, #273 ) ;
#169 = DIRECTION ( 'NONE',  ( 3.491481338843133355E-15, -0.000000000000000000, 1.000000000000000000 ) ) ;
#170 = DIRECTION ( 'NONE',  ( 3.491481338843133355E-15, -0.000000000000000000, 1.000000000000000000 ) ) ;
#171 = VERTEX_POINT ( 'NONE', #20 ) ;
#172 = CARTESIAN_POINT ( 'NONE',  ( 0.000000000000000000, 0.000000000000000000, 0.000000000000000000 ) ) ;
#173 = PRODUCT_DEFINITION_FORMATION_WITH_SPECIFIED_SOURCE ( 'ANY', '', #242, .NOT_KNOWN. ) ;
#174 = EDGE_LOOP ( 'NONE', ( #121 ) ) ;
#175 = PRODUCT_DEFINITION_SHAPE ( 'NONE', 'NONE',  #228 ) ;
#176 = ORIENTED_EDGE ( 'NONE', *, *, #286, .F. ) ;
#177 = EDGE_LOOP ( 'NONE', ( #96 ) ) ;
#178 = VERTEX_POINT ( 'NONE', #120 ) ;
#179 = AXIS2_PLACEMENT_3D ( 'NONE', #2, #206, #116 ) ;
#180 = CALENDAR_DATE ( 2023, 27, 9 ) ;
#181 = SECURITY_CLASSIFICATION_LEVEL ( 'unclassified' ) ;
#182 = COORDINATED_UNIVERSAL_TIME_OFFSET ( 1, 0, .AHEAD. ) ;
#183 = CARTESIAN_POINT ( 'NONE',  ( 1.326762908760390423E-13, 0.000000000000000000, 38.00000000000000000 ) ) ;
#184 = CONICAL_SURFACE ( 'NONE', #344, 0.9699999999999999734, 1.047197551196603182 ) ;
#185 = ADVANCED_FACE ( 'NONE', ( #213, #292 ), #154, .T. ) ;
#186 = PLANE ( 'NONE',  #336 ) ;
#187 = PERSON_AND_ORGANIZATION ( #265, #223 ) ;
#188 = ORIENTED_EDGE ( 'NONE', *, *, #107, .F. ) ;
#189 = FACE_OUTER_BOUND ( 'NONE', #238, .T. ) ;
#190 = DIRECTION ( 'NONE',  ( 1.000000000000000000, 0.000000000000000000, -4.625929269271495577E-15 ) ) ;
#191 = AXIS2_PLACEMENT_3D ( 'NONE', #198, #139, #226 ) ;
#192 = EDGE_LOOP ( 'NONE', ( #205 ) ) ;
#193 = CC_DESIGN_APPROVAL ( #303, ( #228 ) ) ;
#194 = FACE_BOUND ( 'NONE', #14, .T. ) ;
#195 = CARTESIAN_POINT ( 'NONE',  ( 1.326762908760390423E-13, 0.000000000000000000, 38.00000000000000000 ) ) ;
#196 = CARTESIAN_POINT ( 'NONE',  ( 0.8545299461620746717, 0.000000000000000000, 0.1749999999999985734 ) ) ;
#197 = CYLINDRICAL_SURFACE ( 'NONE', #383, 0.9699999999999999734 ) ;
#198 = CARTESIAN_POINT ( 'NONE',  ( 4.158458477517630693E-33, 0.000000000000000000, 1.191029844912616191E-18 ) ) ;
#199 = LOCAL_TIME ( 10, 26, 54.00000000000000000, #12 ) ;
#200 = CARTESIAN_POINT ( 'NONE',  ( 1.018348723829256169E-15, 0.000000000000000000, 0.2916666666666692387 ) ) ;
#201 =( LENGTH_UNIT ( ) NAMED_UNIT ( * ) SI_UNIT ( .MILLI., .METRE. ) );
#202 = AXIS2_PLACEMENT_3D ( 'NONE', #163, #82, #325 ) ;
#203 = AXIS2_PLACEMENT_3D ( 'NONE', #106, #105, #252 ) ;
#204 = EDGE_LOOP ( 'NONE', ( #220 ) ) ;
#205 = ORIENTED_EDGE ( 'NONE', *, *, #16, .T. ) ;
#206 = DIRECTION ( 'NONE',  ( 0.000000000000000000, 0.000000000000000000, 1.000000000000000000 ) ) ;
#207 = ADVANCED_FACE ( 'NONE', ( #189, #194 ), #232, .T. ) ;
#208 = DATE_TIME_ROLE ( 'creation_date' ) ;
#209 = CIRCLE ( 'NONE', #109, 0.8545299461620741166 ) ;
#210 = LOCAL_TIME ( 10, 26, 54.00000000000000000, #372 ) ;
#211 = PERSON_AND_ORGANIZATION ( #265, #223 ) ;
#212 = EDGE_LOOP ( 'NONE', ( #368 ) ) ;
#213 = FACE_BOUND ( 'NONE', #244, .T. ) ;
#214 = EDGE_LOOP ( 'NONE', ( #251 ) ) ;
#215 = DATE_AND_TIME ( #243, #31 ) ;
#216 = DIRECTION ( 'NONE',  ( -3.491481338843133355E-15, 0.000000000000000000, -1.000000000000000000 ) ) ;
#217 = EDGE_LOOP ( 'NONE', ( #188 ) ) ;
#218 = PERSON_AND_ORGANIZATION_ROLE ( 'creator' ) ;
#219 = FACE_BOUND ( 'NONE', #28, .T. ) ;
#220 = ORIENTED_EDGE ( 'NONE', *, *, #125, .T. ) ;
#221 = DIRECTION ( 'NONE',  ( 3.491481338843133355E-15, -0.000000000000000000, 1.000000000000000000 ) ) ;
#222 = DIRECTION ( 'NONE',  ( -1.000000000000000000, 0.000000000000000000, 3.492919370120826356E-15 ) ) ;
#223 = ORGANIZATION ( 'UNSPECIFIED', 'UNSPECIFIED', '' ) ;
#224 = DIRECTION ( 'NONE',  ( -1.000000000000000000, 0.000000000000000000, 4.625929269271495577E-15 ) ) ;
#225 = CARTESIAN_POINT ( 'NONE',  ( 0.9700000000000009726, 0.000000000000000000, 0.3083333333333306836 ) ) ;
#226 = DIRECTION ( 'NONE',  ( 1.000000000000000000, 0.000000000000000000, -3.491481338843133355E-15 ) ) ;
#227 = FACE_OUTER_BOUND ( 'NONE', #204, .T. ) ;
#228 = PRODUCT_DEFINITION ( 'UNKNOWN', '', #173, #247 ) ;
#229 = VERTEX_POINT ( 'NONE', #225 ) ;
#230 = FACE_OUTER_BOUND ( 'NONE', #214, .T. ) ;
#231 = CIRCLE ( 'NONE', #288, 0.8112286759728523089 ) ;
#232 = CONICAL_SURFACE ( 'NONE', #53, 0.8490741737109288589, 0.2617993877991429685 ) ;
#233 = VERTEX_POINT ( 'NONE', #264 ) ;
#234 = CIRCLE ( 'NONE', #167, 0.8149999999999999467 ) ;
#235 = CIRCLE ( 'NONE', #326, 0.8490741737109288589 ) ;
#236 = VERTEX_POINT ( 'NONE', #395 ) ;
#237 = ORIENTED_EDGE ( 'NONE', *, *, #342, .T. ) ;
#238 = EDGE_LOOP ( 'NONE', ( #176 ) ) ;
#239 = APPLICATION_PROTOCOL_DEFINITION ( 'international standard', 'config_control_design', 1994, #279 ) ;
#240 = ORIENTED_EDGE ( 'NONE', *, *, #88, .T. ) ;
#241 = MANIFOLD_SOLID_BREP ( 'Corps-Déplacer/Copier1', #309 ) ;
#242 = PRODUCT ( '961158', '961158', '', ( #305 ) ) ;
#243 = CALENDAR_DATE ( 2023, 27, 9 ) ;
#244 = EDGE_LOOP ( 'NONE', ( #310 ) ) ;
#245 = LOCAL_TIME ( 10, 26, 54.00000000000000000, #375 ) ;
#246 = FACE_OUTER_BOUND ( 'NONE', #64, .T. ) ;
#247 = DESIGN_CONTEXT ( 'detailed design', #279, 'design' ) ;
#248 = APPROVAL_STATUS ( 'not_yet_approved' ) ;
#249 = DIRECTION ( 'NONE',  ( 1.000000000000000000, 0.000000000000000000, -3.469446951953614189E-15 ) ) ;
#250 = PERSON_AND_ORGANIZATION ( #265, #223 ) ;
#251 = ORIENTED_EDGE ( 'NONE', *, *, #315, .T. ) ;
#252 = DIRECTION ( 'NONE',  ( 1.000000000000000000, 0.000000000000000000, -3.491481338843133355E-15 ) ) ;
#253 = AXIS2_PLACEMENT_3D ( 'NONE', #348, #15, #190 ) ;
#254 = ORIENTED_EDGE ( 'NONE', *, *, #286, .T. ) ;
#255 = EDGE_CURVE ( 'NONE', #359, #359, #321, .T. ) ;
#256 = CALENDAR_DATE ( 2023, 27, 9 ) ;
#257 = DIRECTION ( 'NONE',  ( 3.491481338843133355E-15, -0.000000000000000000, 1.000000000000000000 ) ) ;
#258 = DIRECTION ( 'NONE',  ( 3.491481338843133355E-15, -0.000000000000000000, 1.000000000000000000 ) ) ;
#259 = DIRECTION ( 'NONE',  ( 3.491481338843133355E-15, -0.000000000000000000, 1.000000000000000000 ) ) ;
#260 = CARTESIAN_POINT ( 'NONE',  ( 2.569317937189887580E-14, 0.000000000000000000, 7.358819045102514167 ) ) ;
#261 = CIRCLE ( 'NONE', #202, 0.8149999999999990585 ) ;
#262 = SECURITY_CLASSIFICATION ( '', '', #181 ) ;
#263 = CARTESIAN_POINT ( 'NONE',  ( 1.326762908760390423E-13, 0.000000000000000000, 38.00000000000000000 ) ) ;
#264 = CARTESIAN_POINT ( 'NONE',  ( 0.9700000000000003064, 0.000000000000000000, 0.09166666666666012375 ) ) ;
#265 = PERSON ( 'UNSPECIFIED', 'UNSPECIFIED', 'UNSPECIFIED', ('UNSPECIFIED'), ('UNSPECIFIED'), ('UNSPECIFIED') ) ;
#266 = DIRECTION ( 'NONE',  ( 3.491481338843133355E-15, -0.000000000000000000, 1.000000000000000000 ) ) ;
#267 = CC_DESIGN_PERSON_AND_ORGANIZATION_ASSIGNMENT ( #211, #218, ( #228 ) ) ;
#268 = CARTESIAN_POINT ( 'NONE',  ( 3.782438117080129010E-16, 0.000000000000000000, 0.1083333333333352799 ) ) ;
#269 = CYLINDRICAL_SURFACE ( 'NONE', #335, 0.8545299461620741166 ) ;
#270 = DIRECTION ( 'NONE',  ( 1.000000000000000000, 0.000000000000000000, -3.064614723343478334E-15 ) ) ;
#271 = AXIS2_PLACEMENT_3D ( 'NONE', #289, #49, #249 ) ;
#272 = CARTESIAN_POINT ( 'NONE',  ( 0.8490741737109546161, 0.000000000000000000, 7.358819045102512391 ) ) ;
#273 = DIRECTION ( 'NONE',  ( 1.000000000000000000, 0.000000000000000000, -4.625929269271490844E-15 ) ) ;
#274 = AXIS2_PLACEMENT_3D ( 'NONE', #56, #50, #224 ) ;
#275 =( GEOMETRIC_REPRESENTATION_CONTEXT ( 3 ) GLOBAL_UNCERTAINTY_ASSIGNED_CONTEXT ( ( #4 ) ) GLOBAL_UNIT_ASSIGNED_CONTEXT ( ( #201, #331, #365 ) ) REPRESENTATION_CONTEXT ( 'NONE', 'WORKASPACE' ) );
#276 = EDGE_LOOP ( 'NONE', ( #123 ) ) ;
#277 = ADVANCED_FACE ( 'NONE', ( #341, #70 ), #26, .F. ) ;
#278 = EDGE_LOOP ( 'NONE', ( #291 ) ) ;
#279 = APPLICATION_CONTEXT ( 'configuration controlled 3d designs of mechanical parts and assemblies' ) ;
#280 = APPROVAL_DATE_TIME ( #136, #303 ) ;
#281 = CC_DESIGN_APPROVAL ( #57, ( #262 ) ) ;
#282 = PERSON_AND_ORGANIZATION_ROLE ( 'design_supplier' ) ;
#283 = DIRECTION ( 'NONE',  ( 1.000000000000000000, 0.000000000000000000, -3.489118184478044380E-15 ) ) ;
#284 = PERSON_AND_ORGANIZATION_ROLE ( 'creator' ) ;
#285 = PLANE ( 'NONE',  #357 ) ;
#286 = EDGE_CURVE ( 'NONE', #60, #60, #147, .T. ) ;
#287 = EDGE_LOOP ( 'NONE', ( #29 ) ) ;
#288 = AXIS2_PLACEMENT_3D ( 'NONE', #172, #48, #386 ) ;
#289 = CARTESIAN_POINT ( 'NONE',  ( 3.417499398324016853E-14, 0.000000000000000000, 9.788107300772143304 ) ) ;
#290 = APPLICATION_CONTEXT ( 'configuration controlled 3d designs of mechanical parts and assemblies' ) ;
#291 = ORIENTED_EDGE ( 'NONE', *, *, #33, .T. ) ;
#292 = FACE_OUTER_BOUND ( 'NONE', #101, .T. ) ;
#293 = DIRECTION ( 'NONE',  ( 1.000000000000000000, 0.000000000000000000, -3.464976015159859584E-15 ) ) ;
#294 = CARTESIAN_POINT ( 'NONE',  ( 1.326762908760390423E-13, 0.000000000000000000, 38.00000000000000000 ) ) ;
#295 = PLANE ( 'NONE',  #191 ) ;
#296 = AXIS2_PLACEMENT_3D ( 'NONE', #155, #349, #74 ) ;
#297 = DIRECTION ( 'NONE',  ( 3.491481338843133355E-15, -0.000000000000000000, 1.000000000000000000 ) ) ;
#298 = DIRECTION ( 'NONE',  ( 1.000000000000000000, 0.000000000000000000, -3.458804476640873380E-15 ) ) ;
#299 = DIRECTION ( 'NONE',  ( 3.491481338843133355E-15, -0.000000000000000000, 1.000000000000000000 ) ) ;
#300 = CC_DESIGN_SECURITY_CLASSIFICATION ( #262, ( #173 ) ) ;
#301 = ORIENTED_EDGE ( 'NONE', *, *, #5, .T. ) ;
#302 = EDGE_LOOP ( 'NONE', ( #95 ) ) ;
#303 = APPROVAL ( #67, 'UNSPECIFIED' ) ;
#304 = CIRCLE ( 'NONE', #253, 1.499999999999996669 ) ;
#305 = MECHANICAL_CONTEXT ( 'NONE', #290, 'mechanical' ) ;
#306 = ORIENTED_EDGE ( 'NONE', *, *, #5, .F. ) ;
#307 = APPROVAL_DATE_TIME ( #68, #362 ) ;
#308 = PERSON_AND_ORGANIZATION_ROLE ( 'classification_officer' ) ;
#309 = CLOSED_SHELL ( 'NONE', ( #30, #339, #80, #161, #94, #152, #119, #185, #313, #329, #151, #277, #207, #371, #24, #333 ) ) ;
#310 = ORIENTED_EDGE ( 'NONE', *, *, #255, .F. ) ;
#311 = EDGE_LOOP ( 'NONE', ( #66 ) ) ;
#312 = DIRECTION ( 'NONE',  ( 3.491481338843133355E-15, -0.000000000000000000, 1.000000000000000000 ) ) ;
#313 = ADVANCED_FACE ( 'NONE', ( #164, #6 ), #137, .T. ) ;
#314 = CARTESIAN_POINT ( 'NONE',  ( 1.326762908760390423E-13, 1.200000000000000622, 38.00000000000000000 ) ) ;
#315 = EDGE_CURVE ( 'NONE', #178, #178, #304, .T. ) ;
#316 = ORIENTED_EDGE ( 'NONE', *, *, #255, .T. ) ;
#317 = DATE_AND_TIME ( #369, #245 ) ;
#318 = EDGE_LOOP ( 'NONE', ( #390 ) ) ;
#319 = CARTESIAN_POINT ( 'NONE',  ( 2.569317937189887580E-14, 0.000000000000000000, 7.358819045102514167 ) ) ;
#320 = FACE_BOUND ( 'NONE', #276, .T. ) ;
#321 = CIRCLE ( 'NONE', #46, 0.8545299461620741166 ) ;
#322 = ORIENTED_EDGE ( 'NONE', *, *, #33, .F. ) ;
#323 = DIRECTION ( 'NONE',  ( 3.491481338843133355E-15, -0.000000000000000000, 1.000000000000000000 ) ) ;
#324 = VERTEX_POINT ( 'NONE', #84 ) ;
#325 = DIRECTION ( 'NONE',  ( 1.000000000000000000, 0.000000000000000000, -3.192742593822348026E-15 ) ) ;
#326 = AXIS2_PLACEMENT_3D ( 'NONE', #260, #385, #270 ) ;
#327 = FACE_BOUND ( 'NONE', #35, .T. ) ;
#328 = VERTEX_POINT ( 'NONE', #166 ) ;
#329 = ADVANCED_FACE ( 'NONE', ( #320, #373 ), #285, .F. ) ;
#330 = CARTESIAN_POINT ( 'NONE',  ( 1.326762908760390423E-13, 0.000000000000000000, 38.00000000000000000 ) ) ;
#331 =( NAMED_UNIT ( * ) PLANE_ANGLE_UNIT ( ) SI_UNIT ( $, .RADIAN. ) );
#332 = CARTESIAN_POINT ( 'NONE',  ( 1.396592535537244862E-15, 0.000000000000000000, 0.3999999999999975797 ) ) ;
#333 = ADVANCED_FACE ( 'NONE', ( #72 ), #186, .F. ) ;
#334 = APPLICATION_PROTOCOL_DEFINITION ( 'international standard', 'config_control_design', 1994, #290 ) ;
#335 = AXIS2_PLACEMENT_3D ( 'NONE', #87, #266, #388 ) ;
#336 = AXIS2_PLACEMENT_3D ( 'NONE', #314, #41, #133 ) ;
#337 = PERSON_AND_ORGANIZATION ( #265, #223 ) ;
#338 = EDGE_LOOP ( 'NONE', ( #3 ) ) ;
#339 = ADVANCED_FACE ( 'NONE', ( #378, #219 ), #77, .T. ) ;
#340 = DATE_AND_TIME ( #256, #392 ) ;
#341 = FACE_OUTER_BOUND ( 'NONE', #71, .T. ) ;
#342 = EDGE_CURVE ( 'NONE', #117, #117, #235, .T. ) ;
#343 = AXIS2_PLACEMENT_3D ( 'NONE', #330, #297, #19 ) ;
#344 = AXIS2_PLACEMENT_3D ( 'NONE', #380, #98, #222 ) ;
#345 = DIRECTION ( 'NONE',  ( -1.000000000000000000, 0.000000000000000000, 3.491481338843133355E-15 ) ) ;
#346 = ORIENTED_EDGE ( 'NONE', *, *, #44, .F. ) ;
#347 = DIRECTION ( 'NONE',  ( 1.000000000000000000, 0.000000000000000000, 0.000000000000000000 ) ) ;
#348 = CARTESIAN_POINT ( 'NONE',  ( 1.316288464743861212E-13, 0.000000000000000000, 37.69999999999999574 ) ) ;
#349 = DIRECTION ( 'NONE',  ( 3.491481338843133355E-15, -0.000000000000000000, 1.000000000000000000 ) ) ;
#350 = FACE_OUTER_BOUND ( 'NONE', #278, .T. ) ;
#351 = DIRECTION ( 'NONE',  ( 3.491481338843133355E-15, -0.000000000000000000, 1.000000000000000000 ) ) ;
#352 = DIRECTION ( 'NONE',  ( 1.000000000000000000, 0.000000000000000000, -3.492919370120826356E-15 ) ) ;
#353 = DIRECTION ( 'NONE',  ( 1.000000000000000000, 0.000000000000000000, -3.464976015159859584E-15 ) ) ;
#354 = EDGE_CURVE ( 'NONE', #236, #236, #367, .T. ) ;
#355 = VERTEX_POINT ( 'NONE', #115 ) ;
#356 = AXIS2_PLACEMENT_3D ( 'NONE', #200, #55, #293 ) ;
#357 = AXIS2_PLACEMENT_3D ( 'NONE', #100, #216, #345 ) ;
#358 = FACE_OUTER_BOUND ( 'NONE', #174, .T. ) ;
#359 = VERTEX_POINT ( 'NONE', #93 ) ;
#360 = PERSON_AND_ORGANIZATION ( #265, #223 ) ;
#361 = AXIS2_PLACEMENT_3D ( 'NONE', #76, #257, #138 ) ;
#362 = APPROVAL ( #248, 'UNSPECIFIED' ) ;
#363 = VERTEX_POINT ( 'NONE', #92 ) ;
#364 = EDGE_LOOP ( 'NONE', ( #316 ) ) ;
#365 =( NAMED_UNIT ( * ) SI_UNIT ( $, .STERADIAN. ) SOLID_ANGLE_UNIT ( ) );
#366 = ORIENTED_EDGE ( 'NONE', *, *, #342, .F. ) ;
#367 = CIRCLE ( 'NONE', #160, 0.9699999999999999734 ) ;
#368 = ORIENTED_EDGE ( 'NONE', *, *, #125, .F. ) ;
#369 = CALENDAR_DATE ( 2023, 27, 9 ) ;
#370 = FACE_OUTER_BOUND ( 'NONE', #217, .T. ) ;
#371 = ADVANCED_FACE ( 'NONE', ( #389, #81 ), #58, .T. ) ;
#372 = COORDINATED_UNIVERSAL_TIME_OFFSET ( 1, 0, .AHEAD. ) ;
#373 = FACE_OUTER_BOUND ( 'NONE', #91, .T. ) ;
#374 = EDGE_LOOP ( 'NONE', ( #254 ) ) ;
#375 = COORDINATED_UNIVERSAL_TIME_OFFSET ( 1, 0, .AHEAD. ) ;
#376 = AXIS2_PLACEMENT_3D ( 'NONE', #332, #89, #113 ) ;
#377 = ORIENTED_EDGE ( 'NONE', *, *, #16, .F. ) ;
#378 = FACE_OUTER_BOUND ( 'NONE', #212, .T. ) ;
#379 = CYLINDRICAL_SURFACE ( 'NONE', #86, 0.8149999999999995026 ) ;
#380 = CARTESIAN_POINT ( 'NONE',  ( 3.782438117080129010E-16, 0.000000000000000000, 0.1083333333333352799 ) ) ;
#381 = CC_DESIGN_DATE_AND_TIME_ASSIGNMENT ( #340, #208, ( #228 ) ) ;
#382 = FACE_OUTER_BOUND ( 'NONE', #318, .T. ) ;
#383 = AXIS2_PLACEMENT_3D ( 'NONE', #263, #259, #145 ) ;
#384 = AXIS2_PLACEMENT_3D ( 'NONE', #129, #162, #17 ) ;
#385 = DIRECTION ( 'NONE',  ( 3.491481338843133355E-15, -0.000000000000000000, 1.000000000000000000 ) ) ;
#386 = DIRECTION ( 'NONE',  ( 1.000000000000000000, 0.000000000000000000, -3.491481338843133355E-15 ) ) ;
#387 = CARTESIAN_POINT ( 'NONE',  ( 0.000000000000000000, 0.000000000000000000, 0.000000000000000000 ) ) ;
#388 = DIRECTION ( 'NONE',  ( 1.000000000000000000, 0.000000000000000000, 0.000000000000000000 ) ) ;
#389 = FACE_OUTER_BOUND ( 'NONE', #338, .T. ) ;
#390 = ORIENTED_EDGE ( 'NONE', *, *, #44, .T. ) ;
#391 = VERTEX_POINT ( 'NONE', #142 ) ;
#392 = LOCAL_TIME ( 10, 26, 54.00000000000000000, #73 ) ;
#393 = EDGE_CURVE ( 'NONE', #363, #363, #150, .T. ) ;
#394 = VERTEX_POINT ( 'NONE', #51 ) ;
#395 = CARTESIAN_POINT ( 'NONE',  ( 0.9700000000000003064, 0.000000000000000000, 0.1083333333333318937 ) ) ;
ENDSEC;
END-ISO-10303-21;
