ISO-10303-21;
HEADER;
FILE_DESCRIPTION (( 'STEP AP203' ),
    '1' );
FILE_NAME ('961157.step',
    '2023-09-27T08:26:53',
    ( '' ),
    ( '' ),
    'SwSTEP 2.0',
    'SolidWorks 2022',
    '' );
FILE_SCHEMA (( 'CONFIG_CONTROL_DESIGN' ));
ENDSEC;

DATA;
#1 = DIRECTION ( 'NONE',  ( 3.491481338843133355E-15, -0.000000000000000000, 1.000000000000000000 ) ) ;
#2 = AXIS2_PLACEMENT_3D ( 'NONE', #172, #301, #267 ) ;
#3 = FACE_BOUND ( 'NONE', #101, .T. ) ;
#4 = EDGE_LOOP ( 'NONE', ( #307 ) ) ;
#5 = CARTESIAN_POINT ( 'NONE',  ( 7.564876234160016431E-16, 0.000000000000000000, 0.2166666666666636210 ) ) ;
#6 = FACE_OUTER_BOUND ( 'NONE', #297, .T. ) ;
#7 = CIRCLE ( 'NONE', #392, 1.499999999999996669 ) ;
#8 = DIRECTION ( 'NONE',  ( 3.491481338843133355E-15, -0.000000000000000000, 1.000000000000000000 ) ) ;
#9 = FACE_OUTER_BOUND ( 'NONE', #90, .T. ) ;
#10 = DIRECTION ( 'NONE',  ( 1.000000000000000000, 0.000000000000000000, -3.451192871279423381E-15 ) ) ;
#11 = PERSON_AND_ORGANIZATION ( #40, #164 ) ;
#12 = DIRECTION ( 'NONE',  ( 3.491481338843133355E-15, -0.000000000000000000, 1.000000000000000000 ) ) ;
#13 = EDGE_LOOP ( 'NONE', ( #83 ) ) ;
#14 = CARTESIAN_POINT ( 'NONE',  ( 6.401049121212433174E-16, 0.000000000000000000, 0.1833333333333339588 ) ) ;
#15 = CARTESIAN_POINT ( 'NONE',  ( 0.5040741737109523113, 0.000000000000000000, 6.658819045102513989 ) ) ;
#16 = ADVANCED_FACE ( 'NONE', ( #9 ), #191, .F. ) ;
#17 = CARTESIAN_POINT ( 'NONE',  ( 0.000000000000000000, 0.000000000000000000, 0.000000000000000000 ) ) ;
#18 = AXIS2_PLACEMENT_3D ( 'NONE', #91, #65, #274 ) ;
#19 = PERSON_AND_ORGANIZATION_ROLE ( 'classification_officer' ) ;
#20 = VERTEX_POINT ( 'NONE', #107 ) ;
#21 = ADVANCED_FACE ( 'NONE', ( #313, #157 ), #60, .T. ) ;
#22 =( GEOMETRIC_REPRESENTATION_CONTEXT ( 3 ) GLOBAL_UNCERTAINTY_ASSIGNED_CONTEXT ( ( #286 ) ) GLOBAL_UNIT_ASSIGNED_CONTEXT ( ( #224, #389, #46 ) ) REPRESENTATION_CONTEXT ( 'NONE', 'WORKASPACE' ) );
#23 = CARTESIAN_POINT ( 'NONE',  ( 0.000000000000000000, 0.000000000000000000, 0.000000000000000000 ) ) ;
#24 = APPROVAL_STATUS ( 'not_yet_approved' ) ;
#25 = FACE_BOUND ( 'NONE', #271, .T. ) ;
#26 = ADVANCED_FACE ( 'NONE', ( #376, #353 ), #45, .F. ) ;
#27 = AXIS2_PLACEMENT_3D ( 'NONE', #306, #94, #86 ) ;
#28 = CC_DESIGN_PERSON_AND_ORGANIZATION_ASSIGNMENT ( #256, #108, ( #385 ) ) ;
#29 = CYLINDRICAL_SURFACE ( 'NONE', #68, 0.5340598923241482998 ) ;
#30 = PRODUCT ( '961157', '961157', '', ( #228 ) ) ;
#31 = ORIENTED_EDGE ( 'NONE', *, *, #369, .T. ) ;
#32 = CARTESIAN_POINT ( 'NONE',  ( 7.564876234160016431E-16, 0.000000000000000000, 0.2166666666666636210 ) ) ;
#33 = DIRECTION ( 'NONE',  ( 3.491481338843133355E-15, -0.000000000000000000, 1.000000000000000000 ) ) ;
#34 = ADVANCED_FACE ( 'NONE', ( #360, #393 ), #237, .T. ) ;
#35 = AXIS2_PLACEMENT_3D ( 'NONE', #151, #213, #372 ) ;
#36 = ORIENTED_EDGE ( 'NONE', *, *, #85, .T. ) ;
#37 = CYLINDRICAL_SURFACE ( 'NONE', #289, 0.7650000000000000133 ) ;
#38 = EDGE_LOOP ( 'NONE', ( #119 ) ) ;
#39 = DIRECTION ( 'NONE',  ( -3.491481338843133355E-15, 0.000000000000000000, -1.000000000000000000 ) ) ;
#40 = PERSON ( 'UNSPECIFIED', 'UNSPECIFIED', 'UNSPECIFIED', ('UNSPECIFIED'), ('UNSPECIFIED'), ('UNSPECIFIED') ) ;
#41 = DIRECTION ( 'NONE',  ( 1.000000000000000000, 0.000000000000000000, 0.000000000000000000 ) ) ;
#42 = AXIS2_PLACEMENT_3D ( 'NONE', #325, #1, #112 ) ;
#43 = ADVANCED_FACE ( 'NONE', ( #202, #25 ), #347, .T. ) ;
#44 = CIRCLE ( 'NONE', #115, 0.7650000000000000133 ) ;
#45 = PLANE ( 'NONE',  #134 ) ;
#46 =( NAMED_UNIT ( * ) SI_UNIT ( $, .STERADIAN. ) SOLID_ANGLE_UNIT ( ) );
#47 = CARTESIAN_POINT ( 'NONE',  ( 1.500000000000128120, 0.000000000000000000, 37.69999999999998863 ) ) ;
#48 = CARTESIAN_POINT ( 'NONE',  ( 0.5340598923241510754, 0.000000000000000000, 0.8000000000000002665 ) ) ;
#49 = ADVANCED_FACE ( 'NONE', ( #53, #3 ), #96, .T. ) ;
#50 = DIRECTION ( 'NONE',  ( 1.000000000000000000, 0.000000000000000000, -3.441405186871599441E-15 ) ) ;
#51 = EDGE_CURVE ( 'NONE', #382, #382, #210, .T. ) ;
#52 = CIRCLE ( 'NONE', #178, 0.7650000000000000133 ) ;
#53 = FACE_OUTER_BOUND ( 'NONE', #331, .T. ) ;
#54 = DIRECTION ( 'NONE',  ( 1.000000000000000000, 0.000000000000000000, -3.543144354527792031E-15 ) ) ;
#55 = CALENDAR_DATE ( 2023, 27, 9 ) ;
#56 = DIRECTION ( 'NONE',  ( 3.491481338843133355E-15, -0.000000000000000000, 1.000000000000000000 ) ) ;
#57 = EDGE_CURVE ( 'NONE', #168, #168, #299, .T. ) ;
#58 = ORIENTED_EDGE ( 'NONE', *, *, #160, .T. ) ;
#59 = CARTESIAN_POINT ( 'NONE',  ( 2.234548056859605347E-14, 0.000000000000000000, 6.400000000000000355 ) ) ;
#60 = CONICAL_SURFACE ( 'NONE', #184, 0.5340598923241484108, 1.047197551196602960 ) ;
#61 = AXIS2_PLACEMENT_3D ( 'NONE', #284, #120, #216 ) ;
#62 = DIRECTION ( 'NONE',  ( 1.000000000000000000, 0.000000000000000000, -3.690901012716615975E-15 ) ) ;
#63 = CARTESIAN_POINT ( 'NONE',  ( 2.234548056859606294E-14, 0.000000000000000000, 6.400000000000003020 ) ) ;
#64 = ORIENTED_EDGE ( 'NONE', *, *, #89, .T. ) ;
#65 = DIRECTION ( 'NONE',  ( 3.491481338843133355E-15, -0.000000000000000000, 1.000000000000000000 ) ) ;
#66 = PERSON_AND_ORGANIZATION_ROLE ( 'creator' ) ;
#67 = EDGE_LOOP ( 'NONE', ( #337 ) ) ;
#68 = AXIS2_PLACEMENT_3D ( 'NONE', #327, #268, #273 ) ;
#69 = DIRECTION ( 'NONE',  ( 1.000000000000000000, 0.000000000000000000, -3.451192871279423381E-15 ) ) ;
#70 = EDGE_LOOP ( 'NONE', ( #153 ) ) ;
#71 = DIRECTION ( 'NONE',  ( 3.491481338843133355E-15, -0.000000000000000000, 1.000000000000000000 ) ) ;
#72 = ORIENTED_EDGE ( 'NONE', *, *, #231, .F. ) ;
#73 = VERTEX_POINT ( 'NONE', #384 ) ;
#74 = AXIS2_PLACEMENT_3D ( 'NONE', #379, #33, #41 ) ;
#75 = CALENDAR_DATE ( 2023, 27, 9 ) ;
#76 = AXIS2_PLACEMENT_3D ( 'NONE', #176, #298, #203 ) ;
#77 = VERTEX_POINT ( 'NONE', #165 ) ;
#78 = CIRCLE ( 'NONE', #269, 0.5340598923241484108 ) ;
#79 = DIRECTION ( 'NONE',  ( 1.000000000000000000, 0.000000000000000000, -3.491481338843133750E-15 ) ) ;
#80 = APPROVAL_PERSON_ORGANIZATION ( #95, #366, #260 ) ;
#81 = PRODUCT_DEFINITION_SHAPE ( 'NONE', 'NONE',  #319 ) ;
#82 = CARTESIAN_POINT ( 'NONE',  ( 1.326762908760390423E-13, 0.000000000000000000, 38.00000000000000000 ) ) ;
#83 = ORIENTED_EDGE ( 'NONE', *, *, #369, .F. ) ;
#84 = DIRECTION ( 'NONE',  ( 3.491481338843133355E-15, -0.000000000000000000, 1.000000000000000000 ) ) ;
#85 = EDGE_CURVE ( 'NONE', #77, #77, #193, .T. ) ;
#86 = DIRECTION ( 'NONE',  ( -1.000000000000000000, 0.000000000000000000, 3.543144354527792031E-15 ) ) ;
#87 = AXIS2_PLACEMENT_3D ( 'NONE', #5, #235, #296 ) ;
#88 = DIRECTION ( 'NONE',  ( -1.000000000000000000, 0.000000000000000000, 3.491481338843133355E-15 ) ) ;
#89 = EDGE_CURVE ( 'NONE', #314, #314, #377, .T. ) ;
#90 = EDGE_LOOP ( 'NONE', ( #195 ) ) ;
#91 = CARTESIAN_POINT ( 'NONE',  ( 1.326762908760390423E-13, 0.000000000000000000, 38.00000000000000000 ) ) ;
#92 = ORIENTED_EDGE ( 'NONE', *, *, #196, .T. ) ;
#93 = EDGE_LOOP ( 'NONE', ( #72 ) ) ;
#94 = DIRECTION ( 'NONE',  ( -3.491481338843133355E-15, 0.000000000000000000, -1.000000000000000000 ) ) ;
#95 = PERSON_AND_ORGANIZATION ( #40, #164 ) ;
#96 = CONICAL_SURFACE ( 'NONE', #142, 0.4474573519457045179, 1.047197551196598075 ) ;
#97 = CIRCLE ( 'NONE', #240, 0.4699999999999993072 ) ;
#98 = CARTESIAN_POINT ( 'NONE',  ( 1.326762908760390423E-13, 0.000000000000000000, 38.00000000000000000 ) ) ;
#99 = EDGE_CURVE ( 'NONE', #198, #198, #250, .T. ) ;
#100 = CARTESIAN_POINT ( 'NONE',  ( 0.5340598923241509643, 0.000000000000000000, 0.7499999999999987788 ) ) ;
#101 = EDGE_LOOP ( 'NONE', ( #92 ) ) ;
#102 = AXIS2_PLACEMENT_3D ( 'NONE', #233, #84, #137 ) ;
#103 = CARTESIAN_POINT ( 'NONE',  ( 0.4700000000000216227, 0.000000000000000000, 6.400000000000001243 ) ) ;
#104 = DATE_AND_TIME ( #55, #348 ) ;
#105 = APPLICATION_PROTOCOL_DEFINITION ( 'international standard', 'config_control_design', 1994, #154 ) ;
#106 = SHAPE_DEFINITION_REPRESENTATION ( #81, #364 ) ;
#107 = CARTESIAN_POINT ( 'NONE',  ( 0.7650000000000021227, 0.000000000000000000, 0.5833333333333288184 ) ) ;
#108 = PERSON_AND_ORGANIZATION_ROLE ( 'design_supplier' ) ;
#109 = DIRECTION ( 'NONE',  ( 1.000000000000000000, 0.000000000000000000, -3.460219699421823039E-15 ) ) ;
#110 = FACE_OUTER_BOUND ( 'NONE', #373, .T. ) ;
#111 = CIRCLE ( 'NONE', #194, 0.5340598923241484108 ) ;
#112 = DIRECTION ( 'NONE',  ( 1.000000000000000000, 0.000000000000000000, -5.782411586589354089E-15 ) ) ;
#113 = CARTESIAN_POINT ( 'NONE',  ( 2.793185071074513784E-15, 0.000000000000000000, 0.8000000000000020428 ) ) ;
#114 = DIRECTION ( 'NONE',  ( 3.491481338843133355E-15, -0.000000000000000000, 1.000000000000000000 ) ) ;
#115 = AXIS2_PLACEMENT_3D ( 'NONE', #14, #118, #243 ) ;
#116 = ADVANCED_FACE ( 'NONE', ( #293, #362 ), #285, .T. ) ;
#117 = EDGE_LOOP ( 'NONE', ( #209 ) ) ;
#118 = DIRECTION ( 'NONE',  ( 3.491481338843133355E-15, -0.000000000000000000, 1.000000000000000000 ) ) ;
#119 = ORIENTED_EDGE ( 'NONE', *, *, #57, .F. ) ;
#120 = DIRECTION ( 'NONE',  ( 3.491481338843133355E-15, -0.000000000000000000, 1.000000000000000000 ) ) ;
#121 = CALENDAR_DATE ( 2023, 27, 9 ) ;
#122 = DIRECTION ( 'NONE',  ( 3.491481338843133355E-15, -0.000000000000000000, 1.000000000000000000 ) ) ;
#123 = EDGE_LOOP ( 'NONE', ( #58 ) ) ;
#124 = ADVANCED_FACE ( 'NONE', ( #238, #330 ), #132, .F. ) ;
#125 = AXIS2_PLACEMENT_3D ( 'NONE', #59, #206, #173 ) ;
#126 = CARTESIAN_POINT ( 'NONE',  ( 0.4700000000000028044, 0.000000000000000000, 0.8000000000000004885 ) ) ;
#127 = ORIENTED_EDGE ( 'NONE', *, *, #231, .T. ) ;
#128 = CARTESIAN_POINT ( 'NONE',  ( 1.200000000000133182, 0.000000000000000000, 37.99999999999999289 ) ) ;
#129 = EDGE_LOOP ( 'NONE', ( #340 ) ) ;
#130 = CARTESIAN_POINT ( 'NONE',  ( 0.7650000000000007905, 0.000000000000000000, 0.2166666666666609287 ) ) ;
#131 = EDGE_CURVE ( 'NONE', #20, #20, #135, .T. ) ;
#132 = TOROIDAL_SURFACE ( 'NONE', #125, 1.469999999999999307, 1.000000000000000000 ) ;
#133 = DIRECTION ( 'NONE',  ( 0.000000000000000000, 0.000000000000000000, 1.000000000000000000 ) ) ;
#134 = AXIS2_PLACEMENT_3D ( 'NONE', #358, #265, #143 ) ;
#135 = CIRCLE ( 'NONE', #185, 0.7650000000000000133 ) ;
#136 = DIRECTION ( 'NONE',  ( 3.491481338843133355E-15, -0.000000000000000000, 1.000000000000000000 ) ) ;
#137 = DIRECTION ( 'NONE',  ( 1.000000000000000000, 0.000000000000000000, -3.469446951953614189E-15 ) ) ;
#138 = APPROVAL_ROLE ( '' ) ;
#139 = DIRECTION ( 'NONE',  ( 1.000000000000000000, 0.000000000000000000, 0.000000000000000000 ) ) ;
#140 = CC_DESIGN_DATE_AND_TIME_ASSIGNMENT ( #292, #261, ( #263 ) ) ;
#141 = ORIENTED_EDGE ( 'NONE', *, *, #57, .T. ) ;
#142 = AXIS2_PLACEMENT_3D ( 'NONE', #363, #207, #79 ) ;
#143 = DIRECTION ( 'NONE',  ( -1.000000000000000000, 0.000000000000000000, 3.491481338843133355E-15 ) ) ;
#144 = CARTESIAN_POINT ( 'NONE',  ( 2.036697447658488278E-15, 0.000000000000000000, 0.5833333333333314830 ) ) ;
#145 = ORIENTED_EDGE ( 'NONE', *, *, #252, .T. ) ;
#146 = FACE_OUTER_BOUND ( 'NONE', #70, .T. ) ;
#147 = ORIENTED_EDGE ( 'NONE', *, *, #218, .F. ) ;
#148 = FACE_OUTER_BOUND ( 'NONE', #281, .T. ) ;
#149 = LOCAL_TIME ( 10, 26, 53.00000000000000000, #323 ) ;
#150 = ORIENTED_EDGE ( 'NONE', *, *, #218, .T. ) ;
#151 = CARTESIAN_POINT ( 'NONE',  ( -2.644723569535705986E-34, 0.000000000000000000, -7.574789359785058994E-20 ) ) ;
#152 = COORDINATED_UNIVERSAL_TIME_OFFSET ( 1, 0, .AHEAD. ) ;
#153 = ORIENTED_EDGE ( 'NONE', *, *, #334, .F. ) ;
#154 = APPLICATION_CONTEXT ( 'configuration controlled 3d designs of mechanical parts and assemblies' ) ;
#155 = DESIGN_CONTEXT ( 'detailed design', #221, 'design' ) ;
#156 = CARTESIAN_POINT ( 'NONE',  ( 2.618611004132352383E-15, 0.000000000000000000, 0.7500000000000006661 ) ) ;
#157 = FACE_BOUND ( 'NONE', #117, .T. ) ;
#158 = CONICAL_SURFACE ( 'NONE', #27, 0.7650000000000000133, 1.047197551196602960 ) ;
#159 = CARTESIAN_POINT ( 'NONE',  ( 0.7650000000000022338, 0.000000000000000000, 0.6166666666666654750 ) ) ;
#160 = EDGE_CURVE ( 'NONE', #223, #223, #201, .T. ) ;
#161 = CC_DESIGN_PERSON_AND_ORGANIZATION_ASSIGNMENT ( #225, #229, ( #385 ) ) ;
#162 = APPROVAL_STATUS ( 'not_yet_approved' ) ;
#163 = CLOSED_SHELL ( 'NONE', ( #254, #49, #395, #383, #388, #21, #205, #311, #167, #26, #34, #124, #43, #262, #116, #16 ) ) ;
#164 = ORGANIZATION ( 'UNSPECIFIED', 'UNSPECIFIED', '' ) ;
#165 = CARTESIAN_POINT ( 'NONE',  ( 1.500000000000036193, 0.000000000000000000, 10.37566482938343881 ) ) ;
#166 = SECURITY_CLASSIFICATION_LEVEL ( 'unclassified' ) ;
#167 = ADVANCED_FACE ( 'NONE', ( #110, #208 ), #29, .T. ) ;
#168 = VERTEX_POINT ( 'NONE', #126 ) ;
#169 = DIRECTION ( 'NONE',  ( 1.000000000000000000, 0.000000000000000000, -3.441405186871599441E-15 ) ) ;
#170 = AXIS2_PLACEMENT_3D ( 'NONE', #270, #295, #50 ) ;
#171 = LOCAL_TIME ( 10, 26, 53.00000000000000000, #152 ) ;
#172 = CARTESIAN_POINT ( 'NONE',  ( 1.316288464743861212E-13, 0.000000000000000000, 37.69999999999999574 ) ) ;
#173 = DIRECTION ( 'NONE',  ( 1.000000000000000000, 0.000000000000000000, -3.491481338843133355E-15 ) ) ;
#174 = CC_DESIGN_PERSON_AND_ORGANIZATION_ASSIGNMENT ( #199, #322, ( #30 ) ) ;
#175 = APPLICATION_PROTOCOL_DEFINITION ( 'international standard', 'config_control_design', 1994, #221 ) ;
#176 = CARTESIAN_POINT ( 'NONE',  ( 2.793185071074513784E-15, 0.000000000000000000, 0.8000000000000020428 ) ) ;
#177 = EDGE_LOOP ( 'NONE', ( #304 ) ) ;
#178 = AXIS2_PLACEMENT_3D ( 'NONE', #190, #8, #183 ) ;
#179 = ORIENTED_EDGE ( 'NONE', *, *, #234, .F. ) ;
#180 = DIRECTION ( 'NONE',  ( -1.000000000000000000, 0.000000000000000000, 3.507712910982514253E-15 ) ) ;
#181 = CARTESIAN_POINT ( 'NONE',  ( 1.316288464743861212E-13, 0.000000000000000000, 37.69999999999999574 ) ) ;
#182 = ORIENTED_EDGE ( 'NONE', *, *, #252, .F. ) ;
#183 = DIRECTION ( 'NONE',  ( 1.000000000000000000, 0.000000000000000000, -3.543144354527792031E-15 ) ) ;
#184 = AXIS2_PLACEMENT_3D ( 'NONE', #280, #122, #247 ) ;
#185 = AXIS2_PLACEMENT_3D ( 'NONE', #144, #394, #54 ) ;
#186 = ORIENTED_EDGE ( 'NONE', *, *, #131, .T. ) ;
#187 = DIRECTION ( 'NONE',  ( 1.000000000000000000, 0.000000000000000000, -4.625929269271495577E-15 ) ) ;
#188 = APPROVAL_DATE_TIME ( #104, #305 ) ;
#189 = EDGE_LOOP ( 'NONE', ( #302 ) ) ;
#190 = CARTESIAN_POINT ( 'NONE',  ( 2.153080158953270565E-15, 0.000000000000000000, 0.6166666666666681396 ) ) ;
#191 = PLANE ( 'NONE',  #230 ) ;
#192 = CARTESIAN_POINT ( 'NONE',  ( 1.326762908760390423E-13, 0.000000000000000000, 38.00000000000000000 ) ) ;
#193 = CIRCLE ( 'NONE', #102, 1.500000000000000000 ) ;
#194 = AXIS2_PLACEMENT_3D ( 'NONE', #156, #12, #10 ) ;
#195 = ORIENTED_EDGE ( 'NONE', *, *, #51, .T. ) ;
#196 = EDGE_CURVE ( 'NONE', #290, #290, #276, .T. ) ;
#197 = CYLINDRICAL_SURFACE ( 'NONE', #300, 0.7650000000000000133 ) ;
#198 = VERTEX_POINT ( 'NONE', #48 ) ;
#199 = PERSON_AND_ORGANIZATION ( #40, #164 ) ;
#200 = AXIS2_PLACEMENT_3D ( 'NONE', #328, #56, #169 ) ;
#201 = CIRCLE ( 'NONE', #87, 0.7650000000000000133 ) ;
#202 = FACE_OUTER_BOUND ( 'NONE', #217, .T. ) ;
#203 = DIRECTION ( 'NONE',  ( 1.000000000000000000, 0.000000000000000000, -3.451192871279424170E-15 ) ) ;
#204 = APPROVAL_PERSON_ORGANIZATION ( #352, #278, #349 ) ;
#205 = ADVANCED_FACE ( 'NONE', ( #148, #6 ), #37, .T. ) ;
#206 = DIRECTION ( 'NONE',  ( 3.491481338843133355E-15, -0.000000000000000000, 1.000000000000000000 ) ) ;
#207 = DIRECTION ( 'NONE',  ( 3.491481338843133355E-15, -0.000000000000000000, 1.000000000000000000 ) ) ;
#208 = FACE_OUTER_BOUND ( 'NONE', #346, .T. ) ;
#209 = ORIENTED_EDGE ( 'NONE', *, *, #334, .T. ) ;
#210 = CIRCLE ( 'NONE', #42, 1.200000000000000622 ) ;
#211 = CC_DESIGN_APPROVAL ( #366, ( #385 ) ) ;
#212 = CARTESIAN_POINT ( 'NONE',  ( 1.571166602479406657E-15, 0.000000000000000000, 0.4499999999999990119 ) ) ;
#213 = DIRECTION ( 'NONE',  ( 3.491481338843133355E-15, -0.000000000000000000, 1.000000000000000000 ) ) ;
#214 = EDGE_LOOP ( 'NONE', ( #308 ) ) ;
#215 = ORIENTED_EDGE ( 'NONE', *, *, #99, .F. ) ;
#216 = DIRECTION ( 'NONE',  ( 1.000000000000000000, 0.000000000000000000, -3.451192871279423381E-15 ) ) ;
#217 = EDGE_LOOP ( 'NONE', ( #371 ) ) ;
#218 = EDGE_CURVE ( 'NONE', #381, #381, #111, .T. ) ;
#219 = AXIS2_PLACEMENT_3D ( 'NONE', #113, #324, #109 ) ;
#220 = EDGE_LOOP ( 'NONE', ( #36 ) ) ;
#221 = APPLICATION_CONTEXT ( 'configuration controlled 3d designs of mechanical parts and assemblies' ) ;
#222 = DIRECTION ( 'NONE',  ( 3.491481338843133355E-15, -0.000000000000000000, 1.000000000000000000 ) ) ;
#223 = VERTEX_POINT ( 'NONE', #130 ) ;
#224 =( LENGTH_UNIT ( ) NAMED_UNIT ( * ) SI_UNIT ( .MILLI., .METRE. ) );
#225 = PERSON_AND_ORGANIZATION ( #40, #164 ) ;
#226 = CONICAL_SURFACE ( 'NONE', #257, 0.7650000000000000133, 1.047197551196580312 ) ;
#227 = CALENDAR_DATE ( 2023, 27, 9 ) ;
#228 = MECHANICAL_CONTEXT ( 'NONE', #154, 'mechanical' ) ;
#229 = PERSON_AND_ORGANIZATION_ROLE ( 'creator' ) ;
#230 = AXIS2_PLACEMENT_3D ( 'NONE', #380, #370, #88 ) ;
#231 = EDGE_CURVE ( 'NONE', #345, #345, #251, .T. ) ;
#232 = DATE_AND_TIME ( #227, #149 ) ;
#233 = CARTESIAN_POINT ( 'NONE',  ( 3.622644012988331426E-14, 0.000000000000000000, 10.37566482938344414 ) ) ;
#234 = EDGE_CURVE ( 'NONE', #255, #255, #52, .T. ) ;
#235 = DIRECTION ( 'NONE',  ( 3.491481338843133355E-15, -0.000000000000000000, 1.000000000000000000 ) ) ;
#236 = LOCAL_TIME ( 10, 26, 53.00000000000000000, #320 ) ;
#237 = CYLINDRICAL_SURFACE ( 'NONE', #391, 0.4699999999999995848 ) ;
#238 = FACE_OUTER_BOUND ( 'NONE', #4, .T. ) ;
#239 = FACE_OUTER_BOUND ( 'NONE', #189, .T. ) ;
#240 = AXIS2_PLACEMENT_3D ( 'NONE', #63, #222, #62 ) ;
#241 = DIRECTION ( 'NONE',  ( 3.491481338843133355E-15, -0.000000000000000000, 1.000000000000000000 ) ) ;
#242 = ORIENTED_EDGE ( 'NONE', *, *, #131, .F. ) ;
#243 = DIRECTION ( 'NONE',  ( 1.000000000000000000, 0.000000000000000000, -3.507712910982514253E-15 ) ) ;
#244 = EDGE_LOOP ( 'NONE', ( #303 ) ) ;
#245 = FACE_OUTER_BOUND ( 'NONE', #220, .T. ) ;
#246 = DATE_AND_TIME ( #121, #171 ) ;
#247 = DIRECTION ( 'NONE',  ( 1.000000000000000000, 0.000000000000000000, -3.451192871279423381E-15 ) ) ;
#248 = EDGE_LOOP ( 'NONE', ( #147 ) ) ;
#249 = CYLINDRICAL_SURFACE ( 'NONE', #74, 0.5340598923241484108 ) ;
#250 = CIRCLE ( 'NONE', #76, 0.5340598923241482998 ) ;
#251 = CIRCLE ( 'NONE', #61, 0.5340598923241484108 ) ;
#252 = EDGE_CURVE ( 'NONE', #73, #73, #44, .T. ) ;
#253 = CARTESIAN_POINT ( 'NONE',  ( 0.4474573519457045179, 0.000000000000000000, -1.562288994246591662E-15 ) ) ;
#254 = ADVANCED_FACE ( 'NONE', ( #239 ), #336, .F. ) ;
#255 = VERTEX_POINT ( 'NONE', #159 ) ;
#256 = PERSON_AND_ORGANIZATION ( #40, #164 ) ;
#257 = AXIS2_PLACEMENT_3D ( 'NONE', #32, #39, #180 ) ;
#258 = DIRECTION ( 'NONE',  ( 1.000000000000000000, 0.000000000000000000, 0.000000000000000000 ) ) ;
#259 = DIRECTION ( 'NONE',  ( 3.491481338843133355E-15, -0.000000000000000000, 1.000000000000000000 ) ) ;
#260 = APPROVAL_ROLE ( '' ) ;
#261 = DATE_TIME_ROLE ( 'classification_date' ) ;
#262 = ADVANCED_FACE ( 'NONE', ( #309, #245 ), #374, .T. ) ;
#263 = SECURITY_CLASSIFICATION ( '', '', #166 ) ;
#264 = APPROVAL_DATE_TIME ( #232, #366 ) ;
#265 = DIRECTION ( 'NONE',  ( -3.491481338843133355E-15, 0.000000000000000000, -1.000000000000000000 ) ) ;
#266 = CC_DESIGN_DATE_AND_TIME_ASSIGNMENT ( #246, #375, ( #319 ) ) ;
#267 = DIRECTION ( 'NONE',  ( -1.000000000000000000, 0.000000000000000000, 4.625929269271495577E-15 ) ) ;
#268 = DIRECTION ( 'NONE',  ( 3.491481338843133355E-15, -0.000000000000000000, 1.000000000000000000 ) ) ;
#269 = AXIS2_PLACEMENT_3D ( 'NONE', #212, #338, #69 ) ;
#270 = CARTESIAN_POINT ( 'NONE',  ( 2.324914243470868561E-14, 0.000000000000000000, 6.658819045102514877 ) ) ;
#271 = EDGE_LOOP ( 'NONE', ( #64 ) ) ;
#272 = EDGE_CURVE ( 'NONE', #354, #354, #97, .T. ) ;
#273 = DIRECTION ( 'NONE',  ( 1.000000000000000000, 0.000000000000000000, 0.000000000000000000 ) ) ;
#274 = DIRECTION ( 'NONE',  ( 1.000000000000000000, 0.000000000000000000, -4.625929269271490844E-15 ) ) ;
#275 = EDGE_LOOP ( 'NONE', ( #145 ) ) ;
#276 = CIRCLE ( 'NONE', #332, 0.4474573519457045179 ) ;
#277 = DIRECTION ( 'NONE',  ( 1.000000000000000000, 0.000000000000000000, 0.000000000000000000 ) ) ;
#278 = APPROVAL ( #162, 'UNSPECIFIED' ) ;
#279 = EDGE_LOOP ( 'NONE', ( #242 ) ) ;
#280 = CARTESIAN_POINT ( 'NONE',  ( 1.571166602479406657E-15, 0.000000000000000000, 0.4499999999999990119 ) ) ;
#281 = EDGE_LOOP ( 'NONE', ( #179 ) ) ;
#282 = DIRECTION ( 'NONE',  ( 1.000000000000000000, 0.000000000000000000, -3.491481338843133750E-15 ) ) ;
#283 = EDGE_LOOP ( 'NONE', ( #141 ) ) ;
#284 = CARTESIAN_POINT ( 'NONE',  ( 1.222018468595107324E-15, 0.000000000000000000, 0.3500000000000030864 ) ) ;
#285 = CONICAL_SURFACE ( 'NONE', #2, 1.499999999999996669, 0.7853981633974389531 ) ;
#286 = UNCERTAINTY_MEASURE_WITH_UNIT (LENGTH_MEASURE( 1.000000000000000082E-05 ), #224, 'distance_accuracy_value', 'NONE');
#287 = CARTESIAN_POINT ( 'NONE',  ( 0.5340598923241499651, 0.000000000000000000, 0.4499999999999971800 ) ) ;
#288 = PERSON_AND_ORGANIZATION ( #40, #164 ) ;
#289 = AXIS2_PLACEMENT_3D ( 'NONE', #98, #71, #277 ) ;
#290 = VERTEX_POINT ( 'NONE', #253 ) ;
#291 = FACE_OUTER_BOUND ( 'NONE', #275, .T. ) ;
#292 = DATE_AND_TIME ( #351, #236 ) ;
#293 = FACE_BOUND ( 'NONE', #177, .T. ) ;
#294 = CC_DESIGN_SECURITY_CLASSIFICATION ( #263, ( #385 ) ) ;
#295 = DIRECTION ( 'NONE',  ( 3.491481338843133355E-15, -0.000000000000000000, 1.000000000000000000 ) ) ;
#296 = DIRECTION ( 'NONE',  ( 1.000000000000000000, 0.000000000000000000, -3.507712910982514253E-15 ) ) ;
#297 = EDGE_LOOP ( 'NONE', ( #186 ) ) ;
#298 = DIRECTION ( 'NONE',  ( 3.491481338843133355E-15, -0.000000000000000000, 1.000000000000000000 ) ) ;
#299 = CIRCLE ( 'NONE', #219, 0.4699999999999999734 ) ;
#300 = AXIS2_PLACEMENT_3D ( 'NONE', #192, #259, #386 ) ;
#301 = DIRECTION ( 'NONE',  ( -3.491481338843133355E-15, 0.000000000000000000, -1.000000000000000000 ) ) ;
#302 = ORIENTED_EDGE ( 'NONE', *, *, #196, .F. ) ;
#303 = ORIENTED_EDGE ( 'NONE', *, *, #99, .T. ) ;
#304 = ORIENTED_EDGE ( 'NONE', *, *, #51, .F. ) ;
#305 = APPROVAL ( #24, 'UNSPECIFIED' ) ;
#306 = CARTESIAN_POINT ( 'NONE',  ( 2.153080158953270565E-15, 0.000000000000000000, 0.6166666666666681396 ) ) ;
#307 = ORIENTED_EDGE ( 'NONE', *, *, #89, .F. ) ;
#308 = ORIENTED_EDGE ( 'NONE', *, *, #272, .F. ) ;
#309 = FACE_OUTER_BOUND ( 'NONE', #13, .T. ) ;
#310 = FACE_OUTER_BOUND ( 'NONE', #123, .T. ) ;
#311 = ADVANCED_FACE ( 'NONE', ( #312, #365 ), #158, .T. ) ;
#312 = FACE_BOUND ( 'NONE', #248, .T. ) ;
#313 = FACE_OUTER_BOUND ( 'NONE', #279, .T. ) ;
#314 = VERTEX_POINT ( 'NONE', #15 ) ;
#315 = LOCAL_TIME ( 10, 26, 53.00000000000000000, #317 ) ;
#316 = VERTEX_POINT ( 'NONE', #47 ) ;
#317 = COORDINATED_UNIVERSAL_TIME_OFFSET ( 1, 0, .AHEAD. ) ;
#318 = VERTEX_POINT ( 'NONE', #287 ) ;
#319 = PRODUCT_DEFINITION ( 'UNKNOWN', '', #385, #155 ) ;
#320 = COORDINATED_UNIVERSAL_TIME_OFFSET ( 1, 0, .AHEAD. ) ;
#321 = CARTESIAN_POINT ( 'NONE',  ( 0.5340598923241496321, 0.000000000000000000, 0.3500000000000012546 ) ) ;
#322 = PERSON_AND_ORGANIZATION_ROLE ( 'design_owner' ) ;
#323 = COORDINATED_UNIVERSAL_TIME_OFFSET ( 1, 0, .AHEAD. ) ;
#324 = DIRECTION ( 'NONE',  ( 3.491481338843133355E-15, -0.000000000000000000, 1.000000000000000000 ) ) ;
#325 = CARTESIAN_POINT ( 'NONE',  ( 1.326762908760390423E-13, 0.000000000000000000, 38.00000000000000000 ) ) ;
#326 = AXIS2_PLACEMENT_3D ( 'NONE', #17, #133, #258 ) ;
#327 = CARTESIAN_POINT ( 'NONE',  ( 1.326762908760390423E-13, 0.000000000000000000, 38.00000000000000000 ) ) ;
#328 = CARTESIAN_POINT ( 'NONE',  ( 2.324914243470868561E-14, 0.000000000000000000, 6.658819045102514877 ) ) ;
#329 = EDGE_LOOP ( 'NONE', ( #367 ) ) ;
#330 = FACE_OUTER_BOUND ( 'NONE', #329, .T. ) ;
#331 = EDGE_LOOP ( 'NONE', ( #182 ) ) ;
#332 = AXIS2_PLACEMENT_3D ( 'NONE', #23, #136, #282 ) ;
#333 = FACE_BOUND ( 'NONE', #93, .T. ) ;
#334 = EDGE_CURVE ( 'NONE', #318, #318, #78, .T. ) ;
#335 = FACE_OUTER_BOUND ( 'NONE', #341, .T. ) ;
#336 = PLANE ( 'NONE',  #35 ) ;
#337 = ORIENTED_EDGE ( 'NONE', *, *, #160, .F. ) ;
#338 = DIRECTION ( 'NONE',  ( 3.491481338843133355E-15, -0.000000000000000000, 1.000000000000000000 ) ) ;
#339 = APPROVAL_STATUS ( 'not_yet_approved' ) ;
#340 = ORIENTED_EDGE ( 'NONE', *, *, #234, .T. ) ;
#341 = EDGE_LOOP ( 'NONE', ( #127 ) ) ;
#342 = FACE_OUTER_BOUND ( 'NONE', #67, .T. ) ;
#343 = CC_DESIGN_PERSON_AND_ORGANIZATION_ASSIGNMENT ( #11, #66, ( #319 ) ) ;
#344 = EDGE_LOOP ( 'NONE', ( #31 ) ) ;
#345 = VERTEX_POINT ( 'NONE', #321 ) ;
#346 = EDGE_LOOP ( 'NONE', ( #150 ) ) ;
#347 = CONICAL_SURFACE ( 'NONE', #170, 0.5040741737109291076, 0.2617993877991427465 ) ;
#348 = LOCAL_TIME ( 10, 26, 53.00000000000000000, #390 ) ;
#349 = APPROVAL_ROLE ( '' ) ;
#350 = CC_DESIGN_PERSON_AND_ORGANIZATION_ASSIGNMENT ( #288, #19, ( #263 ) ) ;
#351 = CALENDAR_DATE ( 2023, 27, 9 ) ;
#352 = PERSON_AND_ORGANIZATION ( #40, #164 ) ;
#353 = FACE_OUTER_BOUND ( 'NONE', #244, .T. ) ;
#354 = VERTEX_POINT ( 'NONE', #103 ) ;
#355 = DATE_AND_TIME ( #75, #315 ) ;
#356 = PRODUCT_RELATED_PRODUCT_CATEGORY ( 'detail', '', ( #30 ) ) ;
#357 = CC_DESIGN_APPROVAL ( #305, ( #319 ) ) ;
#358 = CARTESIAN_POINT ( 'NONE',  ( 2.793185071074506684E-15, 0.5340598923241482998, 0.8000000000000000444 ) ) ;
#359 = PERSON_AND_ORGANIZATION ( #40, #164 ) ;
#360 = FACE_OUTER_BOUND ( 'NONE', #214, .T. ) ;
#361 = MANIFOLD_SOLID_BREP ( 'Corps-Déplacer/Copier1', #163 ) ;
#362 = FACE_OUTER_BOUND ( 'NONE', #344, .T. ) ;
#363 = CARTESIAN_POINT ( 'NONE',  ( 0.000000000000000000, 0.000000000000000000, 0.000000000000000000 ) ) ;
#364 = ADVANCED_BREP_SHAPE_REPRESENTATION ( '961157', ( #361, #326 ), #22 ) ;
#365 = FACE_OUTER_BOUND ( 'NONE', #129, .T. ) ;
#366 = APPROVAL ( #339, 'UNSPECIFIED' ) ;
#367 = ORIENTED_EDGE ( 'NONE', *, *, #272, .T. ) ;
#368 = CC_DESIGN_APPROVAL ( #278, ( #263 ) ) ;
#369 = EDGE_CURVE ( 'NONE', #316, #316, #7, .T. ) ;
#370 = DIRECTION ( 'NONE',  ( -3.491481338843133355E-15, 0.000000000000000000, -1.000000000000000000 ) ) ;
#371 = ORIENTED_EDGE ( 'NONE', *, *, #85, .F. ) ;
#372 = DIRECTION ( 'NONE',  ( 1.000000000000000000, 0.000000000000000000, -3.491481338843133355E-15 ) ) ;
#373 = EDGE_LOOP ( 'NONE', ( #215 ) ) ;
#374 = CYLINDRICAL_SURFACE ( 'NONE', #18, 1.499999999999998224 ) ;
#375 = DATE_TIME_ROLE ( 'creation_date' ) ;
#376 = FACE_BOUND ( 'NONE', #38, .T. ) ;
#377 = CIRCLE ( 'NONE', #200, 0.5040741737109291076 ) ;
#378 = APPROVAL_PERSON_ORGANIZATION ( #359, #305, #138 ) ;
#379 = CARTESIAN_POINT ( 'NONE',  ( 1.326762908760390423E-13, 0.000000000000000000, 38.00000000000000000 ) ) ;
#380 = CARTESIAN_POINT ( 'NONE',  ( 1.326762908760390423E-13, 1.200000000000000622, 38.00000000000000000 ) ) ;
#381 = VERTEX_POINT ( 'NONE', #100 ) ;
#382 = VERTEX_POINT ( 'NONE', #128 ) ;
#383 = ADVANCED_FACE ( 'NONE', ( #333, #310 ), #226, .T. ) ;
#384 = CARTESIAN_POINT ( 'NONE',  ( 0.7650000000000006795, 0.000000000000000000, 0.1833333333333312665 ) ) ;
#385 = PRODUCT_DEFINITION_FORMATION_WITH_SPECIFIED_SOURCE ( 'ANY', '', #30, .NOT_KNOWN. ) ;
#386 = DIRECTION ( 'NONE',  ( 1.000000000000000000, 0.000000000000000000, 0.000000000000000000 ) ) ;
#387 = APPROVAL_DATE_TIME ( #355, #278 ) ;
#388 = ADVANCED_FACE ( 'NONE', ( #146, #335 ), #249, .T. ) ;
#389 =( NAMED_UNIT ( * ) PLANE_ANGLE_UNIT ( ) SI_UNIT ( $, .RADIAN. ) );
#390 = COORDINATED_UNIVERSAL_TIME_OFFSET ( 1, 0, .AHEAD. ) ;
#391 = AXIS2_PLACEMENT_3D ( 'NONE', #82, #114, #139 ) ;
#392 = AXIS2_PLACEMENT_3D ( 'NONE', #181, #241, #187 ) ;
#393 = FACE_OUTER_BOUND ( 'NONE', #283, .T. ) ;
#394 = DIRECTION ( 'NONE',  ( 3.491481338843133355E-15, -0.000000000000000000, 1.000000000000000000 ) ) ;
#395 = ADVANCED_FACE ( 'NONE', ( #342, #291 ), #197, .T. ) ;
ENDSEC;
END-ISO-10303-21;
