ISO-10303-21;
HEADER;
FILE_DESCRIPTION (( 'STEP AP203' ),
    '1' );
FILE_NAME ('961156.step',
    '2023-09-27T08:26:53',
    ( '' ),
    ( '' ),
    'SwSTEP 2.0',
    'SolidWorks 2022',
    '' );
FILE_SCHEMA (( 'CONFIG_CONTROL_DESIGN' ));
ENDSEC;

DATA;
#1 = DATE_AND_TIME ( #217, #52 ) ;
#2 = CARTESIAN_POINT ( 'NONE',  ( 0.6950000000000005063, 0.000000000000000000, 0.1604166666666673735 ) ) ;
#3 = CARTESIAN_POINT ( 'NONE',  ( 0.4171501829524913441, 0.000000000000000000, -1.456472079273622597E-15 ) ) ;
#4 = FACE_OUTER_BOUND ( 'NONE', #125, .T. ) ;
#5 = ORIENTED_EDGE ( 'NONE', *, *, #324, .F. ) ;
#6 = SECURITY_CLASSIFICATION_LEVEL ( 'unclassified' ) ;
#7 = EDGE_CURVE ( 'NONE', #381, #381, #235, .T. ) ;
#8 = APPROVAL_ROLE ( '' ) ;
#9 = CARTESIAN_POINT ( 'NONE',  ( -9.847759929053490004E-33, 0.000000000000000000, -2.820510543618269569E-18 ) ) ;
#10 = EDGE_LOOP ( 'NONE', ( #219 ) ) ;
#11 = CARTESIAN_POINT ( 'NONE',  ( 5.600917981060968883E-16, 0.000000000000000000, 0.1604166666666698160 ) ) ;
#12 = EDGE_LOOP ( 'NONE', ( #108 ) ) ;
#13 = VERTEX_POINT ( 'NONE', #137 ) ;
#14 = DIRECTION ( 'NONE',  ( 1.000000000000000000, 0.000000000000000000, -4.625929269271490844E-15 ) ) ;
#15 = EDGE_LOOP ( 'NONE', ( #357 ) ) ;
#16 = DIRECTION ( 'NONE',  ( 3.491481338843133355E-15, -0.000000000000000000, 1.000000000000000000 ) ) ;
#17 = DIRECTION ( 'NONE',  ( 3.491481338843133355E-15, -0.000000000000000000, 1.000000000000000000 ) ) ;
#18 = EDGE_CURVE ( 'NONE', #13, #13, #169, .T. ) ;
#19 = DIRECTION ( 'NONE',  ( 1.000000000000000000, 0.000000000000000000, -3.820352656923314831E-15 ) ) ;
#20 = ORIENTED_EDGE ( 'NONE', *, *, #203, .F. ) ;
#21 = CIRCLE ( 'NONE', #237, 1.200000000000000622 ) ;
#22 = AXIS2_PLACEMENT_3D ( 'NONE', #384, #346, #221 ) ;
#23 = AXIS2_PLACEMENT_3D ( 'NONE', #66, #318, #19 ) ;
#24 = CC_DESIGN_PERSON_AND_ORGANIZATION_ASSIGNMENT ( #59, #239, ( #267 ) ) ;
#25 = APPROVAL_PERSON_ORGANIZATION ( #27, #170, #8 ) ;
#26 = VERTEX_POINT ( 'NONE', #152 ) ;
#27 = PERSON_AND_ORGANIZATION ( #248, #390 ) ;
#28 = EDGE_LOOP ( 'NONE', ( #270 ) ) ;
#29 = ORIENTED_EDGE ( 'NONE', *, *, #269, .T. ) ;
#30 = DIRECTION ( 'NONE',  ( 1.000000000000000000, 0.000000000000000000, -3.491481338843133355E-15 ) ) ;
#31 = DIRECTION ( 'NONE',  ( 3.491481338843133355E-15, -0.000000000000000000, 1.000000000000000000 ) ) ;
#32 = CIRCLE ( 'NONE', #22, 1.499999999999996669 ) ;
#33 = VERTEX_POINT ( 'NONE', #291 ) ;
#34 = ADVANCED_FACE ( 'NONE', ( #156, #273 ), #275, .T. ) ;
#35 = FACE_BOUND ( 'NONE', #87, .T. ) ;
#36 = EDGE_LOOP ( 'NONE', ( #230 ) ) ;
#37 = APPROVAL_DATE_TIME ( #192, #112 ) ;
#38 = CALENDAR_DATE ( 2023, 27, 9 ) ;
#39 = FACE_BOUND ( 'NONE', #272, .T. ) ;
#40 = ORIENTED_EDGE ( 'NONE', *, *, #370, .T. ) ;
#41 = CARTESIAN_POINT ( 'NONE',  ( 0.6950000000000017275, 0.000000000000000000, 0.5395833333333339699 ) ) ;
#42 = CARTESIAN_POINT ( 'NONE',  ( 1.326762908760390423E-13, 1.200000000000000622, 38.00000000000000000 ) ) ;
#43 = CIRCLE ( 'NONE', #146, 0.4171501829524913441 ) ;
#44 = CARTESIAN_POINT ( 'NONE',  ( 2.115425363140279297E-14, 0.000000000000000000, 6.058819045102511680 ) ) ;
#45 = ORIENTED_EDGE ( 'NONE', *, *, #185, .T. ) ;
#46 = EDGE_CURVE ( 'NONE', #255, #255, #320, .T. ) ;
#47 = DIRECTION ( 'NONE',  ( 1.000000000000000000, 0.000000000000000000, -4.130293990420975208E-15 ) ) ;
#48 = DIRECTION ( 'NONE',  ( 1.000000000000000000, 0.000000000000000000, 0.000000000000000000 ) ) ;
#49 = ORIENTED_EDGE ( 'NONE', *, *, #210, .F. ) ;
#50 = FACE_OUTER_BOUND ( 'NONE', #287, .T. ) ;
#51 = EDGE_LOOP ( 'NONE', ( #70 ) ) ;
#52 = LOCAL_TIME ( 10, 26, 53.00000000000000000, #308 ) ;
#53 = ADVANCED_FACE ( 'NONE', ( #212, #88 ), #245, .T. ) ;
#54 = DIRECTION ( 'NONE',  ( 3.491481338843133355E-15, -0.000000000000000000, 1.000000000000000000 ) ) ;
#55 = FACE_BOUND ( 'NONE', #244, .T. ) ;
#56 = CC_DESIGN_PERSON_AND_ORGANIZATION_ASSIGNMENT ( #343, #367, ( #349 ) ) ;
#57 = DIRECTION ( 'NONE',  ( 1.000000000000000000, 0.000000000000000000, -3.519227082168490994E-15 ) ) ;
#58 = VERTEX_POINT ( 'NONE', #117 ) ;
#59 = PERSON_AND_ORGANIZATION ( #248, #390 ) ;
#60 = AXIS2_PLACEMENT_3D ( 'NONE', #356, #309, #251 ) ;
#61 = COORDINATED_UNIVERSAL_TIME_OFFSET ( 1, 0, .AHEAD. ) ;
#62 = FACE_OUTER_BOUND ( 'NONE', #28, .T. ) ;
#63 = FACE_BOUND ( 'NONE', #298, .T. ) ;
#64 = CARTESIAN_POINT ( 'NONE',  ( 0.4929274057836321443, 0.000000000000000000, 0.6999999999999975131 ) ) ;
#65 = SHAPE_DEFINITION_REPRESENTATION ( #260, #150 ) ;
#66 = CARTESIAN_POINT ( 'NONE',  ( 2.115425363140279297E-14, 0.000000000000000000, 6.058819045102511680 ) ) ;
#67 = APPROVAL_STATUS ( 'not_yet_approved' ) ;
#68 = APPLICATION_CONTEXT ( 'configuration controlled 3d designs of mechanical parts and assemblies' ) ;
#69 = FACE_OUTER_BOUND ( 'NONE', #361, .T. ) ;
#70 = ORIENTED_EDGE ( 'NONE', *, *, #46, .T. ) ;
#71 = PERSON_AND_ORGANIZATION ( #248, #390 ) ;
#72 = CARTESIAN_POINT ( 'NONE',  ( 2.291284628615796404E-15, 0.000000000000000000, 0.6562499999999971134 ) ) ;
#73 = ORIENTED_EDGE ( 'NONE', *, *, #387, .F. ) ;
#74 = DIRECTION ( 'NONE',  ( 3.491481338843133355E-15, -0.000000000000000000, 1.000000000000000000 ) ) ;
#75 = FACE_OUTER_BOUND ( 'NONE', #259, .T. ) ;
#76 = CIRCLE ( 'NONE', #141, 0.6949999999999999512 ) ;
#77 = ADVANCED_FACE ( 'NONE', ( #62, #177 ), #292, .T. ) ;
#78 = LOCAL_TIME ( 10, 26, 53.00000000000000000, #193 ) ;
#79 = DIRECTION ( 'NONE',  ( 1.000000000000000000, 0.000000000000000000, -3.820352656923314831E-15 ) ) ;
#80 = AXIS2_PLACEMENT_3D ( 'NONE', #213, #328, #57 ) ;
#81 = ADVANCED_FACE ( 'NONE', ( #214, #274 ), #172, .F. ) ;
#82 = DIRECTION ( 'NONE',  ( 1.000000000000000000, 0.000000000000000000, -3.519227082168491783E-15 ) ) ;
#83 = AXIS2_PLACEMENT_3D ( 'NONE', #202, #306, #286 ) ;
#84 = EDGE_CURVE ( 'NONE', #58, #58, #392, .T. ) ;
#85 = CARTESIAN_POINT ( 'NONE',  ( 0.4929274057836312006, 0.000000000000000000, 0.3937499999999965472 ) ) ;
#86 = CARTESIAN_POINT ( 'NONE',  ( 1.200000000000133182, 0.000000000000000000, 37.99999999999999289 ) ) ;
#87 = EDGE_LOOP ( 'NONE', ( #20 ) ) ;
#88 = FACE_BOUND ( 'NONE', #98, .T. ) ;
#89 = LOCAL_TIME ( 10, 26, 53.00000000000000000, #178 ) ;
#90 = EDGE_LOOP ( 'NONE', ( #194 ) ) ;
#91 = CALENDAR_DATE ( 2023, 27, 9 ) ;
#92 = APPLICATION_PROTOCOL_DEFINITION ( 'international standard', 'config_control_design', 1994, #68 ) ;
#93 = AXIS2_PLACEMENT_3D ( 'NONE', #256, #279, #315 ) ;
#94 = DIRECTION ( 'NONE',  ( -1.000000000000000000, 0.000000000000000000, 3.491481338843133355E-15 ) ) ;
#95 = PERSON_AND_ORGANIZATION_ROLE ( 'creator' ) ;
#96 = CC_DESIGN_PERSON_AND_ORGANIZATION_ASSIGNMENT ( #215, #95, ( #242 ) ) ;
#97 = FACE_OUTER_BOUND ( 'NONE', #191, .T. ) ;
#98 = EDGE_LOOP ( 'NONE', ( #337 ) ) ;
#99 = APPROVAL_DATE_TIME ( #119, #170 ) ;
#100 = APPROVAL_PERSON_ORGANIZATION ( #161, #293, #132 ) ;
#101 = DIRECTION ( 'NONE',  ( 1.000000000000000000, 0.000000000000000000, -3.510007033226453485E-15 ) ) ;
#102 = EDGE_LOOP ( 'NONE', ( #49 ) ) ;
#103 = DIRECTION ( 'NONE',  ( 1.000000000000000000, 0.000000000000000000, -3.519227082168490994E-15 ) ) ;
#104 = AXIS2_PLACEMENT_3D ( 'NONE', #365, #31, #374 ) ;
#105 = PLANE ( 'NONE',  #391 ) ;
#106 = ORIENTED_EDGE ( 'NONE', *, *, #262, .T. ) ;
#107 = EDGE_CURVE ( 'NONE', #124, #124, #323, .T. ) ;
#108 = ORIENTED_EDGE ( 'NONE', *, *, #210, .T. ) ;
#109 = AXIS2_PLACEMENT_3D ( 'NONE', #44, #354, #79 ) ;
#110 = CARTESIAN_POINT ( 'NONE',  ( 2.025059176529017031E-14, 0.000000000000000000, 5.799999999999999822 ) ) ;
#111 = CIRCLE ( 'NONE', #280, 0.4929274057836297573 ) ;
#112 = APPROVAL ( #243, 'UNSPECIFIED' ) ;
#113 = ORIENTED_EDGE ( 'NONE', *, *, #84, .T. ) ;
#114 = AXIS2_PLACEMENT_3D ( 'NONE', #305, #240, #188 ) ;
#115 = VERTEX_POINT ( 'NONE', #41 ) ;
#116 = EDGE_CURVE ( 'NONE', #296, #296, #366, .T. ) ;
#117 = CARTESIAN_POINT ( 'NONE',  ( 0.4200000000000024269, 0.000000000000000000, 0.6999999999999977351 ) ) ;
#118 = COORDINATED_UNIVERSAL_TIME_OFFSET ( 1, 0, .AHEAD. ) ;
#119 = DATE_AND_TIME ( #38, #78 ) ;
#120 = EDGE_LOOP ( 'NONE', ( #40 ) ) ;
#121 = DIRECTION ( 'NONE',  ( 3.491481338843133355E-15, -0.000000000000000000, 1.000000000000000000 ) ) ;
#122 = CALENDAR_DATE ( 2023, 27, 9 ) ;
#123 = FACE_OUTER_BOUND ( 'NONE', #36, .T. ) ;
#124 = VERTEX_POINT ( 'NONE', #85 ) ;
#125 = EDGE_LOOP ( 'NONE', ( #113 ) ) ;
#126 = DATE_TIME_ROLE ( 'creation_date' ) ;
#127 = EDGE_LOOP ( 'NONE', ( #5 ) ) ;
#128 = ADVANCED_FACE ( 'NONE', ( #123, #63 ), #163, .T. ) ;
#129 =( LENGTH_UNIT ( ) NAMED_UNIT ( * ) SI_UNIT ( .MILLI., .METRE. ) );
#130 = FACE_OUTER_BOUND ( 'NONE', #120, .T. ) ;
#131 = EDGE_LOOP ( 'NONE', ( #284 ) ) ;
#132 = APPROVAL_ROLE ( '' ) ;
#133 = FACE_OUTER_BOUND ( 'NONE', #316, .T. ) ;
#134 = AXIS2_PLACEMENT_3D ( 'NONE', #11, #165, #101 ) ;
#135 = ADVANCED_FACE ( 'NONE', ( #97 ), #375, .F. ) ;
#136 = DIRECTION ( 'NONE',  ( 3.491481338843133355E-15, -0.000000000000000000, 1.000000000000000000 ) ) ;
#137 = CARTESIAN_POINT ( 'NONE',  ( 0.4929274057836307565, 0.000000000000000000, 0.3062499999999992450 ) ) ;
#138 = CYLINDRICAL_SURFACE ( 'NONE', #204, 0.6949999999999999512 ) ;
#139 = DIRECTION ( 'NONE',  ( 3.491481338843133355E-15, -0.000000000000000000, 1.000000000000000000 ) ) ;
#140 = CONICAL_SURFACE ( 'NONE', #325, 0.6949999999999999512, 1.047197551196596743 ) ;
#141 = AXIS2_PLACEMENT_3D ( 'NONE', #252, #139, #227 ) ;
#142 = CARTESIAN_POINT ( 'NONE',  ( 1.883945139084117760E-15, 0.000000000000000000, 0.5395833333333364124 ) ) ;
#143 = EDGE_LOOP ( 'NONE', ( #394 ) ) ;
#144 = CARTESIAN_POINT ( 'NONE',  ( 1.326762908760390423E-13, 0.000000000000000000, 38.00000000000000000 ) ) ;
#145 = DIRECTION ( 'NONE',  ( -3.491481338843133355E-15, 0.000000000000000000, -1.000000000000000000 ) ) ;
#146 = AXIS2_PLACEMENT_3D ( 'NONE', #234, #386, #233 ) ;
#147 = FACE_OUTER_BOUND ( 'NONE', #12, .T. ) ;
#148 = AXIS2_PLACEMENT_3D ( 'NONE', #246, #352, #167 ) ;
#149 = VERTEX_POINT ( 'NONE', #389 ) ;
#150 = ADVANCED_BREP_SHAPE_REPRESENTATION ( '961156', ( #329, #114 ), #288 ) ;
#151 = DIRECTION ( 'NONE',  ( 3.491481338843133355E-15, -0.000000000000000000, 1.000000000000000000 ) ) ;
#152 = CARTESIAN_POINT ( 'NONE',  ( 0.6950000000000006173, 0.000000000000000000, 0.1895833333333308279 ) ) ;
#153 = DATE_AND_TIME ( #297, #266 ) ;
#154 = AXIS2_PLACEMENT_3D ( 'NONE', #338, #331, #300 ) ;
#155 = ADVANCED_FACE ( 'NONE', ( #382, #311 ), #254, .T. ) ;
#156 = FACE_OUTER_BOUND ( 'NONE', #15, .T. ) ;
#157 = CARTESIAN_POINT ( 'NONE',  ( 2.025059176529017031E-14, 0.000000000000000000, 5.799999999999999822 ) ) ;
#158 = VERTEX_POINT ( 'NONE', #2 ) ;
#159 = DIRECTION ( 'NONE',  ( 3.491481338843133355E-15, -0.000000000000000000, 1.000000000000000000 ) ) ;
#160 = CARTESIAN_POINT ( 'NONE',  ( 1.883945139084117760E-15, 0.000000000000000000, 0.5395833333333364124 ) ) ;
#161 = PERSON_AND_ORGANIZATION ( #248, #390 ) ;
#162 = FACE_OUTER_BOUND ( 'NONE', #102, .T. ) ;
#163 = CONICAL_SURFACE ( 'NONE', #388, 0.4171501829524913441, 1.047197551196591192 ) ;
#164 =( NAMED_UNIT ( * ) PLANE_ANGLE_UNIT ( ) SI_UNIT ( $, .RADIAN. ) );
#165 = DIRECTION ( 'NONE',  ( 3.491481338843133355E-15, -0.000000000000000000, 1.000000000000000000 ) ) ;
#166 = EDGE_LOOP ( 'NONE', ( #182 ) ) ;
#167 = DIRECTION ( 'NONE',  ( 1.000000000000000000, 0.000000000000000000, 0.000000000000000000 ) ) ;
#168 = CARTESIAN_POINT ( 'NONE',  ( 1.326762908760390423E-13, 0.000000000000000000, 38.00000000000000000 ) ) ;
#169 = CIRCLE ( 'NONE', #351, 0.4929274057836296463 ) ;
#170 = APPROVAL ( #67, 'UNSPECIFIED' ) ;
#171 = AXIS2_PLACEMENT_3D ( 'NONE', #265, #211, #208 ) ;
#172 = TOROIDAL_SURFACE ( 'NONE', #310, 1.419999999999999485, 1.000000000000000000 ) ;
#173 = CARTESIAN_POINT ( 'NONE',  ( 6.619266704890104357E-16, 0.000000000000000000, 0.1895833333333332704 ) ) ;
#174 = CONICAL_SURFACE ( 'NONE', #257, 0.6949999999999998401, 1.047197551196622056 ) ;
#175 = DIRECTION ( 'NONE',  ( 1.000000000000000000, 0.000000000000000000, -3.432006876932533006E-15 ) ) ;
#176 = AXIS2_PLACEMENT_3D ( 'NONE', #285, #17, #175 ) ;
#177 = FACE_OUTER_BOUND ( 'NONE', #51, .T. ) ;
#178 = COORDINATED_UNIVERSAL_TIME_OFFSET ( 1, 0, .AHEAD. ) ;
#179 = CC_DESIGN_SECURITY_CLASSIFICATION ( #267, ( #242 ) ) ;
#180 = EDGE_LOOP ( 'NONE', ( #333 ) ) ;
#181 = MECHANICAL_CONTEXT ( 'NONE', #68, 'mechanical' ) ;
#182 = ORIENTED_EDGE ( 'NONE', *, *, #18, .T. ) ;
#183 = DIRECTION ( 'NONE',  ( 1.000000000000000000, 0.000000000000000000, 0.000000000000000000 ) ) ;
#184 = CARTESIAN_POINT ( 'NONE',  ( 0.4929274057836320333, 0.000000000000000000, 0.6562499999999953371 ) ) ;
#185 = EDGE_CURVE ( 'NONE', #332, #332, #32, .T. ) ;
#186 = CARTESIAN_POINT ( 'NONE',  ( 0.000000000000000000, 0.000000000000000000, 0.000000000000000000 ) ) ;
#187 = PERSON_AND_ORGANIZATION ( #248, #390 ) ;
#188 = DIRECTION ( 'NONE',  ( 1.000000000000000000, 0.000000000000000000, 0.000000000000000000 ) ) ;
#189 = DIRECTION ( 'NONE',  ( 3.491481338843133355E-15, -0.000000000000000000, 1.000000000000000000 ) ) ;
#190 = CIRCLE ( 'NONE', #207, 0.6949999999999998401 ) ;
#191 = EDGE_LOOP ( 'NONE', ( #368 ) ) ;
#192 = DATE_AND_TIME ( #122, #89 ) ;
#193 = COORDINATED_UNIVERSAL_TIME_OFFSET ( 1, 0, .AHEAD. ) ;
#194 = ORIENTED_EDGE ( 'NONE', *, *, #7, .T. ) ;
#195 = ADVANCED_FACE ( 'NONE', ( #350 ), #105, .F. ) ;
#196 = DIRECTION ( 'NONE',  ( 1.000000000000000000, 0.000000000000000000, -3.491481338843133355E-15 ) ) ;
#197 = PERSON_AND_ORGANIZATION_ROLE ( 'creator' ) ;
#198 = DIRECTION ( 'NONE',  ( -1.000000000000000000, 0.000000000000000000, 3.432006876932533006E-15 ) ) ;
#199 = CARTESIAN_POINT ( 'NONE',  ( 0.4200000000000196354, 0.000000000000000000, 5.799999999999998046 ) ) ;
#200 = FACE_OUTER_BOUND ( 'NONE', #10, .T. ) ;
#201 = LOCAL_TIME ( 10, 26, 53.00000000000000000, #118 ) ;
#202 = CARTESIAN_POINT ( 'NONE',  ( 2.444036937190192954E-15, 0.4929274057836296463, 0.6999999999999998446 ) ) ;
#203 = EDGE_CURVE ( 'NONE', #271, #271, #111, .T. ) ;
#204 = AXIS2_PLACEMENT_3D ( 'NONE', #168, #341, #48 ) ;
#205 = CLOSED_SHELL ( 'NONE', ( #195, #128, #231, #327, #34, #53, #77, #312, #258, #290, #319, #81, #302, #155, #339, #135 ) ) ;
#206 = ORIENTED_EDGE ( 'NONE', *, *, #395, .F. ) ;
#207 = AXIS2_PLACEMENT_3D ( 'NONE', #142, #54, #261 ) ;
#208 = DIRECTION ( 'NONE',  ( -1.000000000000000000, 0.000000000000000000, 4.625929269271495577E-15 ) ) ;
#209 = CYLINDRICAL_SURFACE ( 'NONE', #321, 0.4199999999999997069 ) ;
#210 = EDGE_CURVE ( 'NONE', #26, #26, #76, .T. ) ;
#211 = DIRECTION ( 'NONE',  ( -3.491481338843133355E-15, 0.000000000000000000, -1.000000000000000000 ) ) ;
#212 = FACE_OUTER_BOUND ( 'NONE', #358, .T. ) ;
#213 = CARTESIAN_POINT ( 'NONE',  ( 1.374770777169477842E-15, 0.000000000000000000, 0.3937499999999982681 ) ) ;
#214 = FACE_OUTER_BOUND ( 'NONE', #336, .T. ) ;
#215 = PERSON_AND_ORGANIZATION ( #248, #390 ) ;
#216 = ORIENTED_EDGE ( 'NONE', *, *, #116, .T. ) ;
#217 = CALENDAR_DATE ( 2023, 27, 9 ) ;
#218 = ORIENTED_EDGE ( 'NONE', *, *, #18, .F. ) ;
#219 = ORIENTED_EDGE ( 'NONE', *, *, #203, .T. ) ;
#220 = DATE_AND_TIME ( #91, #201 ) ;
#221 = DIRECTION ( 'NONE',  ( 1.000000000000000000, 0.000000000000000000, -4.625929269271495577E-15 ) ) ;
#222 = AXIS2_PLACEMENT_3D ( 'NONE', #42, #224, #94 ) ;
#223 = APPROVAL_ROLE ( '' ) ;
#224 = DIRECTION ( 'NONE',  ( -3.491481338843133355E-15, 0.000000000000000000, -1.000000000000000000 ) ) ;
#225 = CC_DESIGN_APPROVAL ( #170, ( #236 ) ) ;
#226 = PLANE ( 'NONE',  #83 ) ;
#227 = DIRECTION ( 'NONE',  ( 1.000000000000000000, 0.000000000000000000, -3.510007033226453485E-15 ) ) ;
#228 = DIRECTION ( 'NONE',  ( 3.491481338843133355E-15, -0.000000000000000000, 1.000000000000000000 ) ) ;
#229 = EDGE_LOOP ( 'NONE', ( #360 ) ) ;
#230 = ORIENTED_EDGE ( 'NONE', *, *, #269, .F. ) ;
#231 = ADVANCED_FACE ( 'NONE', ( #162, #75 ), #138, .T. ) ;
#232 = DIRECTION ( 'NONE',  ( 1.000000000000000000, 0.000000000000000000, 0.000000000000000000 ) ) ;
#233 = DIRECTION ( 'NONE',  ( 1.000000000000000000, 0.000000000000000000, -3.491481338843133750E-15 ) ) ;
#234 = CARTESIAN_POINT ( 'NONE',  ( 0.000000000000000000, 0.000000000000000000, 0.000000000000000000 ) ) ;
#235 = CIRCLE ( 'NONE', #340, 0.4199999999999993738 ) ;
#236 = PRODUCT_DEFINITION ( 'UNKNOWN', '', #242, #307 ) ;
#237 = AXIS2_PLACEMENT_3D ( 'NONE', #363, #16, #282 ) ;
#238 = DIRECTION ( 'NONE',  ( 3.491481338843133355E-15, -0.000000000000000000, 1.000000000000000000 ) ) ;
#239 = PERSON_AND_ORGANIZATION_ROLE ( 'classification_officer' ) ;
#240 = DIRECTION ( 'NONE',  ( 0.000000000000000000, 0.000000000000000000, 1.000000000000000000 ) ) ;
#241 = DIRECTION ( 'NONE',  ( 1.000000000000000000, 0.000000000000000000, -3.519227082168491783E-15 ) ) ;
#242 = PRODUCT_DEFINITION_FORMATION_WITH_SPECIFIED_SOURCE ( 'ANY', '', #349, .NOT_KNOWN. ) ;
#243 = APPROVAL_STATUS ( 'not_yet_approved' ) ;
#244 = EDGE_LOOP ( 'NONE', ( #206 ) ) ;
#245 = CONICAL_SURFACE ( 'NONE', #80, 0.4929274057836297573, 1.047197551196596299 ) ;
#246 = CARTESIAN_POINT ( 'NONE',  ( 1.326762908760390423E-13, 0.000000000000000000, 38.00000000000000000 ) ) ;
#247 = DIRECTION ( 'NONE',  ( -3.491481338843133355E-15, 0.000000000000000000, -1.000000000000000000 ) ) ;
#248 = PERSON ( 'UNSPECIFIED', 'UNSPECIFIED', 'UNSPECIFIED', ('UNSPECIFIED'), ('UNSPECIFIED'), ('UNSPECIFIED') ) ;
#249 = CC_DESIGN_APPROVAL ( #293, ( #267 ) ) ;
#250 = DIRECTION ( 'NONE',  ( 1.000000000000000000, 0.000000000000000000, -3.491481338843133750E-15 ) ) ;
#251 = DIRECTION ( 'NONE',  ( 1.000000000000000000, 0.000000000000000000, -3.469446951953614189E-15 ) ) ;
#252 = CARTESIAN_POINT ( 'NONE',  ( 6.619266704890104357E-16, 0.000000000000000000, 0.1895833333333332704 ) ) ;
#253 = CC_DESIGN_PERSON_AND_ORGANIZATION_ASSIGNMENT ( #71, #197, ( #236 ) ) ;
#254 = CYLINDRICAL_SURFACE ( 'NONE', #345, 1.499999999999998224 ) ;
#255 = VERTEX_POINT ( 'NONE', #326 ) ;
#256 = CARTESIAN_POINT ( 'NONE',  ( 1.326762908760390423E-13, 0.000000000000000000, 38.00000000000000000 ) ) ;
#257 = AXIS2_PLACEMENT_3D ( 'NONE', #160, #247, #198 ) ;
#258 = ADVANCED_FACE ( 'NONE', ( #133, #200 ), #281, .T. ) ;
#259 = EDGE_LOOP ( 'NONE', ( #29 ) ) ;
#260 = PRODUCT_DEFINITION_SHAPE ( 'NONE', 'NONE',  #236 ) ;
#261 = DIRECTION ( 'NONE',  ( 1.000000000000000000, 0.000000000000000000, -3.432006876932533006E-15 ) ) ;
#262 = EDGE_CURVE ( 'NONE', #33, #33, #264, .T. ) ;
#263 = AXIS2_PLACEMENT_3D ( 'NONE', #369, #121, #241 ) ;
#264 = CIRCLE ( 'NONE', #109, 0.4540741737109291742 ) ;
#265 = CARTESIAN_POINT ( 'NONE',  ( 1.316288464743861212E-13, 0.000000000000000000, 37.69999999999999574 ) ) ;
#266 = LOCAL_TIME ( 10, 26, 53.00000000000000000, #61 ) ;
#267 = SECURITY_CLASSIFICATION ( '', '', #6 ) ;
#268 = APPROVAL_STATUS ( 'not_yet_approved' ) ;
#269 = EDGE_CURVE ( 'NONE', #158, #158, #353, .T. ) ;
#270 = ORIENTED_EDGE ( 'NONE', *, *, #370, .F. ) ;
#271 = VERTEX_POINT ( 'NONE', #184 ) ;
#272 = EDGE_LOOP ( 'NONE', ( #106 ) ) ;
#273 = FACE_OUTER_BOUND ( 'NONE', #166, .T. ) ;
#274 = FACE_OUTER_BOUND ( 'NONE', #90, .T. ) ;
#275 = CYLINDRICAL_SURFACE ( 'NONE', #148, 0.4929274057836297573 ) ;
#276 = FACE_OUTER_BOUND ( 'NONE', #180, .T. ) ;
#277 = UNCERTAINTY_MEASURE_WITH_UNIT (LENGTH_MEASURE( 1.000000000000000082E-05 ), #129, 'distance_accuracy_value', 'NONE');
#278 = PRODUCT_RELATED_PRODUCT_CATEGORY ( 'detail', '', ( #349 ) ) ;
#279 = DIRECTION ( 'NONE',  ( 3.491481338843133355E-15, -0.000000000000000000, 1.000000000000000000 ) ) ;
#280 = AXIS2_PLACEMENT_3D ( 'NONE', #72, #189, #103 ) ;
#281 = CYLINDRICAL_SURFACE ( 'NONE', #93, 0.4929274057836297573 ) ;
#282 = DIRECTION ( 'NONE',  ( 1.000000000000000000, 0.000000000000000000, -5.782411586589354089E-15 ) ) ;
#283 = FACE_OUTER_BOUND ( 'NONE', #127, .T. ) ;
#284 = ORIENTED_EDGE ( 'NONE', *, *, #185, .F. ) ;
#285 = CARTESIAN_POINT ( 'NONE',  ( 1.782110266701180152E-15, 0.000000000000000000, 0.5104166666666659635 ) ) ;
#286 = DIRECTION ( 'NONE',  ( -1.000000000000000000, 0.000000000000000000, 3.491481338843133355E-15 ) ) ;
#287 = EDGE_LOOP ( 'NONE', ( #45 ) ) ;
#288 =( GEOMETRIC_REPRESENTATION_CONTEXT ( 3 ) GLOBAL_UNCERTAINTY_ASSIGNED_CONTEXT ( ( #277 ) ) GLOBAL_UNIT_ASSIGNED_CONTEXT ( ( #129, #164, #373 ) ) REPRESENTATION_CONTEXT ( 'NONE', 'WORKASPACE' ) );
#289 = AXIS2_PLACEMENT_3D ( 'NONE', #295, #151, #183 ) ;
#290 = ADVANCED_FACE ( 'NONE', ( #304, #69 ), #226, .F. ) ;
#291 = CARTESIAN_POINT ( 'NONE',  ( 0.4540741737109503240, 0.000000000000000000, 6.058819045102509904 ) ) ;
#292 = CYLINDRICAL_SURFACE ( 'NONE', #289, 0.6949999999999998401 ) ;
#293 = APPROVAL ( #268, 'UNSPECIFIED' ) ;
#294 = DATE_TIME_ROLE ( 'classification_date' ) ;
#295 = CARTESIAN_POINT ( 'NONE',  ( 1.326762908760390423E-13, 0.000000000000000000, 38.00000000000000000 ) ) ;
#296 = VERTEX_POINT ( 'NONE', #64 ) ;
#297 = CALENDAR_DATE ( 2023, 27, 9 ) ;
#298 = EDGE_LOOP ( 'NONE', ( #355 ) ) ;
#299 = VERTEX_POINT ( 'NONE', #3 ) ;
#300 = DIRECTION ( 'NONE',  ( 1.000000000000000000, 0.000000000000000000, -3.519227082168490994E-15 ) ) ;
#301 = CARTESIAN_POINT ( 'NONE',  ( 1.500000000000128120, 0.000000000000000000, 37.69999999999998863 ) ) ;
#302 = ADVANCED_FACE ( 'NONE', ( #283, #39 ), #364, .T. ) ;
#303 = DIRECTION ( 'NONE',  ( 3.491481338843133355E-15, -0.000000000000000000, 1.000000000000000000 ) ) ;
#304 = FACE_BOUND ( 'NONE', #229, .T. ) ;
#305 = CARTESIAN_POINT ( 'NONE',  ( 0.000000000000000000, 0.000000000000000000, 0.000000000000000000 ) ) ;
#306 = DIRECTION ( 'NONE',  ( -3.491481338843133355E-15, 0.000000000000000000, -1.000000000000000000 ) ) ;
#307 = DESIGN_CONTEXT ( 'detailed design', #371, 'design' ) ;
#308 = COORDINATED_UNIVERSAL_TIME_OFFSET ( 1, 0, .AHEAD. ) ;
#309 = DIRECTION ( 'NONE',  ( 3.491481338843133355E-15, -0.000000000000000000, 1.000000000000000000 ) ) ;
#310 = AXIS2_PLACEMENT_3D ( 'NONE', #157, #238, #30 ) ;
#311 = FACE_OUTER_BOUND ( 'NONE', #143, .T. ) ;
#312 = ADVANCED_FACE ( 'NONE', ( #35, #130 ), #174, .T. ) ;
#313 = FACE_BOUND ( 'NONE', #383, .T. ) ;
#314 = APPROVAL_PERSON_ORGANIZATION ( #187, #112, #223 ) ;
#315 = DIRECTION ( 'NONE',  ( 1.000000000000000000, 0.000000000000000000, 0.000000000000000000 ) ) ;
#316 = EDGE_LOOP ( 'NONE', ( #376 ) ) ;
#317 = CARTESIAN_POINT ( 'NONE',  ( 1.069266160020712943E-15, 0.000000000000000000, 0.3062500000000009659 ) ) ;
#318 = DIRECTION ( 'NONE',  ( 3.491481338843133355E-15, -0.000000000000000000, 1.000000000000000000 ) ) ;
#319 = ADVANCED_FACE ( 'NONE', ( #276, #4 ), #209, .T. ) ;
#320 = CIRCLE ( 'NONE', #176, 0.6949999999999998401 ) ;
#321 = AXIS2_PLACEMENT_3D ( 'NONE', #144, #74, #232 ) ;
#322 = DIRECTION ( 'NONE',  ( -1.000000000000000000, 0.000000000000000000, 3.510007033226453485E-15 ) ) ;
#323 = CIRCLE ( 'NONE', #154, 0.4929274057836297573 ) ;
#324 = EDGE_CURVE ( 'NONE', #149, #149, #378, .T. ) ;
#325 = AXIS2_PLACEMENT_3D ( 'NONE', #173, #145, #322 ) ;
#326 = CARTESIAN_POINT ( 'NONE',  ( 0.6950000000000016165, 0.000000000000000000, 0.5104166666666636321 ) ) ;
#327 = ADVANCED_FACE ( 'NONE', ( #313, #147 ), #140, .T. ) ;
#328 = DIRECTION ( 'NONE',  ( 3.491481338843133355E-15, -0.000000000000000000, 1.000000000000000000 ) ) ;
#329 = MANIFOLD_SOLID_BREP ( 'Corps-Déplacer/Copier1', #205 ) ;
#330 = APPROVAL_DATE_TIME ( #220, #293 ) ;
#331 = DIRECTION ( 'NONE',  ( 3.491481338843133355E-15, -0.000000000000000000, 1.000000000000000000 ) ) ;
#332 = VERTEX_POINT ( 'NONE', #301 ) ;
#333 = ORIENTED_EDGE ( 'NONE', *, *, #7, .F. ) ;
#334 = PERSON_AND_ORGANIZATION_ROLE ( 'design_supplier' ) ;
#335 = ORIENTED_EDGE ( 'NONE', *, *, #262, .F. ) ;
#336 = EDGE_LOOP ( 'NONE', ( #335 ) ) ;
#337 = ORIENTED_EDGE ( 'NONE', *, *, #107, .T. ) ;
#338 = CARTESIAN_POINT ( 'NONE',  ( 1.374770777169477842E-15, 0.000000000000000000, 0.3937499999999982681 ) ) ;
#339 = ADVANCED_FACE ( 'NONE', ( #55, #50 ), #344, .T. ) ;
#340 = AXIS2_PLACEMENT_3D ( 'NONE', #110, #303, #47 ) ;
#341 = DIRECTION ( 'NONE',  ( 3.491481338843133355E-15, -0.000000000000000000, 1.000000000000000000 ) ) ;
#342 = EDGE_LOOP ( 'NONE', ( #73 ) ) ;
#343 = PERSON_AND_ORGANIZATION ( #248, #390 ) ;
#344 = CONICAL_SURFACE ( 'NONE', #171, 1.499999999999996669, 0.7853981633974389531 ) ;
#345 = AXIS2_PLACEMENT_3D ( 'NONE', #348, #136, #14 ) ;
#346 = DIRECTION ( 'NONE',  ( 3.491481338843133355E-15, -0.000000000000000000, 1.000000000000000000 ) ) ;
#347 = APPLICATION_PROTOCOL_DEFINITION ( 'international standard', 'config_control_design', 1994, #371 ) ;
#348 = CARTESIAN_POINT ( 'NONE',  ( 1.326762908760390423E-13, 0.000000000000000000, 38.00000000000000000 ) ) ;
#349 = PRODUCT ( '961156', '961156', '', ( #181 ) ) ;
#350 = FACE_OUTER_BOUND ( 'NONE', #342, .T. ) ;
#351 = AXIS2_PLACEMENT_3D ( 'NONE', #317, #159, #82 ) ;
#352 = DIRECTION ( 'NONE',  ( 3.491481338843133355E-15, -0.000000000000000000, 1.000000000000000000 ) ) ;
#353 = CIRCLE ( 'NONE', #134, 0.6949999999999999512 ) ;
#354 = DIRECTION ( 'NONE',  ( 3.491481338843133355E-15, -0.000000000000000000, 1.000000000000000000 ) ) ;
#355 = ORIENTED_EDGE ( 'NONE', *, *, #387, .T. ) ;
#356 = CARTESIAN_POINT ( 'NONE',  ( 3.478307061408949801E-14, 0.000000000000000000, 9.962267369761887537 ) ) ;
#357 = ORIENTED_EDGE ( 'NONE', *, *, #107, .F. ) ;
#358 = EDGE_LOOP ( 'NONE', ( #380 ) ) ;
#359 = CC_DESIGN_DATE_AND_TIME_ASSIGNMENT ( #153, #294, ( #267 ) ) ;
#360 = ORIENTED_EDGE ( 'NONE', *, *, #84, .F. ) ;
#361 = EDGE_LOOP ( 'NONE', ( #216 ) ) ;
#362 = CC_DESIGN_APPROVAL ( #112, ( #242 ) ) ;
#363 = CARTESIAN_POINT ( 'NONE',  ( 1.326762908760390423E-13, 0.000000000000000000, 38.00000000000000000 ) ) ;
#364 = CONICAL_SURFACE ( 'NONE', #23, 0.4540741737109291742, 0.2617993877991428020 ) ;
#365 = CARTESIAN_POINT ( 'NONE',  ( 2.444036937190190588E-15, 0.000000000000000000, 0.6999999999999992895 ) ) ;
#366 = CIRCLE ( 'NONE', #263, 0.4929274057836296463 ) ;
#367 = PERSON_AND_ORGANIZATION_ROLE ( 'design_owner' ) ;
#368 = ORIENTED_EDGE ( 'NONE', *, *, #395, .T. ) ;
#369 = CARTESIAN_POINT ( 'NONE',  ( 2.444036937190190588E-15, 0.000000000000000000, 0.6999999999999992895 ) ) ;
#370 = EDGE_CURVE ( 'NONE', #115, #115, #190, .T. ) ;
#371 = APPLICATION_CONTEXT ( 'configuration controlled 3d designs of mechanical parts and assemblies' ) ;
#372 = PERSON_AND_ORGANIZATION ( #248, #390 ) ;
#373 =( NAMED_UNIT ( * ) SI_UNIT ( $, .STERADIAN. ) SOLID_ANGLE_UNIT ( ) );
#374 = DIRECTION ( 'NONE',  ( 1.000000000000000000, 0.000000000000000000, -3.614007241618348376E-15 ) ) ;
#375 = PLANE ( 'NONE',  #222 ) ;
#376 = ORIENTED_EDGE ( 'NONE', *, *, #116, .F. ) ;
#377 = CC_DESIGN_PERSON_AND_ORGANIZATION_ASSIGNMENT ( #372, #334, ( #242 ) ) ;
#378 = CIRCLE ( 'NONE', #60, 1.500000000000000000 ) ;
#379 = DIRECTION ( 'NONE',  ( 3.491481338843133355E-15, -0.000000000000000000, 1.000000000000000000 ) ) ;
#380 = ORIENTED_EDGE ( 'NONE', *, *, #46, .F. ) ;
#381 = VERTEX_POINT ( 'NONE', #199 ) ;
#382 = FACE_OUTER_BOUND ( 'NONE', #131, .T. ) ;
#383 = EDGE_LOOP ( 'NONE', ( #218 ) ) ;
#384 = CARTESIAN_POINT ( 'NONE',  ( 1.316288464743861212E-13, 0.000000000000000000, 37.69999999999999574 ) ) ;
#385 = CC_DESIGN_DATE_AND_TIME_ASSIGNMENT ( #1, #126, ( #236 ) ) ;
#386 = DIRECTION ( 'NONE',  ( 3.491481338843133355E-15, -0.000000000000000000, 1.000000000000000000 ) ) ;
#387 = EDGE_CURVE ( 'NONE', #299, #299, #43, .T. ) ;
#388 = AXIS2_PLACEMENT_3D ( 'NONE', #186, #379, #250 ) ;
#389 = CARTESIAN_POINT ( 'NONE',  ( 1.500000000000034639, 0.000000000000000000, 9.962267369761882208 ) ) ;
#390 = ORGANIZATION ( 'UNSPECIFIED', 'UNSPECIFIED', '' ) ;
#391 = AXIS2_PLACEMENT_3D ( 'NONE', #9, #228, #196 ) ;
#392 = CIRCLE ( 'NONE', #104, 0.4199999999999999845 ) ;
#393 = VERTEX_POINT ( 'NONE', #86 ) ;
#394 = ORIENTED_EDGE ( 'NONE', *, *, #324, .T. ) ;
#395 = EDGE_CURVE ( 'NONE', #393, #393, #21, .T. ) ;
ENDSEC;
END-ISO-10303-21;
