ISO-10303-21;
HEADER;
FILE_DESCRIPTION (( 'STEP AP203' ),
    '1' );
FILE_NAME ('961155.step',
    '2023-09-27T08:26:52',
    ( '' ),
    ( '' ),
    'SwSTEP 2.0',
    'SolidWorks 2022',
    '' );
FILE_SCHEMA (( 'CONFIG_CONTROL_DESIGN' ));
ENDSEC;

DATA;
#1 = CARTESIAN_POINT ( 'NONE',  ( 2.025059176529017031E-14, 0.000000000000000000, 5.799999999999999822 ) ) ;
#2 = APPROVAL_STATUS ( 'not_yet_approved' ) ;
#3 = EDGE_LOOP ( 'NONE', ( #279 ) ) ;
#4 = CC_DESIGN_DATE_AND_TIME_ASSIGNMENT ( #337, #181, ( #347 ) ) ;
#5 = CARTESIAN_POINT ( 'NONE',  ( 1.326762908760390423E-13, 0.000000000000000000, 38.00000000000000000 ) ) ;
#6 = CARTESIAN_POINT ( 'NONE',  ( 0.000000000000000000, 0.000000000000000000, 0.000000000000000000 ) ) ;
#7 = EDGE_LOOP ( 'NONE', ( #292 ) ) ;
#8 = ADVANCED_BREP_SHAPE_REPRESENTATION ( '961155', ( #289, #278 ), #44 ) ;
#9 = AXIS2_PLACEMENT_3D ( 'NONE', #126, #107, #218 ) ;
#10 = CARTESIAN_POINT ( 'NONE',  ( 0.7750000000000009104, 0.000000000000000000, 0.3083333333333313497 ) ) ;
#11 = DIRECTION ( 'NONE',  ( 1.000000000000000000, 0.000000000000000000, -3.469446951953614189E-15 ) ) ;
#12 = CC_DESIGN_DATE_AND_TIME_ASSIGNMENT ( #251, #68, ( #286 ) ) ;
#13 = DIRECTION ( 'NONE',  ( 1.000000000000000000, 0.000000000000000000, -3.491481338843133355E-15 ) ) ;
#14 = FACE_OUTER_BOUND ( 'NONE', #348, .T. ) ;
#15 = ADVANCED_FACE ( 'NONE', ( #283, #228 ), #205, .T. ) ;
#16 = AXIS2_PLACEMENT_3D ( 'NONE', #314, #48, #145 ) ;
#17 = CARTESIAN_POINT ( 'NONE',  ( 0.6150000000000197531, 0.000000000000000000, 5.799999999999998046 ) ) ;
#18 = FACE_OUTER_BOUND ( 'NONE', #22, .T. ) ;
#19 = AXIS2_PLACEMENT_3D ( 'NONE', #25, #268, #356 ) ;
#20 = LOCAL_TIME ( 10, 26, 52.00000000000000000, #162 ) ;
#21 = DIRECTION ( 'NONE',  ( 3.491481338843133355E-15, -0.000000000000000000, 1.000000000000000000 ) ) ;
#22 = EDGE_LOOP ( 'NONE', ( #142 ) ) ;
#23 = EDGE_CURVE ( 'NONE', #233, #233, #388, .T. ) ;
#24 = EDGE_CURVE ( 'NONE', #42, #42, #329, .T. ) ;
#25 = CARTESIAN_POINT ( 'NONE',  ( 3.782438117080129010E-16, 0.000000000000000000, 0.1083333333333352799 ) ) ;
#26 = PERSON_AND_ORGANIZATION ( #100, #246 ) ;
#27 = EDGE_LOOP ( 'NONE', ( #211 ) ) ;
#28 = PLANE ( 'NONE',  #217 ) ;
#29 = CALENDAR_DATE ( 2023, 27, 9 ) ;
#30 = CIRCLE ( 'NONE', #77, 0.6595299461620740544 ) ;
#31 = EDGE_LOOP ( 'NONE', ( #35 ) ) ;
#32 = EDGE_CURVE ( 'NONE', #90, #90, #54, .T. ) ;
#33 = DIRECTION ( 'NONE',  ( -1.000000000000000000, 0.000000000000000000, 3.491481338843133355E-15 ) ) ;
#34 = CIRCLE ( 'NONE', #16, 0.7750000000000000222 ) ;
#35 = ORIENTED_EDGE ( 'NONE', *, *, #128, .F. ) ;
#36 = ADVANCED_FACE ( 'NONE', ( #338, #339 ), #184, .T. ) ;
#37 = ORIENTED_EDGE ( 'NONE', *, *, #24, .F. ) ;
#38 = CYLINDRICAL_SURFACE ( 'NONE', #361, 0.6149999999999996581 ) ;
#39 = VERTEX_POINT ( 'NONE', #378 ) ;
#40 = DIRECTION ( 'NONE',  ( 1.000000000000000000, 0.000000000000000000, -5.782411586589354089E-15 ) ) ;
#41 = DIRECTION ( 'NONE',  ( 1.000000000000000000, 0.000000000000000000, 0.000000000000000000 ) ) ;
#42 = VERTEX_POINT ( 'NONE', #287 ) ;
#43 = EDGE_LOOP ( 'NONE', ( #156 ) ) ;
#44 =( GEOMETRIC_REPRESENTATION_CONTEXT ( 3 ) GLOBAL_UNCERTAINTY_ASSIGNED_CONTEXT ( ( #301 ) ) GLOBAL_UNIT_ASSIGNED_CONTEXT ( ( #143, #282, #172 ) ) REPRESENTATION_CONTEXT ( 'NONE', 'WORKASPACE' ) );
#45 = ADVANCED_FACE ( 'NONE', ( #252, #317 ), #372, .T. ) ;
#46 = ORIENTED_EDGE ( 'NONE', *, *, #275, .F. ) ;
#47 = CARTESIAN_POINT ( 'NONE',  ( 1.326762908760390423E-13, 0.000000000000000000, 38.00000000000000000 ) ) ;
#48 = DIRECTION ( 'NONE',  ( 3.491481338843133355E-15, -0.000000000000000000, 1.000000000000000000 ) ) ;
#49 = EDGE_CURVE ( 'NONE', #80, #80, #216, .T. ) ;
#50 = VERTEX_POINT ( 'NONE', #174 ) ;
#51 = FACE_BOUND ( 'NONE', #307, .T. ) ;
#52 = DIRECTION ( 'NONE',  ( 1.000000000000000000, 0.000000000000000000, -3.491481338843133750E-15 ) ) ;
#53 = CONICAL_SURFACE ( 'NONE', #93, 0.6490741737109292364, 0.2617993877991428575 ) ;
#54 = CIRCLE ( 'NONE', #94, 1.499999999999996669 ) ;
#55 = ORIENTED_EDGE ( 'NONE', *, *, #32, .T. ) ;
#56 = PERSON_AND_ORGANIZATION_ROLE ( 'design_owner' ) ;
#57 = ORIENTED_EDGE ( 'NONE', *, *, #294, .F. ) ;
#58 = DIRECTION ( 'NONE',  ( -3.491481338843133355E-15, 0.000000000000000000, -1.000000000000000000 ) ) ;
#59 = PRODUCT ( '961155', '961155', '', ( #196 ) ) ;
#60 = COORDINATED_UNIVERSAL_TIME_OFFSET ( 1, 0, .AHEAD. ) ;
#61 = ORIENTED_EDGE ( 'NONE', *, *, #49, .F. ) ;
#62 = LOCAL_TIME ( 10, 26, 52.00000000000000000, #60 ) ;
#63 = EDGE_CURVE ( 'NONE', #39, #39, #272, .T. ) ;
#64 = APPROVAL_DATE_TIME ( #385, #173 ) ;
#65 = ORIENTED_EDGE ( 'NONE', *, *, #63, .F. ) ;
#66 = ADVANCED_FACE ( 'NONE', ( #376, #113 ), #53, .T. ) ;
#67 = CARTESIAN_POINT ( 'NONE',  ( 1.396592535537253342E-15, 0.6595299461620740544, 0.3999999999999999667 ) ) ;
#68 = DATE_TIME_ROLE ( 'classification_date' ) ;
#69 = FACE_OUTER_BOUND ( 'NONE', #255, .T. ) ;
#70 = PERSON_AND_ORGANIZATION ( #100, #246 ) ;
#71 = ORIENTED_EDGE ( 'NONE', *, *, #23, .T. ) ;
#72 = DIRECTION ( 'NONE',  ( -3.491481338843133355E-15, 0.000000000000000000, -1.000000000000000000 ) ) ;
#73 = DIRECTION ( 'NONE',  ( -3.491481338843133355E-15, 0.000000000000000000, -1.000000000000000000 ) ) ;
#74 = CYLINDRICAL_SURFACE ( 'NONE', #116, 0.7749999999999999112 ) ;
#75 = CIRCLE ( 'NONE', #351, 0.6149999999999994360 ) ;
#76 = DIRECTION ( 'NONE',  ( 3.491481338843133355E-15, -0.000000000000000000, 1.000000000000000000 ) ) ;
#77 = AXIS2_PLACEMENT_3D ( 'NONE', #360, #330, #176 ) ;
#78 = CARTESIAN_POINT ( 'NONE',  ( 1.326762908760390423E-13, 0.000000000000000000, 38.00000000000000000 ) ) ;
#79 = ORIENTED_EDGE ( 'NONE', *, *, #343, .F. ) ;
#80 = VERTEX_POINT ( 'NONE', #230 ) ;
#81 = DIRECTION ( 'NONE',  ( 3.491481338843133355E-15, -0.000000000000000000, 1.000000000000000000 ) ) ;
#82 = AXIS2_PLACEMENT_3D ( 'NONE', #151, #171, #178 ) ;
#83 = CARTESIAN_POINT ( 'NONE',  ( 1.326762908760390423E-13, 0.000000000000000000, 38.00000000000000000 ) ) ;
#84 = ADVANCED_FACE ( 'NONE', ( #261, #51 ), #247, .T. ) ;
#85 = VERTEX_POINT ( 'NONE', #138 ) ;
#86 = CC_DESIGN_APPROVAL ( #158, ( #354 ) ) ;
#87 = VERTEX_POINT ( 'NONE', #202 ) ;
#88 = CYLINDRICAL_SURFACE ( 'NONE', #309, 0.6595299461620740544 ) ;
#89 = DESIGN_CONTEXT ( 'detailed design', #386, 'design' ) ;
#90 = VERTEX_POINT ( 'NONE', #253 ) ;
#91 = CARTESIAN_POINT ( 'NONE',  ( 1.326762908760390423E-13, 0.000000000000000000, 38.00000000000000000 ) ) ;
#92 = TOROIDAL_SURFACE ( 'NONE', #153, 1.614999999999999547, 1.000000000000000000 ) ;
#93 = AXIS2_PLACEMENT_3D ( 'NONE', #231, #81, #350 ) ;
#94 = AXIS2_PLACEMENT_3D ( 'NONE', #250, #222, #221 ) ;
#95 = FACE_OUTER_BOUND ( 'NONE', #328, .T. ) ;
#96 = APPLICATION_PROTOCOL_DEFINITION ( 'international standard', 'config_control_design', 1994, #386 ) ;
#97 = ORIENTED_EDGE ( 'NONE', *, *, #275, .T. ) ;
#98 = CARTESIAN_POINT ( 'NONE',  ( 6.110092342975536620E-16, 0.000000000000000000, 0.1750000000000015432 ) ) ;
#99 = CC_DESIGN_PERSON_AND_ORGANIZATION_ASSIGNMENT ( #70, #364, ( #286 ) ) ;
#100 = PERSON ( 'UNSPECIFIED', 'UNSPECIFIED', 'UNSPECIFIED', ('UNSPECIFIED'), ('UNSPECIFIED'), ('UNSPECIFIED') ) ;
#101 = DIRECTION ( 'NONE',  ( -1.000000000000000000, 0.000000000000000000, 3.491481338843133355E-15 ) ) ;
#102 = DATE_AND_TIME ( #29, #121 ) ;
#103 = CONICAL_SURFACE ( 'NONE', #240, 1.499999999999996669, 0.7853981633974389531 ) ;
#104 = EDGE_CURVE ( 'NONE', #234, #234, #198, .T. ) ;
#105 = CALENDAR_DATE ( 2023, 27, 9 ) ;
#106 = ORIENTED_EDGE ( 'NONE', *, *, #377, .F. ) ;
#107 = DIRECTION ( 'NONE',  ( 3.491481338843133355E-15, -0.000000000000000000, 1.000000000000000000 ) ) ;
#108 = EDGE_LOOP ( 'NONE', ( #111 ) ) ;
#109 = FACE_OUTER_BOUND ( 'NONE', #295, .T. ) ;
#110 = EDGE_LOOP ( 'NONE', ( #179 ) ) ;
#111 = ORIENTED_EDGE ( 'NONE', *, *, #258, .T. ) ;
#112 = DIRECTION ( 'NONE',  ( 1.000000000000000000, 0.000000000000000000, 0.000000000000000000 ) ) ;
#113 = FACE_BOUND ( 'NONE', #137, .T. ) ;
#114 = VERTEX_POINT ( 'NONE', #170 ) ;
#115 = AXIS2_PLACEMENT_3D ( 'NONE', #132, #72, #312 ) ;
#116 = AXIS2_PLACEMENT_3D ( 'NONE', #47, #320, #311 ) ;
#117 = CARTESIAN_POINT ( 'NONE',  ( 2.025059176529017031E-14, 0.000000000000000000, 5.799999999999999822 ) ) ;
#118 = CARTESIAN_POINT ( 'NONE',  ( 2.115425363140279297E-14, 0.000000000000000000, 6.058819045102511680 ) ) ;
#119 = ORIENTED_EDGE ( 'NONE', *, *, #242, .F. ) ;
#120 = AXIS2_PLACEMENT_3D ( 'NONE', #5, #76, #40 ) ;
#121 = LOCAL_TIME ( 10, 26, 52.00000000000000000, #390 ) ;
#122 = DIRECTION ( 'NONE',  ( 3.491481338843133355E-15, -0.000000000000000000, 1.000000000000000000 ) ) ;
#123 = CC_DESIGN_PERSON_AND_ORGANIZATION_ASSIGNMENT ( #362, #371, ( #347 ) ) ;
#124 = FACE_BOUND ( 'NONE', #326, .T. ) ;
#125 = AXIS2_PLACEMENT_3D ( 'NONE', #98, #212, #182 ) ;
#126 = CARTESIAN_POINT ( 'NONE',  ( 1.076540079476635283E-15, 0.000000000000000000, 0.3083333333333340698 ) ) ;
#127 = PERSON_AND_ORGANIZATION_ROLE ( 'design_supplier' ) ;
#128 = EDGE_CURVE ( 'NONE', #321, #321, #273, .T. ) ;
#129 = DIRECTION ( 'NONE',  ( 3.491481338843133355E-15, -0.000000000000000000, 1.000000000000000000 ) ) ;
#130 = CALENDAR_DATE ( 2023, 27, 9 ) ;
#131 = EDGE_LOOP ( 'NONE', ( #37 ) ) ;
#132 = CARTESIAN_POINT ( 'NONE',  ( 1.076540079476635283E-15, 0.000000000000000000, 0.3083333333333340698 ) ) ;
#133 = PLANE ( 'NONE',  #299 ) ;
#134 = CARTESIAN_POINT ( 'NONE',  ( 1.018348723829256169E-15, 0.000000000000000000, 0.2916666666666692387 ) ) ;
#135 = CIRCLE ( 'NONE', #213, 0.6162286759728522467 ) ;
#136 = CARTESIAN_POINT ( 'NONE',  ( 1.326762908760390423E-13, 1.200000000000000622, 38.00000000000000000 ) ) ;
#137 = EDGE_LOOP ( 'NONE', ( #392 ) ) ;
#138 = CARTESIAN_POINT ( 'NONE',  ( 0.6162286759728522467, 0.000000000000000000, -2.151550922619225929E-15 ) ) ;
#139 = DIRECTION ( 'NONE',  ( 1.000000000000000000, 0.000000000000000000, -3.525860723530095688E-15 ) ) ;
#140 = APPROVAL_PERSON_ORGANIZATION ( #210, #173, #327 ) ;
#141 = APPLICATION_PROTOCOL_DEFINITION ( 'international standard', 'config_control_design', 1994, #368 ) ;
#142 = ORIENTED_EDGE ( 'NONE', *, *, #32, .F. ) ;
#143 =( LENGTH_UNIT ( ) NAMED_UNIT ( * ) SI_UNIT ( .MILLI., .METRE. ) );
#144 = DIRECTION ( 'NONE',  ( 3.491481338843133355E-15, -0.000000000000000000, 1.000000000000000000 ) ) ;
#145 = DIRECTION ( 'NONE',  ( 1.000000000000000000, 0.000000000000000000, -3.497426362856465713E-15 ) ) ;
#146 = AXIS2_PLACEMENT_3D ( 'NONE', #91, #122, #204 ) ;
#147 = FACE_OUTER_BOUND ( 'NONE', #43, .T. ) ;
#148 = DIRECTION ( 'NONE',  ( 3.491481338843133355E-15, -0.000000000000000000, 1.000000000000000000 ) ) ;
#149 = CYLINDRICAL_SURFACE ( 'NONE', #270, 1.499999999999998224 ) ;
#150 = CARTESIAN_POINT ( 'NONE',  ( 1.316288464743861212E-13, 0.000000000000000000, 37.69999999999999574 ) ) ;
#151 = CARTESIAN_POINT ( 'NONE',  ( 0.000000000000000000, 0.000000000000000000, 0.000000000000000000 ) ) ;
#152 = LOCAL_TIME ( 10, 26, 52.00000000000000000, #394 ) ;
#153 = AXIS2_PLACEMENT_3D ( 'NONE', #117, #148, #13 ) ;
#154 = CC_DESIGN_PERSON_AND_ORGANIZATION_ASSIGNMENT ( #357, #56, ( #59 ) ) ;
#155 = DIRECTION ( 'NONE',  ( 1.000000000000000000, 0.000000000000000000, -3.452192846539902709E-15 ) ) ;
#156 = ORIENTED_EDGE ( 'NONE', *, *, #274, .F. ) ;
#157 = DIRECTION ( 'NONE',  ( 1.000000000000000000, 0.000000000000000000, -3.497426362856465713E-15 ) ) ;
#158 = APPROVAL ( #2, 'UNSPECIFIED' ) ;
#159 = SHAPE_DEFINITION_REPRESENTATION ( #384, #8 ) ;
#160 = AXIS2_PLACEMENT_3D ( 'NONE', #134, #168, #190 ) ;
#161 = EDGE_LOOP ( 'NONE', ( #238 ) ) ;
#162 = COORDINATED_UNIVERSAL_TIME_OFFSET ( 1, 0, .AHEAD. ) ;
#163 = EDGE_LOOP ( 'NONE', ( #298 ) ) ;
#164 = FACE_OUTER_BOUND ( 'NONE', #239, .T. ) ;
#165 = FACE_OUTER_BOUND ( 'NONE', #110, .T. ) ;
#166 = ORIENTED_EDGE ( 'NONE', *, *, #343, .T. ) ;
#167 = FACE_BOUND ( 'NONE', #197, .T. ) ;
#168 = DIRECTION ( 'NONE',  ( 3.491481338843133355E-15, -0.000000000000000000, 1.000000000000000000 ) ) ;
#169 = AXIS2_PLACEMENT_3D ( 'NONE', #310, #195, #281 ) ;
#170 = CARTESIAN_POINT ( 'NONE',  ( 0.6595299461620748316, 0.000000000000000000, 0.2250000000000006717 ) ) ;
#171 = DIRECTION ( 'NONE',  ( 3.491481338843133355E-15, -0.000000000000000000, 1.000000000000000000 ) ) ;
#172 =( NAMED_UNIT ( * ) SI_UNIT ( $, .STERADIAN. ) SOLID_ANGLE_UNIT ( ) );
#173 = APPROVAL ( #180, 'UNSPECIFIED' ) ;
#174 = CARTESIAN_POINT ( 'NONE',  ( 0.6595299461620747206, 0.000000000000000000, 0.1749999999999992395 ) ) ;
#175 = CIRCLE ( 'NONE', #9, 0.7749999999999999112 ) ;
#176 = DIRECTION ( 'NONE',  ( 1.000000000000000000, 0.000000000000000000, -3.493290380427282508E-15 ) ) ;
#177 = FACE_OUTER_BOUND ( 'NONE', #208, .T. ) ;
#178 = DIRECTION ( 'NONE',  ( 1.000000000000000000, 0.000000000000000000, -3.491481338843133750E-15 ) ) ;
#179 = ORIENTED_EDGE ( 'NONE', *, *, #104, .F. ) ;
#180 = APPROVAL_STATUS ( 'not_yet_approved' ) ;
#181 = DATE_TIME_ROLE ( 'creation_date' ) ;
#182 = DIRECTION ( 'NONE',  ( 1.000000000000000000, 0.000000000000000000, -3.493290380427282508E-15 ) ) ;
#183 = PERSON_AND_ORGANIZATION ( #100, #246 ) ;
#184 = CONICAL_SURFACE ( 'NONE', #169, 0.6595299461620740544, 1.047197551196602738 ) ;
#185 = LOCAL_TIME ( 10, 26, 52.00000000000000000, #391 ) ;
#186 = APPROVAL_ROLE ( '' ) ;
#187 = APPROVAL_DATE_TIME ( #219, #266 ) ;
#188 = EDGE_LOOP ( 'NONE', ( #46 ) ) ;
#189 = APPROVAL_DATE_TIME ( #102, #158 ) ;
#190 = DIRECTION ( 'NONE',  ( 1.000000000000000000, 0.000000000000000000, -3.497426362856466501E-15 ) ) ;
#191 = CONICAL_SURFACE ( 'NONE', #19, 0.7750000000000000222, 1.047197551196603182 ) ;
#192 = EDGE_LOOP ( 'NONE', ( #65 ) ) ;
#193 = FACE_BOUND ( 'NONE', #161, .T. ) ;
#194 = DIRECTION ( 'NONE',  ( 3.491481338843133355E-15, -0.000000000000000000, 1.000000000000000000 ) ) ;
#195 = DIRECTION ( 'NONE',  ( 3.491481338843133355E-15, -0.000000000000000000, 1.000000000000000000 ) ) ;
#196 = MECHANICAL_CONTEXT ( 'NONE', #368, 'mechanical' ) ;
#197 = EDGE_LOOP ( 'NONE', ( #334 ) ) ;
#198 = CIRCLE ( 'NONE', #277, 0.6490741737109292364 ) ;
#199 = CC_DESIGN_PERSON_AND_ORGANIZATION_ASSIGNMENT ( #243, #127, ( #354 ) ) ;
#200 = FACE_OUTER_BOUND ( 'NONE', #271, .T. ) ;
#201 = VERTEX_POINT ( 'NONE', #318 ) ;
#202 = CARTESIAN_POINT ( 'NONE',  ( 0.7750000000000002442, 0.000000000000000000, 0.09166666666666080376 ) ) ;
#203 = DIRECTION ( 'NONE',  ( 1.000000000000000000, 0.000000000000000000, -4.008918116535741014E-15 ) ) ;
#204 = DIRECTION ( 'NONE',  ( 1.000000000000000000, 0.000000000000000000, 0.000000000000000000 ) ) ;
#205 = CONICAL_SURFACE ( 'NONE', #115, 0.7749999999999999112, 1.047197551196602738 ) ;
#206 = CIRCLE ( 'NONE', #125, 0.6595299461620740544 ) ;
#207 = FACE_OUTER_BOUND ( 'NONE', #7, .T. ) ;
#208 = EDGE_LOOP ( 'NONE', ( #55 ) ) ;
#209 = ADVANCED_FACE ( 'NONE', ( #200, #323 ), #88, .T. ) ;
#210 = PERSON_AND_ORGANIZATION ( #100, #246 ) ;
#211 = ORIENTED_EDGE ( 'NONE', *, *, #63, .T. ) ;
#212 = DIRECTION ( 'NONE',  ( 3.491481338843133355E-15, -0.000000000000000000, 1.000000000000000000 ) ) ;
#213 = AXIS2_PLACEMENT_3D ( 'NONE', #322, #383, #52 ) ;
#214 = EDGE_LOOP ( 'NONE', ( #359 ) ) ;
#215 = PERSON_AND_ORGANIZATION ( #100, #246 ) ;
#216 = CIRCLE ( 'NONE', #120, 1.200000000000000622 ) ;
#217 = AXIS2_PLACEMENT_3D ( 'NONE', #67, #306, #33 ) ;
#218 = DIRECTION ( 'NONE',  ( 1.000000000000000000, 0.000000000000000000, -3.497426362856466501E-15 ) ) ;
#219 = DATE_AND_TIME ( #241, #20 ) ;
#220 = ADVANCED_FACE ( 'NONE', ( #14, #224 ), #74, .T. ) ;
#221 = DIRECTION ( 'NONE',  ( 1.000000000000000000, 0.000000000000000000, -4.625929269271495577E-15 ) ) ;
#222 = DIRECTION ( 'NONE',  ( 3.491481338843133355E-15, -0.000000000000000000, 1.000000000000000000 ) ) ;
#223 = PLANE ( 'NONE',  #319 ) ;
#224 = FACE_OUTER_BOUND ( 'NONE', #3, .T. ) ;
#225 = CARTESIAN_POINT ( 'NONE',  ( 1.326762908760390423E-13, 0.000000000000000000, 38.00000000000000000 ) ) ;
#226 = ADVANCED_FACE ( 'NONE', ( #147, #164 ), #38, .T. ) ;
#227 = CC_DESIGN_SECURITY_CLASSIFICATION ( #286, ( #354 ) ) ;
#228 = FACE_OUTER_BOUND ( 'NONE', #336, .T. ) ;
#229 = FACE_OUTER_BOUND ( 'NONE', #27, .T. ) ;
#230 = CARTESIAN_POINT ( 'NONE',  ( 1.200000000000133182, 0.000000000000000000, 37.99999999999999289 ) ) ;
#231 = CARTESIAN_POINT ( 'NONE',  ( 2.115425363140279297E-14, 0.000000000000000000, 6.058819045102511680 ) ) ;
#232 = ADVANCED_FACE ( 'NONE', ( #167, #229 ), #28, .F. ) ;
#233 = VERTEX_POINT ( 'NONE', #259 ) ;
#234 = VERTEX_POINT ( 'NONE', #260 ) ;
#235 = CARTESIAN_POINT ( 'NONE',  ( 1.500000000000032419, 0.000000000000000000, 9.234517462285930733 ) ) ;
#236 = DIRECTION ( 'NONE',  ( 3.491481338843133355E-15, -0.000000000000000000, 1.000000000000000000 ) ) ;
#237 = ADVANCED_FACE ( 'NONE', ( #193, #352 ), #191, .T. ) ;
#238 = ORIENTED_EDGE ( 'NONE', *, *, #265, .F. ) ;
#239 = EDGE_LOOP ( 'NONE', ( #71 ) ) ;
#240 = AXIS2_PLACEMENT_3D ( 'NONE', #150, #58, #296 ) ;
#241 = CALENDAR_DATE ( 2023, 27, 9 ) ;
#242 = EDGE_CURVE ( 'NONE', #114, #114, #30, .T. ) ;
#243 = PERSON_AND_ORGANIZATION ( #100, #246 ) ;
#244 = CARTESIAN_POINT ( 'NONE',  ( 3.200524560606095299E-16, 0.000000000000000000, 0.09166666666666350993 ) ) ;
#245 = PRODUCT_RELATED_PRODUCT_CATEGORY ( 'detail', '', ( #59 ) ) ;
#246 = ORGANIZATION ( 'UNSPECIFIED', 'UNSPECIFIED', '' ) ;
#247 = CONICAL_SURFACE ( 'NONE', #82, 0.6162286759728522467, 1.047197551196614285 ) ;
#248 = ORIENTED_EDGE ( 'NONE', *, *, #265, .T. ) ;
#249 = DIRECTION ( 'NONE',  ( 3.491481338843133355E-15, -0.000000000000000000, 1.000000000000000000 ) ) ;
#250 = CARTESIAN_POINT ( 'NONE',  ( 1.316288464743861212E-13, 0.000000000000000000, 37.69999999999999574 ) ) ;
#251 = DATE_AND_TIME ( #105, #152 ) ;
#252 = FACE_OUTER_BOUND ( 'NONE', #192, .T. ) ;
#253 = CARTESIAN_POINT ( 'NONE',  ( 1.500000000000128120, 0.000000000000000000, 37.69999999999998863 ) ) ;
#254 = AXIS2_PLACEMENT_3D ( 'NONE', #395, #366, #139 ) ;
#255 = EDGE_LOOP ( 'NONE', ( #79 ) ) ;
#256 = DIRECTION ( 'NONE',  ( 0.000000000000000000, 0.000000000000000000, 1.000000000000000000 ) ) ;
#257 = DIRECTION ( 'NONE',  ( 1.000000000000000000, 0.000000000000000000, -3.452192846539902709E-15 ) ) ;
#258 = EDGE_CURVE ( 'NONE', #353, #353, #291, .T. ) ;
#259 = CARTESIAN_POINT ( 'NONE',  ( 0.6150000000000014344, 0.000000000000000000, 0.3999999999999954148 ) ) ;
#260 = CARTESIAN_POINT ( 'NONE',  ( 0.6490741737109503307, 0.000000000000000000, 6.058819045102509016 ) ) ;
#261 = FACE_OUTER_BOUND ( 'NONE', #188, .T. ) ;
#262 = CC_DESIGN_APPROVAL ( #173, ( #347 ) ) ;
#263 = VERTEX_POINT ( 'NONE', #10 ) ;
#264 = ADVANCED_FACE ( 'NONE', ( #124, #177 ), #103, .T. ) ;
#265 = EDGE_CURVE ( 'NONE', #50, #50, #206, .T. ) ;
#266 = APPROVAL ( #280, 'UNSPECIFIED' ) ;
#267 = ORIENTED_EDGE ( 'NONE', *, *, #377, .T. ) ;
#268 = DIRECTION ( 'NONE',  ( -3.491481338843133355E-15, 0.000000000000000000, -1.000000000000000000 ) ) ;
#269 = FACE_OUTER_BOUND ( 'NONE', #369, .T. ) ;
#270 = AXIS2_PLACEMENT_3D ( 'NONE', #325, #194, #349 ) ;
#271 = EDGE_LOOP ( 'NONE', ( #119 ) ) ;
#272 = CIRCLE ( 'NONE', #302, 0.6595299461620740544 ) ;
#273 = CIRCLE ( 'NONE', #379, 1.500000000000000000 ) ;
#274 = EDGE_CURVE ( 'NONE', #288, #288, #75, .T. ) ;
#275 = EDGE_CURVE ( 'NONE', #87, #87, #340, .T. ) ;
#276 = EDGE_LOOP ( 'NONE', ( #248 ) ) ;
#277 = AXIS2_PLACEMENT_3D ( 'NONE', #118, #293, #203 ) ;
#278 = AXIS2_PLACEMENT_3D ( 'NONE', #6, #256, #112 ) ;
#279 = ORIENTED_EDGE ( 'NONE', *, *, #24, .T. ) ;
#280 = APPROVAL_STATUS ( 'not_yet_approved' ) ;
#281 = DIRECTION ( 'NONE',  ( 1.000000000000000000, 0.000000000000000000, -3.493290380427282508E-15 ) ) ;
#282 =( NAMED_UNIT ( * ) PLANE_ANGLE_UNIT ( ) SI_UNIT ( $, .RADIAN. ) );
#283 = FACE_BOUND ( 'NONE', #214, .T. ) ;
#284 = DIRECTION ( 'NONE',  ( 1.000000000000000000, 0.000000000000000000, 0.000000000000000000 ) ) ;
#285 = DIRECTION ( 'NONE',  ( 3.491481338843133355E-15, -0.000000000000000000, 1.000000000000000000 ) ) ;
#286 = SECURITY_CLASSIFICATION ( '', '', #331 ) ;
#287 = CARTESIAN_POINT ( 'NONE',  ( 0.7750000000000007994, 0.000000000000000000, 0.2916666666666665186 ) ) ;
#288 = VERTEX_POINT ( 'NONE', #17 ) ;
#289 = MANIFOLD_SOLID_BREP ( 'Corps-Déplacer/Copier1', #373 ) ;
#290 = DIRECTION ( 'NONE',  ( 3.491481338843133355E-15, -0.000000000000000000, 1.000000000000000000 ) ) ;
#291 = CIRCLE ( 'NONE', #344, 0.6595299461620740544 ) ;
#292 = ORIENTED_EDGE ( 'NONE', *, *, #128, .T. ) ;
#293 = DIRECTION ( 'NONE',  ( 3.491481338843133355E-15, -0.000000000000000000, 1.000000000000000000 ) ) ;
#294 = EDGE_CURVE ( 'NONE', #263, #263, #175, .T. ) ;
#295 = EDGE_LOOP ( 'NONE', ( #363 ) ) ;
#296 = DIRECTION ( 'NONE',  ( -1.000000000000000000, 0.000000000000000000, 4.625929269271495577E-15 ) ) ;
#297 = ADVANCED_FACE ( 'NONE', ( #109 ), #223, .F. ) ;
#298 = ORIENTED_EDGE ( 'NONE', *, *, #274, .T. ) ;
#299 = AXIS2_PLACEMENT_3D ( 'NONE', #367, #236, #355 ) ;
#300 = CALENDAR_DATE ( 2023, 27, 9 ) ;
#301 = UNCERTAINTY_MEASURE_WITH_UNIT (LENGTH_MEASURE( 1.000000000000000082E-05 ), #143, 'distance_accuracy_value', 'NONE');
#302 = AXIS2_PLACEMENT_3D ( 'NONE', #346, #285, #257 ) ;
#303 = PERSON_AND_ORGANIZATION_ROLE ( 'creator' ) ;
#304 = ORIENTED_EDGE ( 'NONE', *, *, #294, .T. ) ;
#305 = DIRECTION ( 'NONE',  ( 1.000000000000000000, 0.000000000000000000, -2.820688578824079312E-15 ) ) ;
#306 = DIRECTION ( 'NONE',  ( -3.491481338843133355E-15, 0.000000000000000000, -1.000000000000000000 ) ) ;
#307 = EDGE_LOOP ( 'NONE', ( #166 ) ) ;
#308 = ORIENTED_EDGE ( 'NONE', *, *, #242, .T. ) ;
#309 = AXIS2_PLACEMENT_3D ( 'NONE', #83, #144, #41 ) ;
#310 = CARTESIAN_POINT ( 'NONE',  ( 7.855833012397154573E-16, 0.000000000000000000, 0.2250000000000029754 ) ) ;
#311 = DIRECTION ( 'NONE',  ( 1.000000000000000000, 0.000000000000000000, 0.000000000000000000 ) ) ;
#312 = DIRECTION ( 'NONE',  ( -1.000000000000000000, 0.000000000000000000, 3.497426362856466501E-15 ) ) ;
#313 = DIRECTION ( 'NONE',  ( 3.491481338843133355E-15, -0.000000000000000000, 1.000000000000000000 ) ) ;
#314 = CARTESIAN_POINT ( 'NONE',  ( 3.782438117080129010E-16, 0.000000000000000000, 0.1083333333333352799 ) ) ;
#315 = DIRECTION ( 'NONE',  ( 3.491481338843133355E-15, -0.000000000000000000, 1.000000000000000000 ) ) ;
#316 = AXIS2_PLACEMENT_3D ( 'NONE', #225, #315, #342 ) ;
#317 = FACE_OUTER_BOUND ( 'NONE', #108, .T. ) ;
#318 = CARTESIAN_POINT ( 'NONE',  ( 0.7750000000000002442, 0.000000000000000000, 0.1083333333333325738 ) ) ;
#319 = AXIS2_PLACEMENT_3D ( 'NONE', #136, #73, #101 ) ;
#320 = DIRECTION ( 'NONE',  ( 3.491481338843133355E-15, -0.000000000000000000, 1.000000000000000000 ) ) ;
#321 = VERTEX_POINT ( 'NONE', #235 ) ;
#322 = CARTESIAN_POINT ( 'NONE',  ( 0.000000000000000000, 0.000000000000000000, 0.000000000000000000 ) ) ;
#323 = FACE_OUTER_BOUND ( 'NONE', #276, .T. ) ;
#324 = CARTESIAN_POINT ( 'NONE',  ( 1.309305502066176192E-15, 0.000000000000000000, 0.3750000000000003331 ) ) ;
#325 = CARTESIAN_POINT ( 'NONE',  ( 1.326762908760390423E-13, 0.000000000000000000, 38.00000000000000000 ) ) ;
#326 = EDGE_LOOP ( 'NONE', ( #61 ) ) ;
#327 = APPROVAL_ROLE ( '' ) ;
#328 = EDGE_LOOP ( 'NONE', ( #106 ) ) ;
#329 = CIRCLE ( 'NONE', #160, 0.7749999999999999112 ) ;
#330 = DIRECTION ( 'NONE',  ( 3.491481338843133355E-15, -0.000000000000000000, 1.000000000000000000 ) ) ;
#331 = SECURITY_CLASSIFICATION_LEVEL ( 'unclassified' ) ;
#332 = CC_DESIGN_PERSON_AND_ORGANIZATION_ASSIGNMENT ( #183, #303, ( #354 ) ) ;
#333 = ADVANCED_FACE ( 'NONE', ( #69 ), #133, .F. ) ;
#334 = ORIENTED_EDGE ( 'NONE', *, *, #23, .F. ) ;
#335 = APPROVAL_ROLE ( '' ) ;
#336 = EDGE_LOOP ( 'NONE', ( #304 ) ) ;
#337 = DATE_AND_TIME ( #130, #185 ) ;
#338 = FACE_OUTER_BOUND ( 'NONE', #131, .T. ) ;
#339 = FACE_BOUND ( 'NONE', #382, .T. ) ;
#340 = CIRCLE ( 'NONE', #341, 0.7750000000000000222 ) ;
#341 = AXIS2_PLACEMENT_3D ( 'NONE', #244, #249, #157 ) ;
#342 = DIRECTION ( 'NONE',  ( 1.000000000000000000, 0.000000000000000000, 0.000000000000000000 ) ) ;
#343 = EDGE_CURVE ( 'NONE', #85, #85, #135, .T. ) ;
#344 = AXIS2_PLACEMENT_3D ( 'NONE', #324, #290, #155 ) ;
#345 = APPROVAL_PERSON_ORGANIZATION ( #215, #266, #186 ) ;
#346 = CARTESIAN_POINT ( 'NONE',  ( 1.396592535537244862E-15, 0.000000000000000000, 0.3999999999999975797 ) ) ;
#347 = PRODUCT_DEFINITION ( 'UNKNOWN', '', #354, #89 ) ;
#348 = EDGE_LOOP ( 'NONE', ( #57 ) ) ;
#349 = DIRECTION ( 'NONE',  ( 1.000000000000000000, 0.000000000000000000, -4.625929269271490844E-15 ) ) ;
#350 = DIRECTION ( 'NONE',  ( 1.000000000000000000, 0.000000000000000000, -4.008918116535741014E-15 ) ) ;
#351 = AXIS2_PLACEMENT_3D ( 'NONE', #1, #129, #305 ) ;
#352 = FACE_OUTER_BOUND ( 'NONE', #374, .T. ) ;
#353 = VERTEX_POINT ( 'NONE', #375 ) ;
#354 = PRODUCT_DEFINITION_FORMATION_WITH_SPECIFIED_SOURCE ( 'ANY', '', #59, .NOT_KNOWN. ) ;
#355 = DIRECTION ( 'NONE',  ( 1.000000000000000000, 0.000000000000000000, -3.491481338843133355E-15 ) ) ;
#356 = DIRECTION ( 'NONE',  ( -1.000000000000000000, 0.000000000000000000, 3.497426362856465713E-15 ) ) ;
#357 = PERSON_AND_ORGANIZATION ( #100, #246 ) ;
#358 = CARTESIAN_POINT ( 'NONE',  ( 3.224214539279239441E-14, 0.000000000000000000, 9.234517462285936062 ) ) ;
#359 = ORIENTED_EDGE ( 'NONE', *, *, #258, .F. ) ;
#360 = CARTESIAN_POINT ( 'NONE',  ( 7.855833012397154573E-16, 0.000000000000000000, 0.2250000000000029754 ) ) ;
#361 = AXIS2_PLACEMENT_3D ( 'NONE', #78, #313, #284 ) ;
#362 = PERSON_AND_ORGANIZATION ( #100, #246 ) ;
#363 = ORIENTED_EDGE ( 'NONE', *, *, #49, .T. ) ;
#364 = PERSON_AND_ORGANIZATION_ROLE ( 'classification_officer' ) ;
#365 = ADVANCED_FACE ( 'NONE', ( #95, #269 ), #381, .T. ) ;
#366 = DIRECTION ( 'NONE',  ( 3.491481338843133355E-15, -0.000000000000000000, 1.000000000000000000 ) ) ;
#367 = CARTESIAN_POINT ( 'NONE',  ( -6.043881250182150536E-34, 0.000000000000000000, -1.731036389323715727E-19 ) ) ;
#368 = APPLICATION_CONTEXT ( 'configuration controlled 3d designs of mechanical parts and assemblies' ) ;
#369 = EDGE_LOOP ( 'NONE', ( #97 ) ) ;
#370 = ADVANCED_FACE ( 'NONE', ( #18, #207 ), #149, .T. ) ;
#371 = PERSON_AND_ORGANIZATION_ROLE ( 'creator' ) ;
#372 = CYLINDRICAL_SURFACE ( 'NONE', #316, 0.6595299461620740544 ) ;
#373 = CLOSED_SHELL ( 'NONE', ( #333, #84, #365, #237, #209, #36, #220, #15, #45, #232, #226, #387, #66, #370, #264, #297 ) ) ;
#374 = EDGE_LOOP ( 'NONE', ( #267 ) ) ;
#375 = CARTESIAN_POINT ( 'NONE',  ( 0.6595299461620753867, 0.000000000000000000, 0.3749999999999980571 ) ) ;
#376 = FACE_OUTER_BOUND ( 'NONE', #31, .T. ) ;
#377 = EDGE_CURVE ( 'NONE', #201, #201, #34, .T. ) ;
#378 = CARTESIAN_POINT ( 'NONE',  ( 0.6595299461620754977, 0.000000000000000000, 0.3999999999999953038 ) ) ;
#379 = AXIS2_PLACEMENT_3D ( 'NONE', #358, #21, #11 ) ;
#380 = FACE_OUTER_BOUND ( 'NONE', #163, .T. ) ;
#381 = CYLINDRICAL_SURFACE ( 'NONE', #146, 0.7750000000000000222 ) ;
#382 = EDGE_LOOP ( 'NONE', ( #308 ) ) ;
#383 = DIRECTION ( 'NONE',  ( 3.491481338843133355E-15, -0.000000000000000000, 1.000000000000000000 ) ) ;
#384 = PRODUCT_DEFINITION_SHAPE ( 'NONE', 'NONE',  #347 ) ;
#385 = DATE_AND_TIME ( #300, #62 ) ;
#386 = APPLICATION_CONTEXT ( 'configuration controlled 3d designs of mechanical parts and assemblies' ) ;
#387 = ADVANCED_FACE ( 'NONE', ( #165, #380 ), #92, .F. ) ;
#388 = CIRCLE ( 'NONE', #254, 0.6149999999999999911 ) ;
#389 = CC_DESIGN_APPROVAL ( #266, ( #286 ) ) ;
#390 = COORDINATED_UNIVERSAL_TIME_OFFSET ( 1, 0, .AHEAD. ) ;
#391 = COORDINATED_UNIVERSAL_TIME_OFFSET ( 1, 0, .AHEAD. ) ;
#392 = ORIENTED_EDGE ( 'NONE', *, *, #104, .T. ) ;
#393 = APPROVAL_PERSON_ORGANIZATION ( #26, #158, #335 ) ;
#394 = COORDINATED_UNIVERSAL_TIME_OFFSET ( 1, 0, .AHEAD. ) ;
#395 = CARTESIAN_POINT ( 'NONE',  ( 1.396592535537244862E-15, 0.000000000000000000, 0.3999999999999975797 ) ) ;
ENDSEC;
END-ISO-10303-21;
