ISO-10303-21;
HEADER;
FILE_DESCRIPTION (( 'STEP AP203' ),
    '1' );
FILE_NAME ('961154.step',
    '2023-09-27T08:26:51',
    ( '' ),
    ( '' ),
    'SwSTEP 2.0',
    'SolidWorks 2022',
    '' );
FILE_SCHEMA (( 'CONFIG_CONTROL_DESIGN' ));
ENDSEC;

DATA;
#1 = VERTEX_POINT ( 'NONE', #199 ) ;
#2 = CIRCLE ( 'NONE', #328, 1.499999999999996669 ) ;
#3 = CARTESIAN_POINT ( 'NONE',  ( 1.500000000000033751, 0.000000000000000000, 9.635472450518783205 ) ) ;
#4 = EDGE_LOOP ( 'NONE', ( #129 ) ) ;
#5 = ADVANCED_FACE ( 'NONE', ( #66, #131 ), #156, .T. ) ;
#6 = EDGE_LOOP ( 'NONE', ( #68 ) ) ;
#7 = DIRECTION ( 'NONE',  ( -3.491481338843133355E-15, 0.000000000000000000, -1.000000000000000000 ) ) ;
#8 = ADVANCED_FACE ( 'NONE', ( #219 ), #251, .F. ) ;
#9 = ORIENTED_EDGE ( 'NONE', *, *, #88, .T. ) ;
#10 = DIRECTION ( 'NONE',  ( 3.491481338843133355E-15, -0.000000000000000000, 1.000000000000000000 ) ) ;
#11 = ORIENTED_EDGE ( 'NONE', *, *, #361, .T. ) ;
#12 = APPROVAL_ROLE ( '' ) ;
#13 = CC_DESIGN_PERSON_AND_ORGANIZATION_ASSIGNMENT ( #149, #74, ( #387 ) ) ;
#14 = ORIENTED_EDGE ( 'NONE', *, *, #303, .F. ) ;
#15 = LOCAL_TIME ( 10, 26, 51.00000000000000000, #218 ) ;
#16 = PERSON_AND_ORGANIZATION ( #204, #175 ) ;
#17 = DIRECTION ( 'NONE',  ( 1.000000000000000000, 0.000000000000000000, -2.710505431213764635E-15 ) ) ;
#18 = CARTESIAN_POINT ( 'NONE',  ( 2.291284628615796404E-15, 0.000000000000000000, 0.6562499999999971134 ) ) ;
#19 = ADVANCED_FACE ( 'NONE', ( #100, #189 ), #240, .T. ) ;
#20 = CARTESIAN_POINT ( 'NONE',  ( 1.374770777169477842E-15, 0.000000000000000000, 0.3937499999999982681 ) ) ;
#21 = CC_DESIGN_DATE_AND_TIME_ASSIGNMENT ( #385, #104, ( #247 ) ) ;
#22 = APPLICATION_CONTEXT ( 'configuration controlled 3d designs of mechanical parts and assemblies' ) ;
#23 = DIRECTION ( 'NONE',  ( 3.491481338843133355E-15, -0.000000000000000000, 1.000000000000000000 ) ) ;
#24 = AXIS2_PLACEMENT_3D ( 'NONE', #133, #352, #354 ) ;
#25 = DIRECTION ( 'NONE',  ( 1.000000000000000000, 0.000000000000000000, -3.491481338843133355E-15 ) ) ;
#26 = CARTESIAN_POINT ( 'NONE',  ( 1.326762908760390423E-13, 0.000000000000000000, 38.00000000000000000 ) ) ;
#27 =( GEOMETRIC_REPRESENTATION_CONTEXT ( 3 ) GLOBAL_UNCERTAINTY_ASSIGNED_CONTEXT ( ( #357 ) ) GLOBAL_UNIT_ASSIGNED_CONTEXT ( ( #333, #142, #118 ) ) REPRESENTATION_CONTEXT ( 'NONE', 'WORKASPACE' ) );
#28 = CARTESIAN_POINT ( 'NONE',  ( 0.3929274057836318890, 0.000000000000000000, 0.6999999999999978462 ) ) ;
#29 = AXIS2_PLACEMENT_3D ( 'NONE', #84, #293, #51 ) ;
#30 = CIRCLE ( 'NONE', #272, 0.3929274057836295020 ) ;
#31 = PERSON_AND_ORGANIZATION_ROLE ( 'creator' ) ;
#32 = COORDINATED_UNIVERSAL_TIME_OFFSET ( 1, 0, .AHEAD. ) ;
#33 = DIRECTION ( 'NONE',  ( 1.000000000000000000, 0.000000000000000000, 0.000000000000000000 ) ) ;
#34 = APPROVAL_PERSON_ORGANIZATION ( #16, #35, #216 ) ;
#35 = APPROVAL ( #105, 'UNSPECIFIED' ) ;
#36 = CARTESIAN_POINT ( 'NONE',  ( 1.326762908760390423E-13, 0.000000000000000000, 38.00000000000000000 ) ) ;
#37 = ORIENTED_EDGE ( 'NONE', *, *, #382, .T. ) ;
#38 = EDGE_LOOP ( 'NONE', ( #343 ) ) ;
#39 = DATE_TIME_ROLE ( 'creation_date' ) ;
#40 = ORIENTED_EDGE ( 'NONE', *, *, #165, .F. ) ;
#41 = LOCAL_TIME ( 10, 26, 51.00000000000000000, #313 ) ;
#42 = ORIENTED_EDGE ( 'NONE', *, *, #294, .F. ) ;
#43 = DIRECTION ( 'NONE',  ( 3.491481338843133355E-15, -0.000000000000000000, 1.000000000000000000 ) ) ;
#44 = AXIS2_PLACEMENT_3D ( 'NONE', #190, #7, #125 ) ;
#45 = ORIENTED_EDGE ( 'NONE', *, *, #290, .T. ) ;
#46 = PERSON_AND_ORGANIZATION ( #204, #175 ) ;
#47 = APPROVAL ( #152, 'UNSPECIFIED' ) ;
#48 = CARTESIAN_POINT ( 'NONE',  ( 1.780655482809998011E-14, 0.000000000000000000, 5.100000000000000533 ) ) ;
#49 = AXIS2_PLACEMENT_3D ( 'NONE', #386, #137, #172 ) ;
#50 = PLANE ( 'NONE',  #256 ) ;
#51 = DIRECTION ( 'NONE',  ( 1.000000000000000000, 0.000000000000000000, -2.449661122972862797E-15 ) ) ;
#52 = DIRECTION ( 'NONE',  ( 3.491481338843133355E-15, -0.000000000000000000, 1.000000000000000000 ) ) ;
#53 = ADVANCED_FACE ( 'NONE', ( #312, #344 ), #348, .T. ) ;
#54 = VERTEX_POINT ( 'NONE', #363 ) ;
#55 = CONICAL_SURFACE ( 'NONE', #321, 0.3171501829524911442, 1.047197551196591414 ) ;
#56 = DIRECTION ( 'NONE',  ( 1.000000000000000000, 0.000000000000000000, -3.449117306806458358E-15 ) ) ;
#57 = CARTESIAN_POINT ( 'NONE',  ( 5.600917981060968883E-16, 0.000000000000000000, 0.1604166666666698160 ) ) ;
#58 = EDGE_CURVE ( 'NONE', #141, #141, #187, .T. ) ;
#59 = APPROVAL_PERSON_ORGANIZATION ( #46, #47, #12 ) ;
#60 = EDGE_LOOP ( 'NONE', ( #42 ) ) ;
#61 = FACE_OUTER_BOUND ( 'NONE', #6, .T. ) ;
#62 = CALENDAR_DATE ( 2023, 27, 9 ) ;
#63 = DIRECTION ( 'NONE',  ( -3.491481338843133355E-15, 0.000000000000000000, -1.000000000000000000 ) ) ;
#64 = EDGE_LOOP ( 'NONE', ( #9 ) ) ;
#65 = PERSON_AND_ORGANIZATION_ROLE ( 'design_owner' ) ;
#66 = FACE_OUTER_BOUND ( 'NONE', #60, .T. ) ;
#67 = AXIS2_PLACEMENT_3D ( 'NONE', #57, #205, #94 ) ;
#68 = ORIENTED_EDGE ( 'NONE', *, *, #88, .F. ) ;
#69 = DIRECTION ( 'NONE',  ( 1.000000000000000000, 0.000000000000000000, 0.000000000000000000 ) ) ;
#70 = CARTESIAN_POINT ( 'NONE',  ( 6.619266704890104357E-16, 0.000000000000000000, 0.1895833333333332704 ) ) ;
#71 = AXIS2_PLACEMENT_3D ( 'NONE', #48, #350, #17 ) ;
#72 = AXIS2_PLACEMENT_3D ( 'NONE', #70, #309, #306 ) ;
#73 = ORIENTED_EDGE ( 'NONE', *, *, #361, .F. ) ;
#74 = PERSON_AND_ORGANIZATION_ROLE ( 'creator' ) ;
#75 = EDGE_LOOP ( 'NONE', ( #102 ) ) ;
#76 = MECHANICAL_CONTEXT ( 'NONE', #22, 'mechanical' ) ;
#77 = FACE_BOUND ( 'NONE', #217, .T. ) ;
#78 = CIRCLE ( 'NONE', #67, 0.5949999999999999734 ) ;
#79 = CARTESIAN_POINT ( 'NONE',  ( 2.444036937190190588E-15, 0.000000000000000000, 0.6999999999999992895 ) ) ;
#80 = AXIS2_PLACEMENT_3D ( 'NONE', #292, #351, #25 ) ;
#81 = DIRECTION ( 'NONE',  ( 3.491481338843133355E-15, -0.000000000000000000, 1.000000000000000000 ) ) ;
#82 = DIRECTION ( 'NONE',  ( 1.000000000000000000, 0.000000000000000000, -3.587081999078716503E-15 ) ) ;
#83 = AXIS2_PLACEMENT_3D ( 'NONE', #90, #91, #56 ) ;
#84 = CARTESIAN_POINT ( 'NONE',  ( 1.871021669421260278E-14, 0.000000000000000000, 5.358819045102512391 ) ) ;
#85 = EDGE_CURVE ( 'NONE', #116, #116, #322, .T. ) ;
#86 = FACE_OUTER_BOUND ( 'NONE', #128, .T. ) ;
#87 = CARTESIAN_POINT ( 'NONE',  ( 0.5950000000000016387, 0.000000000000000000, 0.5395833333333343029 ) ) ;
#88 = EDGE_CURVE ( 'NONE', #54, #54, #92, .T. ) ;
#89 = ADVANCED_FACE ( 'NONE', ( #77, #250 ), #370, .T. ) ;
#90 = CARTESIAN_POINT ( 'NONE',  ( 1.069266160020712943E-15, 0.000000000000000000, 0.3062500000000009659 ) ) ;
#91 = DIRECTION ( 'NONE',  ( 3.491481338843133355E-15, -0.000000000000000000, 1.000000000000000000 ) ) ;
#92 = CIRCLE ( 'NONE', #71, 0.3199999999999995626 ) ;
#93 = AXIS2_PLACEMENT_3D ( 'NONE', #316, #52, #107 ) ;
#94 = DIRECTION ( 'NONE',  ( 1.000000000000000000, 0.000000000000000000, -3.507712910982514647E-15 ) ) ;
#95 = CARTESIAN_POINT ( 'NONE',  ( 1.200000000000133182, 0.000000000000000000, 37.99999999999999289 ) ) ;
#96 = CARTESIAN_POINT ( 'NONE',  ( 1.326762908760390423E-13, 0.000000000000000000, 38.00000000000000000 ) ) ;
#97 = ORIENTED_EDGE ( 'NONE', *, *, #85, .F. ) ;
#98 = DIRECTION ( 'NONE',  ( 3.491481338843133355E-15, -0.000000000000000000, 1.000000000000000000 ) ) ;
#99 = EDGE_LOOP ( 'NONE', ( #37 ) ) ;
#100 = FACE_OUTER_BOUND ( 'NONE', #335, .T. ) ;
#101 = ADVANCED_FACE ( 'NONE', ( #314 ), #50, .F. ) ;
#102 = ORIENTED_EDGE ( 'NONE', *, *, #203, .T. ) ;
#103 = DIRECTION ( 'NONE',  ( 3.491481338843133355E-15, -0.000000000000000000, 1.000000000000000000 ) ) ;
#104 = DATE_TIME_ROLE ( 'classification_date' ) ;
#105 = APPROVAL_STATUS ( 'not_yet_approved' ) ;
#106 = PERSON_AND_ORGANIZATION ( #204, #175 ) ;
#107 = DIRECTION ( 'NONE',  ( 1.000000000000000000, 0.000000000000000000, -3.388131789017201356E-15 ) ) ;
#108 = EDGE_CURVE ( 'NONE', #296, #296, #161, .T. ) ;
#109 = CYLINDRICAL_SURFACE ( 'NONE', #132, 0.3929274057836295020 ) ;
#110 = DIRECTION ( 'NONE',  ( 1.000000000000000000, 0.000000000000000000, -3.587081999078717292E-15 ) ) ;
#111 = ADVANCED_FACE ( 'NONE', ( #244, #285 ), #369, .T. ) ;
#112 = DIRECTION ( 'NONE',  ( 3.491481338843133355E-15, -0.000000000000000000, 1.000000000000000000 ) ) ;
#113 = DIRECTION ( 'NONE',  ( 1.000000000000000000, 0.000000000000000000, 0.000000000000000000 ) ) ;
#114 = DIRECTION ( 'NONE',  ( 3.491481338843133355E-15, -0.000000000000000000, 1.000000000000000000 ) ) ;
#115 = AXIS2_PLACEMENT_3D ( 'NONE', #223, #162, #164 ) ;
#116 = VERTEX_POINT ( 'NONE', #145 ) ;
#117 = PERSON_AND_ORGANIZATION ( #204, #175 ) ;
#118 =( NAMED_UNIT ( * ) SI_UNIT ( $, .STERADIAN. ) SOLID_ANGLE_UNIT ( ) );
#119 = SECURITY_CLASSIFICATION_LEVEL ( 'unclassified' ) ;
#120 = DIRECTION ( 'NONE',  ( -3.491481338843133355E-15, 0.000000000000000000, -1.000000000000000000 ) ) ;
#121 = CARTESIAN_POINT ( 'NONE',  ( 0.3929274057836306122, 0.000000000000000000, 0.3062499999999996336 ) ) ;
#122 = EDGE_LOOP ( 'NONE', ( #308 ) ) ;
#123 = ORIENTED_EDGE ( 'NONE', *, *, #58, .T. ) ;
#124 = AXIS2_PLACEMENT_3D ( 'NONE', #184, #103, #180 ) ;
#125 = DIRECTION ( 'NONE',  ( -1.000000000000000000, 0.000000000000000000, 3.462158197852872240E-15 ) ) ;
#126 = CONICAL_SURFACE ( 'NONE', #24, 1.499999999999996669, 0.7853981633974389531 ) ;
#127 = ADVANCED_FACE ( 'NONE', ( #337, #289 ), #388, .T. ) ;
#128 = EDGE_LOOP ( 'NONE', ( #275 ) ) ;
#129 = ORIENTED_EDGE ( 'NONE', *, *, #282, .T. ) ;
#130 = EDGE_LOOP ( 'NONE', ( #367 ) ) ;
#131 = FACE_OUTER_BOUND ( 'NONE', #38, .T. ) ;
#132 = AXIS2_PLACEMENT_3D ( 'NONE', #253, #195, #113 ) ;
#133 = CARTESIAN_POINT ( 'NONE',  ( 1.316288464743861212E-13, 0.000000000000000000, 37.69999999999999574 ) ) ;
#134 = ADVANCED_FACE ( 'NONE', ( #166, #194 ), #347, .F. ) ;
#135 = COORDINATED_UNIVERSAL_TIME_OFFSET ( 1, 0, .AHEAD. ) ;
#136 = FACE_OUTER_BOUND ( 'NONE', #374, .T. ) ;
#137 = DIRECTION ( 'NONE',  ( 3.491481338843133355E-15, -0.000000000000000000, 1.000000000000000000 ) ) ;
#138 = FACE_BOUND ( 'NONE', #4, .T. ) ;
#139 = ADVANCED_BREP_SHAPE_REPRESENTATION ( '961154', ( #266, #358 ), #27 ) ;
#140 = DIRECTION ( 'NONE',  ( 3.491481338843133355E-15, -0.000000000000000000, 1.000000000000000000 ) ) ;
#141 = VERTEX_POINT ( 'NONE', #144 ) ;
#142 =( NAMED_UNIT ( * ) PLANE_ANGLE_UNIT ( ) SI_UNIT ( $, .RADIAN. ) );
#143 = CYLINDRICAL_SURFACE ( 'NONE', #376, 0.3199999999999997291 ) ;
#144 = CARTESIAN_POINT ( 'NONE',  ( 0.5950000000000006395, 0.000000000000000000, 0.1895833333333311888 ) ) ;
#145 = CARTESIAN_POINT ( 'NONE',  ( 0.3171501829524911442, 0.000000000000000000, -1.107323945389308472E-15 ) ) ;
#146 = AXIS2_PLACEMENT_3D ( 'NONE', #305, #43, #158 ) ;
#147 = EDGE_LOOP ( 'NONE', ( #157 ) ) ;
#148 = ORIENTED_EDGE ( 'NONE', *, *, #368, .F. ) ;
#149 = PERSON_AND_ORGANIZATION ( #204, #175 ) ;
#150 = CARTESIAN_POINT ( 'NONE',  ( 6.619266704890104357E-16, 0.000000000000000000, 0.1895833333333332704 ) ) ;
#151 = EDGE_LOOP ( 'NONE', ( #45 ) ) ;
#152 = APPROVAL_STATUS ( 'not_yet_approved' ) ;
#153 = CONICAL_SURFACE ( 'NONE', #29, 0.3540741737109293075, 0.2617993877991426355 ) ;
#154 = DATE_AND_TIME ( #379, #41 ) ;
#155 = ORIENTED_EDGE ( 'NONE', *, *, #303, .T. ) ;
#156 = CYLINDRICAL_SURFACE ( 'NONE', #124, 0.5949999999999998623 ) ;
#157 = ORIENTED_EDGE ( 'NONE', *, *, #294, .T. ) ;
#158 = DIRECTION ( 'NONE',  ( 1.000000000000000000, 0.000000000000000000, -3.462158197852872240E-15 ) ) ;
#159 = PRODUCT_DEFINITION_FORMATION_WITH_SPECIFIED_SOURCE ( 'ANY', '', #280, .NOT_KNOWN. ) ;
#160 = SHAPE_DEFINITION_REPRESENTATION ( #311, #139 ) ;
#161 = CIRCLE ( 'NONE', #146, 0.5949999999999998623 ) ;
#162 = DIRECTION ( 'NONE',  ( 3.491481338843133355E-15, -0.000000000000000000, 1.000000000000000000 ) ) ;
#163 = CARTESIAN_POINT ( 'NONE',  ( 1.316288464743861212E-13, 0.000000000000000000, 37.69999999999999574 ) ) ;
#164 = DIRECTION ( 'NONE',  ( 1.000000000000000000, 0.000000000000000000, -3.462158197852872240E-15 ) ) ;
#165 = EDGE_CURVE ( 'NONE', #265, #265, #198, .T. ) ;
#166 = FACE_OUTER_BOUND ( 'NONE', #182, .T. ) ;
#167 = LOCAL_TIME ( 10, 26, 51.00000000000000000, #32 ) ;
#168 = ADVANCED_FACE ( 'NONE', ( #254, #320 ), #126, .T. ) ;
#169 = APPROVAL_ROLE ( '' ) ;
#170 = CARTESIAN_POINT ( 'NONE',  ( 0.3929274057836308898, 0.000000000000000000, 0.3937499999999969358 ) ) ;
#171 = DATE_AND_TIME ( #201, #167 ) ;
#172 = DIRECTION ( 'NONE',  ( 1.000000000000000000, 0.000000000000000000, 0.000000000000000000 ) ) ;
#173 = LOCAL_TIME ( 10, 26, 51.00000000000000000, #135 ) ;
#174 = DIRECTION ( 'NONE',  ( 1.000000000000000000, 0.000000000000000000, -3.469446951953614189E-15 ) ) ;
#175 = ORGANIZATION ( 'UNSPECIFIED', 'UNSPECIFIED', '' ) ;
#176 = ORIENTED_EDGE ( 'NONE', *, *, #108, .F. ) ;
#177 = VERTEX_POINT ( 'NONE', #268 ) ;
#178 = APPROVAL_DATE_TIME ( #171, #324 ) ;
#179 = EDGE_LOOP ( 'NONE', ( #11 ) ) ;
#180 = DIRECTION ( 'NONE',  ( 1.000000000000000000, 0.000000000000000000, 0.000000000000000000 ) ) ;
#181 = AXIS2_PLACEMENT_3D ( 'NONE', #232, #392, #174 ) ;
#182 = EDGE_LOOP ( 'NONE', ( #371 ) ) ;
#183 = DATE_AND_TIME ( #62, #15 ) ;
#184 = CARTESIAN_POINT ( 'NONE',  ( 1.326762908760390423E-13, 0.000000000000000000, 38.00000000000000000 ) ) ;
#185 = EDGE_LOOP ( 'NONE', ( #235 ) ) ;
#186 = CARTESIAN_POINT ( 'NONE',  ( 0.000000000000000000, 0.000000000000000000, 0.000000000000000000 ) ) ;
#187 = CIRCLE ( 'NONE', #72, 0.5949999999999999734 ) ;
#188 = ORIENTED_EDGE ( 'NONE', *, *, #227, .T. ) ;
#189 = FACE_BOUND ( 'NONE', #75, .T. ) ;
#190 = CARTESIAN_POINT ( 'NONE',  ( 1.883945139084117760E-15, 0.000000000000000000, 0.5395833333333364124 ) ) ;
#191 = APPROVAL_STATUS ( 'not_yet_approved' ) ;
#192 = DIRECTION ( 'NONE',  ( 3.491481338843133355E-15, -0.000000000000000000, 1.000000000000000000 ) ) ;
#193 = APPROVAL_PERSON_ORGANIZATION ( #106, #324, #169 ) ;
#194 = FACE_OUTER_BOUND ( 'NONE', #64, .T. ) ;
#195 = DIRECTION ( 'NONE',  ( 3.491481338843133355E-15, -0.000000000000000000, 1.000000000000000000 ) ) ;
#196 = CYLINDRICAL_SURFACE ( 'NONE', #49, 0.3929274057836295020 ) ;
#197 = DESIGN_CONTEXT ( 'detailed design', #299, 'design' ) ;
#198 = CIRCLE ( 'NONE', #270, 0.3929274057836294465 ) ;
#199 = CARTESIAN_POINT ( 'NONE',  ( 0.3929274057836317779, 0.000000000000000000, 0.6562499999999956701 ) ) ;
#200 = FACE_OUTER_BOUND ( 'NONE', #345, .T. ) ;
#201 = CALENDAR_DATE ( 2023, 27, 9 ) ;
#202 = CARTESIAN_POINT ( 'NONE',  ( 1.500000000000128120, 0.000000000000000000, 37.69999999999998863 ) ) ;
#203 = EDGE_CURVE ( 'NONE', #269, #269, #393, .T. ) ;
#204 = PERSON ( 'UNSPECIFIED', 'UNSPECIFIED', 'UNSPECIFIED', ('UNSPECIFIED'), ('UNSPECIFIED'), ('UNSPECIFIED') ) ;
#205 = DIRECTION ( 'NONE',  ( 3.491481338843133355E-15, -0.000000000000000000, 1.000000000000000000 ) ) ;
#206 = EDGE_LOOP ( 'NONE', ( #188 ) ) ;
#207 = DIRECTION ( 'NONE',  ( -1.000000000000000000, 0.000000000000000000, 3.491481338843133355E-15 ) ) ;
#208 = CC_DESIGN_DATE_AND_TIME_ASSIGNMENT ( #281, #39, ( #387 ) ) ;
#209 = APPLICATION_PROTOCOL_DEFINITION ( 'international standard', 'config_control_design', 1994, #299 ) ;
#210 = DIRECTION ( 'NONE',  ( 3.491481338843133355E-15, -0.000000000000000000, 1.000000000000000000 ) ) ;
#211 = EDGE_LOOP ( 'NONE', ( #97 ) ) ;
#212 = DIRECTION ( 'NONE',  ( 0.000000000000000000, 0.000000000000000000, 1.000000000000000000 ) ) ;
#213 = DIRECTION ( 'NONE',  ( 1.000000000000000000, 0.000000000000000000, -3.449117306806458358E-15 ) ) ;
#214 = EDGE_LOOP ( 'NONE', ( #123 ) ) ;
#215 = CARTESIAN_POINT ( 'NONE',  ( 1.374770777169477842E-15, 0.000000000000000000, 0.3937499999999982681 ) ) ;
#216 = APPROVAL_ROLE ( '' ) ;
#217 = EDGE_LOOP ( 'NONE', ( #14 ) ) ;
#218 = COORDINATED_UNIVERSAL_TIME_OFFSET ( 1, 0, .AHEAD. ) ;
#219 = FACE_OUTER_BOUND ( 'NONE', #211, .T. ) ;
#220 = AXIS2_PLACEMENT_3D ( 'NONE', #150, #381, #277 ) ;
#221 = CARTESIAN_POINT ( 'NONE',  ( 0.000000000000000000, 0.000000000000000000, 0.000000000000000000 ) ) ;
#222 = DIRECTION ( 'NONE',  ( 3.491481338843133355E-15, -0.000000000000000000, 1.000000000000000000 ) ) ;
#223 = CARTESIAN_POINT ( 'NONE',  ( 1.883945139084117760E-15, 0.000000000000000000, 0.5395833333333364124 ) ) ;
#224 = FACE_OUTER_BOUND ( 'NONE', #365, .T. ) ;
#225 = FACE_OUTER_BOUND ( 'NONE', #273, .T. ) ;
#226 = CARTESIAN_POINT ( 'NONE',  ( 1.871021669421260278E-14, 0.000000000000000000, 5.358819045102512391 ) ) ;
#227 = EDGE_CURVE ( 'NONE', #298, #298, #2, .T. ) ;
#228 = CIRCLE ( 'NONE', #93, 0.3200000000000000067 ) ;
#229 = DIRECTION ( 'NONE',  ( 3.491481338843133355E-15, -0.000000000000000000, 1.000000000000000000 ) ) ;
#230 = VERTEX_POINT ( 'NONE', #362 ) ;
#231 = CIRCLE ( 'NONE', #83, 0.3929274057836295020 ) ;
#232 = CARTESIAN_POINT ( 'NONE',  ( 3.364207225192346376E-14, 0.000000000000000000, 9.635472450518788534 ) ) ;
#233 = AXIS2_PLACEMENT_3D ( 'NONE', #96, #210, #241 ) ;
#234 = VERTEX_POINT ( 'NONE', #121 ) ;
#235 = ORIENTED_EDGE ( 'NONE', *, *, #58, .F. ) ;
#236 = VERTEX_POINT ( 'NONE', #366 ) ;
#237 = ORIENTED_EDGE ( 'NONE', *, *, #290, .F. ) ;
#238 = CARTESIAN_POINT ( 'NONE',  ( 1.326762908760390423E-13, 1.200000000000000622, 38.00000000000000000 ) ) ;
#239 = ORIENTED_EDGE ( 'NONE', *, *, #227, .F. ) ;
#240 = CONICAL_SURFACE ( 'NONE', #300, 0.3929274057836295020, 1.047197551196596743 ) ;
#241 = DIRECTION ( 'NONE',  ( 1.000000000000000000, 0.000000000000000000, 0.000000000000000000 ) ) ;
#242 = PRODUCT_RELATED_PRODUCT_CATEGORY ( 'detail', '', ( #280 ) ) ;
#243 = EDGE_LOOP ( 'NONE', ( #239 ) ) ;
#244 = FACE_OUTER_BOUND ( 'NONE', #185, .T. ) ;
#245 = CALENDAR_DATE ( 2023, 27, 9 ) ;
#246 = AXIS2_PLACEMENT_3D ( 'NONE', #26, #229, #264 ) ;
#247 = SECURITY_CLASSIFICATION ( '', '', #119 ) ;
#248 = ORIENTED_EDGE ( 'NONE', *, *, #364, .T. ) ;
#249 = CC_DESIGN_PERSON_AND_ORGANIZATION_ASSIGNMENT ( #378, #65, ( #280 ) ) ;
#250 = FACE_OUTER_BOUND ( 'NONE', #147, .T. ) ;
#251 = PLANE ( 'NONE',  #315 ) ;
#252 = PERSON_AND_ORGANIZATION ( #204, #175 ) ;
#253 = CARTESIAN_POINT ( 'NONE',  ( 1.326762908760390423E-13, 0.000000000000000000, 38.00000000000000000 ) ) ;
#254 = FACE_BOUND ( 'NONE', #355, .T. ) ;
#255 = AXIS2_PLACEMENT_3D ( 'NONE', #186, #222, #375 ) ;
#256 = AXIS2_PLACEMENT_3D ( 'NONE', #238, #63, #340 ) ;
#257 = ADVANCED_FACE ( 'NONE', ( #391, #224 ), #109, .T. ) ;
#258 = CARTESIAN_POINT ( 'NONE',  ( 1.326762908760390423E-13, 0.000000000000000000, 38.00000000000000000 ) ) ;
#259 = DIRECTION ( 'NONE',  ( 1.000000000000000000, 0.000000000000000000, -4.625929269271495577E-15 ) ) ;
#260 = CIRCLE ( 'NONE', #181, 1.500000000000000000 ) ;
#261 = CC_DESIGN_PERSON_AND_ORGANIZATION_ASSIGNMENT ( #117, #31, ( #159 ) ) ;
#262 = VERTEX_POINT ( 'NONE', #95 ) ;
#263 = CIRCLE ( 'NONE', #115, 0.5949999999999998623 ) ;
#264 = DIRECTION ( 'NONE',  ( 1.000000000000000000, 0.000000000000000000, -5.782411586589354089E-15 ) ) ;
#265 = VERTEX_POINT ( 'NONE', #28 ) ;
#266 = MANIFOLD_SOLID_BREP ( 'Corps-Déplacer/Copier1', #319 ) ;
#267 = CIRCLE ( 'NONE', #246, 1.200000000000000622 ) ;
#268 = CARTESIAN_POINT ( 'NONE',  ( 0.3200000000000024492, 0.000000000000000000, 0.6999999999999981792 ) ) ;
#269 = VERTEX_POINT ( 'NONE', #170 ) ;
#270 = AXIS2_PLACEMENT_3D ( 'NONE', #79, #140, #110 ) ;
#271 = ORIENTED_EDGE ( 'NONE', *, *, #85, .T. ) ;
#272 = AXIS2_PLACEMENT_3D ( 'NONE', #18, #112, #82 ) ;
#273 = EDGE_LOOP ( 'NONE', ( #248 ) ) ;
#274 = DIRECTION ( 'NONE',  ( 1.000000000000000000, 0.000000000000000000, -3.491481338843133355E-15 ) ) ;
#275 = ORIENTED_EDGE ( 'NONE', *, *, #203, .F. ) ;
#276 = CALENDAR_DATE ( 2023, 27, 9 ) ;
#277 = DIRECTION ( 'NONE',  ( -1.000000000000000000, 0.000000000000000000, 3.507712910982514647E-15 ) ) ;
#278 = PERSON_AND_ORGANIZATION_ROLE ( 'classification_officer' ) ;
#279 = ORIENTED_EDGE ( 'NONE', *, *, #165, .T. ) ;
#280 = PRODUCT ( '961154', '961154', '', ( #76 ) ) ;
#281 = DATE_AND_TIME ( #276, #334 ) ;
#282 = EDGE_CURVE ( 'NONE', #230, #230, #383, .T. ) ;
#283 = CC_DESIGN_APPROVAL ( #47, ( #387 ) ) ;
#284 = ADVANCED_FACE ( 'NONE', ( #359, #318 ), #55, .T. ) ;
#285 = FACE_OUTER_BOUND ( 'NONE', #122, .T. ) ;
#286 = APPROVAL_DATE_TIME ( #154, #35 ) ;
#287 = DIRECTION ( 'NONE',  ( 1.000000000000000000, 0.000000000000000000, -4.625929269271490844E-15 ) ) ;
#288 = ADVANCED_FACE ( 'NONE', ( #136, #138 ), #153, .T. ) ;
#289 = FACE_OUTER_BOUND ( 'NONE', #179, .T. ) ;
#290 = EDGE_CURVE ( 'NONE', #177, #177, #228, .T. ) ;
#291 = DIRECTION ( 'NONE',  ( 1.000000000000000000, 0.000000000000000000, -2.449661122972862797E-15 ) ) ;
#292 = CARTESIAN_POINT ( 'NONE',  ( 1.780655482809997696E-14, 0.000000000000000000, 5.099999999999999645 ) ) ;
#293 = DIRECTION ( 'NONE',  ( 3.491481338843133355E-15, -0.000000000000000000, 1.000000000000000000 ) ) ;
#294 = EDGE_CURVE ( 'NONE', #360, #360, #263, .T. ) ;
#295 = CARTESIAN_POINT ( 'NONE',  ( 0.5950000000000015277, 0.000000000000000000, 0.5104166666666638541 ) ) ;
#296 = VERTEX_POINT ( 'NONE', #295 ) ;
#297 = AXIS2_PLACEMENT_3D ( 'NONE', #326, #120, #207 ) ;
#298 = VERTEX_POINT ( 'NONE', #202 ) ;
#299 = APPLICATION_CONTEXT ( 'configuration controlled 3d designs of mechanical parts and assemblies' ) ;
#300 = AXIS2_PLACEMENT_3D ( 'NONE', #215, #98, #213 ) ;
#301 = AXIS2_PLACEMENT_3D ( 'NONE', #20, #192, #356 ) ;
#302 = EDGE_LOOP ( 'NONE', ( #148 ) ) ;
#303 = EDGE_CURVE ( 'NONE', #1, #1, #30, .T. ) ;
#304 = EDGE_LOOP ( 'NONE', ( #40 ) ) ;
#305 = CARTESIAN_POINT ( 'NONE',  ( 1.782110266701180152E-15, 0.000000000000000000, 0.5104166666666659635 ) ) ;
#306 = DIRECTION ( 'NONE',  ( 1.000000000000000000, 0.000000000000000000, -3.507712910982514647E-15 ) ) ;
#307 = CC_DESIGN_PERSON_AND_ORGANIZATION_ASSIGNMENT ( #327, #395, ( #159 ) ) ;
#308 = ORIENTED_EDGE ( 'NONE', *, *, #368, .T. ) ;
#309 = DIRECTION ( 'NONE',  ( 3.491481338843133355E-15, -0.000000000000000000, 1.000000000000000000 ) ) ;
#310 = ORIENTED_EDGE ( 'NONE', *, *, #382, .F. ) ;
#311 = PRODUCT_DEFINITION_SHAPE ( 'NONE', 'NONE',  #387 ) ;
#312 = FACE_BOUND ( 'NONE', #130, .T. ) ;
#313 = COORDINATED_UNIVERSAL_TIME_OFFSET ( 1, 0, .AHEAD. ) ;
#314 = FACE_OUTER_BOUND ( 'NONE', #99, .T. ) ;
#315 = AXIS2_PLACEMENT_3D ( 'NONE', #349, #10, #274 ) ;
#316 = CARTESIAN_POINT ( 'NONE',  ( 2.444036937190190588E-15, 0.000000000000000000, 0.6999999999999992895 ) ) ;
#317 = DIRECTION ( 'NONE',  ( 1.000000000000000000, 0.000000000000000000, -3.491481338843133355E-15 ) ) ;
#318 = FACE_BOUND ( 'NONE', #338, .T. ) ;
#319 = CLOSED_SHELL ( 'NONE', ( #8, #284, #111, #53, #331, #19, #5, #89, #257, #390, #373, #134, #288, #127, #168, #101 ) ) ;
#320 = FACE_OUTER_BOUND ( 'NONE', #206, .T. ) ;
#321 = AXIS2_PLACEMENT_3D ( 'NONE', #384, #81, #317 ) ;
#322 = CIRCLE ( 'NONE', #255, 0.3171501829524911442 ) ;
#323 = DIRECTION ( 'NONE',  ( 3.491481338843133355E-15, -0.000000000000000000, 1.000000000000000000 ) ) ;
#324 = APPROVAL ( #191, 'UNSPECIFIED' ) ;
#325 = VERTEX_POINT ( 'NONE', #3 ) ;
#326 = CARTESIAN_POINT ( 'NONE',  ( 2.444036937190193349E-15, 0.3929274057836294465, 0.6999999999999999556 ) ) ;
#327 = PERSON_AND_ORGANIZATION ( #204, #175 ) ;
#328 = AXIS2_PLACEMENT_3D ( 'NONE', #163, #23, #259 ) ;
#329 = FACE_OUTER_BOUND ( 'NONE', #151, .T. ) ;
#330 = FACE_BOUND ( 'NONE', #377, .T. ) ;
#331 = ADVANCED_FACE ( 'NONE', ( #86, #225 ), #196, .T. ) ;
#332 = CC_DESIGN_APPROVAL ( #35, ( #247 ) ) ;
#333 =( LENGTH_UNIT ( ) NAMED_UNIT ( * ) SI_UNIT ( .MILLI., .METRE. ) );
#334 = LOCAL_TIME ( 10, 26, 51.00000000000000000, #336 ) ;
#335 = EDGE_LOOP ( 'NONE', ( #176 ) ) ;
#336 = COORDINATED_UNIVERSAL_TIME_OFFSET ( 1, 0, .AHEAD. ) ;
#337 = FACE_OUTER_BOUND ( 'NONE', #243, .T. ) ;
#338 = EDGE_LOOP ( 'NONE', ( #271 ) ) ;
#339 = APPLICATION_PROTOCOL_DEFINITION ( 'international standard', 'config_control_design', 1994, #22 ) ;
#340 = DIRECTION ( 'NONE',  ( -1.000000000000000000, 0.000000000000000000, 3.491481338843133355E-15 ) ) ;
#341 = CC_DESIGN_APPROVAL ( #324, ( #159 ) ) ;
#342 = CC_DESIGN_SECURITY_CLASSIFICATION ( #247, ( #159 ) ) ;
#343 = ORIENTED_EDGE ( 'NONE', *, *, #108, .T. ) ;
#344 = FACE_OUTER_BOUND ( 'NONE', #214, .T. ) ;
#345 = EDGE_LOOP ( 'NONE', ( #279 ) ) ;
#346 = APPROVAL_DATE_TIME ( #183, #47 ) ;
#347 = TOROIDAL_SURFACE ( 'NONE', #80, 1.319999999999999618, 1.000000000000000000 ) ;
#348 = CONICAL_SURFACE ( 'NONE', #220, 0.5949999999999999734, 1.047197551196596965 ) ;
#349 = CARTESIAN_POINT ( 'NONE',  ( 9.274154433161249161E-34, 0.000000000000000000, 2.656223400075265561E-19 ) ) ;
#350 = DIRECTION ( 'NONE',  ( 3.491481338843133355E-15, -0.000000000000000000, 1.000000000000000000 ) ) ;
#351 = DIRECTION ( 'NONE',  ( 3.491481338843133355E-15, -0.000000000000000000, 1.000000000000000000 ) ) ;
#352 = DIRECTION ( 'NONE',  ( -3.491481338843133355E-15, 0.000000000000000000, -1.000000000000000000 ) ) ;
#353 = AXIS2_PLACEMENT_3D ( 'NONE', #226, #323, #291 ) ;
#354 = DIRECTION ( 'NONE',  ( -1.000000000000000000, 0.000000000000000000, 4.625929269271495577E-15 ) ) ;
#355 = EDGE_LOOP ( 'NONE', ( #310 ) ) ;
#356 = DIRECTION ( 'NONE',  ( 1.000000000000000000, 0.000000000000000000, -3.449117306806458358E-15 ) ) ;
#357 = UNCERTAINTY_MEASURE_WITH_UNIT (LENGTH_MEASURE( 1.000000000000000082E-05 ), #333, 'distance_accuracy_value', 'NONE');
#358 = AXIS2_PLACEMENT_3D ( 'NONE', #221, #212, #69 ) ;
#359 = FACE_OUTER_BOUND ( 'NONE', #302, .T. ) ;
#360 = VERTEX_POINT ( 'NONE', #87 ) ;
#361 = EDGE_CURVE ( 'NONE', #325, #325, #260, .T. ) ;
#362 = CARTESIAN_POINT ( 'NONE',  ( 0.3540741737109480147, 0.000000000000000000, 5.358819045102511502 ) ) ;
#363 = CARTESIAN_POINT ( 'NONE',  ( 0.3200000000000173261, 0.000000000000000000, 5.099999999999999645 ) ) ;
#364 = EDGE_CURVE ( 'NONE', #234, #234, #231, .T. ) ;
#365 = EDGE_LOOP ( 'NONE', ( #155 ) ) ;
#366 = CARTESIAN_POINT ( 'NONE',  ( 0.5950000000000005285, 0.000000000000000000, 0.1604166666666677343 ) ) ;
#367 = ORIENTED_EDGE ( 'NONE', *, *, #364, .F. ) ;
#368 = EDGE_CURVE ( 'NONE', #236, #236, #78, .T. ) ;
#369 = CYLINDRICAL_SURFACE ( 'NONE', #233, 0.5949999999999999734 ) ;
#370 = CONICAL_SURFACE ( 'NONE', #44, 0.5949999999999998623, 1.047197551196622500 ) ;
#371 = ORIENTED_EDGE ( 'NONE', *, *, #282, .F. ) ;
#372 = CC_DESIGN_PERSON_AND_ORGANIZATION_ASSIGNMENT ( #252, #278, ( #247 ) ) ;
#373 = ADVANCED_FACE ( 'NONE', ( #61, #329 ), #143, .T. ) ;
#374 = EDGE_LOOP ( 'NONE', ( #73 ) ) ;
#375 = DIRECTION ( 'NONE',  ( 1.000000000000000000, 0.000000000000000000, -3.491481338843133355E-15 ) ) ;
#376 = AXIS2_PLACEMENT_3D ( 'NONE', #36, #114, #33 ) ;
#377 = EDGE_LOOP ( 'NONE', ( #237 ) ) ;
#378 = PERSON_AND_ORGANIZATION ( #204, #175 ) ;
#379 = CALENDAR_DATE ( 2023, 27, 9 ) ;
#380 = AXIS2_PLACEMENT_3D ( 'NONE', #258, #389, #287 ) ;
#381 = DIRECTION ( 'NONE',  ( -3.491481338843133355E-15, 0.000000000000000000, -1.000000000000000000 ) ) ;
#382 = EDGE_CURVE ( 'NONE', #262, #262, #267, .T. ) ;
#383 = CIRCLE ( 'NONE', #353, 0.3540741737109293075 ) ;
#384 = CARTESIAN_POINT ( 'NONE',  ( 0.000000000000000000, 0.000000000000000000, 0.000000000000000000 ) ) ;
#385 = DATE_AND_TIME ( #245, #173 ) ;
#386 = CARTESIAN_POINT ( 'NONE',  ( 1.326762908760390423E-13, 0.000000000000000000, 38.00000000000000000 ) ) ;
#387 = PRODUCT_DEFINITION ( 'UNKNOWN', '', #159, #197 ) ;
#388 = CYLINDRICAL_SURFACE ( 'NONE', #380, 1.499999999999998224 ) ;
#389 = DIRECTION ( 'NONE',  ( 3.491481338843133355E-15, -0.000000000000000000, 1.000000000000000000 ) ) ;
#390 = ADVANCED_FACE ( 'NONE', ( #330, #200 ), #394, .F. ) ;
#391 = FACE_OUTER_BOUND ( 'NONE', #304, .T. ) ;
#392 = DIRECTION ( 'NONE',  ( 3.491481338843133355E-15, -0.000000000000000000, 1.000000000000000000 ) ) ;
#393 = CIRCLE ( 'NONE', #301, 0.3929274057836295020 ) ;
#394 = PLANE ( 'NONE',  #297 ) ;
#395 = PERSON_AND_ORGANIZATION_ROLE ( 'design_supplier' ) ;
ENDSEC;
END-ISO-10303-21;
