ISO-10303-21;
HEADER;
FILE_DESCRIPTION (( 'STEP AP203' ),
    '1' );
FILE_NAME ('961153.step',
    '2023-09-27T08:26:50',
    ( '' ),
    ( '' ),
    'SwSTEP 2.0',
    'SolidWorks 2022',
    '' );
FILE_SCHEMA (( 'CONFIG_CONTROL_DESIGN' ));
ENDSEC;

DATA;
#1 = DATE_AND_TIME ( #24, #318 ) ;
#2 = DIRECTION ( 'NONE',  ( 3.491481338843133355E-15, -0.000000000000000000, 1.000000000000000000 ) ) ;
#3 = AXIS2_PLACEMENT_3D ( 'NONE', #71, #50, #103 ) ;
#4 = FACE_OUTER_BOUND ( 'NONE', #64, .T. ) ;
#5 = CARTESIAN_POINT ( 'NONE',  ( 5.673657175620194254E-16, 0.000000000000000000, 0.1625000000000029199 ) ) ;
#6 = PRODUCT_DEFINITION ( 'UNKNOWN', '', #235, #149 ) ;
#7 = VERTEX_POINT ( 'NONE', #61 ) ;
#8 = ORIENTED_EDGE ( 'NONE', *, *, #213, .F. ) ;
#9 = ADVANCED_FACE ( 'NONE', ( #293, #267 ), #42, .T. ) ;
#10 = VERTEX_POINT ( 'NONE', #95 ) ;
#11 = EDGE_LOOP ( 'NONE', ( #219 ) ) ;
#12 = VERTEX_POINT ( 'NONE', #129 ) ;
#13 = AXIS2_PLACEMENT_3D ( 'NONE', #162, #250, #281 ) ;
#14 = VERTEX_POINT ( 'NONE', #136 ) ;
#15 = CC_DESIGN_PERSON_AND_ORGANIZATION_ASSIGNMENT ( #384, #389, ( #249 ) ) ;
#16 = DIRECTION ( 'NONE',  ( 1.000000000000000000, 0.000000000000000000, 0.000000000000000000 ) ) ;
#17 = DIRECTION ( 'NONE',  ( 1.000000000000000000, 0.000000000000000000, 0.000000000000000000 ) ) ;
#18 = FACE_OUTER_BOUND ( 'NONE', #340, .T. ) ;
#19 = AXIS2_PLACEMENT_3D ( 'NONE', #360, #112, #106 ) ;
#20 = VERTEX_POINT ( 'NONE', #108 ) ;
#21 = ORIENTED_EDGE ( 'NONE', *, *, #79, .T. ) ;
#22 = APPROVAL_DATE_TIME ( #337, #369 ) ;
#23 = EDGE_LOOP ( 'NONE', ( #87 ) ) ;
#24 = CALENDAR_DATE ( 2023, 27, 9 ) ;
#25 = CARTESIAN_POINT ( 'NONE',  ( 1.178374951859548830E-15, 0.000000000000000000, 0.3374999999999975242 ) ) ;
#26 = CIRCLE ( 'NONE', #276, 0.3517949192431112926 ) ;
#27 = ADVANCED_FACE ( 'NONE', ( #237, #390 ), #53, .F. ) ;
#28 = DIRECTION ( 'NONE',  ( -3.491481338843133355E-15, 0.000000000000000000, -1.000000000000000000 ) ) ;
#29 = AXIS2_PLACEMENT_3D ( 'NONE', #303, #120, #211 ) ;
#30 = FACE_BOUND ( 'NONE', #59, .T. ) ;
#31 = DIRECTION ( 'NONE',  ( 3.491481338843133355E-15, -0.000000000000000000, 1.000000000000000000 ) ) ;
#32 = DIRECTION ( 'NONE',  ( 1.000000000000000000, 0.000000000000000000, -2.990902544787603621E-15 ) ) ;
#33 = CARTESIAN_POINT ( 'NONE',  ( 0.000000000000000000, 0.000000000000000000, 0.000000000000000000 ) ) ;
#34 = DIRECTION ( 'NONE',  ( -3.491481338843133355E-15, 0.000000000000000000, -1.000000000000000000 ) ) ;
#35 = ORIENTED_EDGE ( 'NONE', *, *, #177, .T. ) ;
#36 = CIRCLE ( 'NONE', #261, 0.3517949192431112926 ) ;
#37 = VERTEX_POINT ( 'NONE', #157 ) ;
#38 = FACE_OUTER_BOUND ( 'NONE', #205, .T. ) ;
#39 = AXIS2_PLACEMENT_3D ( 'NONE', #364, #240, #277 ) ;
#40 = EDGE_CURVE ( 'NONE', #7, #7, #167, .T. ) ;
#41 = CLOSED_SHELL ( 'NONE', ( #146, #283, #160, #309, #9, #132, #257, #299, #65, #143, #304, #27, #105, #372, #153, #316 ) ) ;
#42 = CYLINDRICAL_SURFACE ( 'NONE', #133, 0.3517949192431112926 ) ;
#43 = CIRCLE ( 'NONE', #39, 1.500000000000000000 ) ;
#44 = COORDINATED_UNIVERSAL_TIME_OFFSET ( 1, 0, .AHEAD. ) ;
#45 = DIRECTION ( 'NONE',  ( 3.491481338843133355E-15, -0.000000000000000000, 1.000000000000000000 ) ) ;
#46 = VERTEX_POINT ( 'NONE', #170 ) ;
#47 = ORIENTED_EDGE ( 'NONE', *, *, #79, .F. ) ;
#48 = ORIENTED_EDGE ( 'NONE', *, *, #88, .F. ) ;
#49 = APPLICATION_CONTEXT ( 'configuration controlled 3d designs of mechanical parts and assemblies' ) ;
#50 = DIRECTION ( 'NONE',  ( 3.491481338843133355E-15, -0.000000000000000000, 1.000000000000000000 ) ) ;
#51 = FACE_OUTER_BOUND ( 'NONE', #118, .T. ) ;
#52 = ORIENTED_EDGE ( 'NONE', *, *, #330, .T. ) ;
#53 = TOROIDAL_SURFACE ( 'NONE', #307, 1.289999999999999591, 1.000000000000000000 ) ;
#54 = ORIENTED_EDGE ( 'NONE', *, *, #217, .T. ) ;
#55 = CARTESIAN_POINT ( 'NONE',  ( 1.326762908760390423E-13, 0.000000000000000000, 38.00000000000000000 ) ) ;
#56 = CIRCLE ( 'NONE', #232, 0.5250000000000000222 ) ;
#57 = APPROVAL_ROLE ( '' ) ;
#58 = FACE_OUTER_BOUND ( 'NONE', #375, .T. ) ;
#59 = EDGE_LOOP ( 'NONE', ( #225 ) ) ;
#60 = FACE_OUTER_BOUND ( 'NONE', #222, .T. ) ;
#61 = CARTESIAN_POINT ( 'NONE',  ( 0.3240741737109458231, 0.000000000000000000, 4.758819045102508305 ) ) ;
#62 = AXIS2_PLACEMENT_3D ( 'NONE', #223, #294, #16 ) ;
#63 = FACE_OUTER_BOUND ( 'NONE', #128, .T. ) ;
#64 = EDGE_LOOP ( 'NONE', ( #241 ) ) ;
#65 = ADVANCED_FACE ( 'NONE', ( #18, #319 ), #114, .T. ) ;
#66 = FACE_OUTER_BOUND ( 'NONE', #145, .T. ) ;
#67 = AXIS2_PLACEMENT_3D ( 'NONE', #33, #176, #122 ) ;
#68 = PERSON_AND_ORGANIZATION_ROLE ( 'creator' ) ;
#69 = CIRCLE ( 'NONE', #371, 0.2868430139592783590 ) ;
#70 = CARTESIAN_POINT ( 'NONE',  ( 0.2900000000000151901, 0.000000000000000000, 4.499999999999996447 ) ) ;
#71 = CARTESIAN_POINT ( 'NONE',  ( 1.661532789090671330E-14, 0.000000000000000000, 4.758819045102509193 ) ) ;
#72 = DATE_AND_TIME ( #262, #183 ) ;
#73 = DIRECTION ( 'NONE',  ( 3.491481338843133355E-15, -0.000000000000000000, 1.000000000000000000 ) ) ;
#74 = CIRCLE ( 'NONE', #265, 0.3517949192431112926 ) ;
#75 = VERTEX_POINT ( 'NONE', #259 ) ;
#76 = CC_DESIGN_PERSON_AND_ORGANIZATION_ASSIGNMENT ( #80, #297, ( #235 ) ) ;
#77 =( NAMED_UNIT ( * ) PLANE_ANGLE_UNIT ( ) SI_UNIT ( $, .RADIAN. ) );
#78 = EDGE_LOOP ( 'NONE', ( #166 ) ) ;
#79 = EDGE_CURVE ( 'NONE', #37, #37, #26, .T. ) ;
#80 = PERSON_AND_ORGANIZATION ( #381, #359 ) ;
#81 = CIRCLE ( 'NONE', #348, 0.2899999999999994804 ) ;
#82 = DIRECTION ( 'NONE',  ( 1.000000000000000000, 0.000000000000000000, -3.390106918826424590E-15 ) ) ;
#83 = DIRECTION ( 'NONE',  ( 1.000000000000000000, 0.000000000000000000, -3.544202687863989290E-15 ) ) ;
#84 = EDGE_LOOP ( 'NONE', ( #54 ) ) ;
#85 = CIRCLE ( 'NONE', #236, 0.2899999999999999800 ) ;
#86 = DIRECTION ( 'NONE',  ( 1.000000000000000000, 0.000000000000000000, -3.510749891857823562E-15 ) ) ;
#87 = ORIENTED_EDGE ( 'NONE', *, *, #268, .F. ) ;
#88 = EDGE_CURVE ( 'NONE', #10, #10, #220, .T. ) ;
#89 = DIRECTION ( 'NONE',  ( 3.491481338843133355E-15, -0.000000000000000000, 1.000000000000000000 ) ) ;
#90 = AXIS2_PLACEMENT_3D ( 'NONE', #370, #34, #125 ) ;
#91 = UNCERTAINTY_MEASURE_WITH_UNIT (LENGTH_MEASURE( 1.000000000000000082E-05 ), #383, 'distance_accuracy_value', 'NONE');
#92 =( GEOMETRIC_REPRESENTATION_CONTEXT ( 3 ) GLOBAL_UNCERTAINTY_ASSIGNED_CONTEXT ( ( #91 ) ) GLOBAL_UNIT_ASSIGNED_CONTEXT ( ( #383, #77, #326 ) ) REPRESENTATION_CONTEXT ( 'NONE', 'WORKASPACE' ) );
#93 = DIRECTION ( 'NONE',  ( 3.491481338843133355E-15, -0.000000000000000000, 1.000000000000000000 ) ) ;
#94 = CARTESIAN_POINT ( 'NONE',  ( 5.673657175620194254E-16, 0.000000000000000000, 0.1625000000000029199 ) ) ;
#95 = CARTESIAN_POINT ( 'NONE',  ( 0.5250000000000016875, 0.000000000000000000, 0.4624999999999958034 ) ) ;
#96 = CONICAL_SURFACE ( 'NONE', #322, 0.5250000000000000222, 1.047197551196618059 ) ;
#97 = APPROVAL ( #354, 'UNSPECIFIED' ) ;
#98 = EDGE_LOOP ( 'NONE', ( #21 ) ) ;
#99 = ADVANCED_BREP_SHAPE_REPRESENTATION ( '961153', ( #269, #62 ), #92 ) ;
#100 = DIRECTION ( 'NONE',  ( -3.491481338843133355E-15, 0.000000000000000000, -1.000000000000000000 ) ) ;
#101 = APPLICATION_PROTOCOL_DEFINITION ( 'international standard', 'config_control_design', 1994, #284 ) ;
#102 = VERTEX_POINT ( 'NONE', #111 ) ;
#103 = DIRECTION ( 'NONE',  ( 1.000000000000000000, 0.000000000000000000, -2.676429682922160140E-15 ) ) ;
#104 = APPLICATION_PROTOCOL_DEFINITION ( 'international standard', 'config_control_design', 1994, #49 ) ;
#105 = ADVANCED_FACE ( 'NONE', ( #321, #229 ), #325, .T. ) ;
#106 = DIRECTION ( 'NONE',  ( 1.000000000000000000, 0.000000000000000000, -3.510749891857823562E-15 ) ) ;
#107 = CC_DESIGN_DATE_AND_TIME_ASSIGNMENT ( #1, #334, ( #189 ) ) ;
#108 = CARTESIAN_POINT ( 'NONE',  ( 0.5250000000000005773, 0.000000000000000000, 0.1625000000000010880 ) ) ;
#109 = CARTESIAN_POINT ( 'NONE',  ( 1.326762908760390423E-13, 0.000000000000000000, 38.00000000000000000 ) ) ;
#110 = CIRCLE ( 'NONE', #341, 0.3517949192431112926 ) ;
#111 = CARTESIAN_POINT ( 'NONE',  ( 1.500000000000031974, 0.000000000000000000, 9.147433974745851515 ) ) ;
#112 = DIRECTION ( 'NONE',  ( 3.491481338843133355E-15, -0.000000000000000000, 1.000000000000000000 ) ) ;
#113 = APPROVAL_STATUS ( 'not_yet_approved' ) ;
#114 = CYLINDRICAL_SURFACE ( 'NONE', #227, 0.3517949192431112926 ) ;
#115 = SHAPE_DEFINITION_REPRESENTATION ( #159, #99 ) ;
#116 = CARTESIAN_POINT ( 'NONE',  ( 2.562620027464451571E-34, 0.000000000000000000, 7.339635469206171526E-20 ) ) ;
#117 = CYLINDRICAL_SURFACE ( 'NONE', #252, 0.5250000000000000222 ) ;
#118 = EDGE_LOOP ( 'NONE', ( #48 ) ) ;
#119 = APPROVAL_DATE_TIME ( #273, #134 ) ;
#120 = DIRECTION ( 'NONE',  ( -3.491481338843133355E-15, 0.000000000000000000, -1.000000000000000000 ) ) ;
#121 = PERSON_AND_ORGANIZATION_ROLE ( 'classification_officer' ) ;
#122 = DIRECTION ( 'NONE',  ( 1.000000000000000000, 0.000000000000000000, -3.491481338843133355E-15 ) ) ;
#123 = DIRECTION ( 'NONE',  ( 3.491481338843133355E-15, -0.000000000000000000, 1.000000000000000000 ) ) ;
#124 = EDGE_CURVE ( 'NONE', #12, #12, #85, .T. ) ;
#125 = DIRECTION ( 'NONE',  ( -1.000000000000000000, 0.000000000000000000, 3.510749891857823562E-15 ) ) ;
#126 = ORIENTED_EDGE ( 'NONE', *, *, #268, .T. ) ;
#127 = DIRECTION ( 'NONE',  ( 3.491481338843133355E-15, -0.000000000000000000, 1.000000000000000000 ) ) ;
#128 = EDGE_LOOP ( 'NONE', ( #35 ) ) ;
#129 = CARTESIAN_POINT ( 'NONE',  ( 0.2900000000000020894, 0.000000000000000000, 0.6000000000000023093 ) ) ;
#130 = ORIENTED_EDGE ( 'NONE', *, *, #254, .T. ) ;
#131 = EDGE_CURVE ( 'NONE', #285, #285, #392, .T. ) ;
#132 = ADVANCED_FACE ( 'NONE', ( #138, #263 ), #315, .T. ) ;
#133 = AXIS2_PLACEMENT_3D ( 'NONE', #109, #260, #17 ) ;
#134 = APPROVAL ( #113, 'UNSPECIFIED' ) ;
#135 = VERTEX_POINT ( 'NONE', #70 ) ;
#136 = CARTESIAN_POINT ( 'NONE',  ( 0.2868430139592783590, 0.000000000000000000, -1.001507030416340788E-15 ) ) ;
#137 = EDGE_LOOP ( 'NONE', ( #336 ) ) ;
#138 = FACE_OUTER_BOUND ( 'NONE', #349, .T. ) ;
#139 = EDGE_LOOP ( 'NONE', ( #251 ) ) ;
#140 = ORIENTED_EDGE ( 'NONE', *, *, #244, .T. ) ;
#141 = PERSON_AND_ORGANIZATION ( #381, #359 ) ;
#142 = DIRECTION ( 'NONE',  ( 1.000000000000000000, 0.000000000000000000, -3.364765362886048502E-15 ) ) ;
#143 = ADVANCED_FACE ( 'NONE', ( #335, #179 ), #210, .F. ) ;
#144 = DIRECTION ( 'NONE',  ( 3.491481338843133355E-15, -0.000000000000000000, 1.000000000000000000 ) ) ;
#145 = EDGE_LOOP ( 'NONE', ( #158 ) ) ;
#146 = ADVANCED_FACE ( 'NONE', ( #366 ), #152, .F. ) ;
#147 = FACE_OUTER_BOUND ( 'NONE', #139, .T. ) ;
#148 = EDGE_LOOP ( 'NONE', ( #126 ) ) ;
#149 = DESIGN_CONTEXT ( 'detailed design', #49, 'design' ) ;
#150 = DIRECTION ( 'NONE',  ( 1.000000000000000000, 0.000000000000000000, 0.000000000000000000 ) ) ;
#151 = CONICAL_SURFACE ( 'NONE', #190, 1.499999999999996669, 0.7853981633974389531 ) ;
#152 = PLANE ( 'NONE',  #165 ) ;
#153 = ADVANCED_FACE ( 'NONE', ( #30, #342 ), #151, .T. ) ;
#154 = DIRECTION ( 'NONE',  ( 1.000000000000000000, 0.000000000000000000, -3.544202687863989290E-15 ) ) ;
#155 = CARTESIAN_POINT ( 'NONE',  ( 1.326762908760390423E-13, 0.000000000000000000, 38.00000000000000000 ) ) ;
#156 = DIRECTION ( 'NONE',  ( 3.491481338843133355E-15, -0.000000000000000000, 1.000000000000000000 ) ) ;
#157 = CARTESIAN_POINT ( 'NONE',  ( 0.3517949192431125138, 0.000000000000000000, 0.3374999999999963030 ) ) ;
#158 = ORIENTED_EDGE ( 'NONE', *, *, #244, .F. ) ;
#159 = PRODUCT_DEFINITION_SHAPE ( 'NONE', 'NONE',  #6 ) ;
#160 = ADVANCED_FACE ( 'NONE', ( #147, #58 ), #368, .T. ) ;
#161 = AXIS2_PLACEMENT_3D ( 'NONE', #5, #301, #86 ) ;
#162 = CARTESIAN_POINT ( 'NONE',  ( 1.316288464743861212E-13, 0.000000000000000000, 37.69999999999999574 ) ) ;
#163 = APPROVAL_PERSON_ORGANIZATION ( #228, #97, #258 ) ;
#164 = DIRECTION ( 'NONE',  ( 3.491481338843133355E-15, -0.000000000000000000, 1.000000000000000000 ) ) ;
#165 = AXIS2_PLACEMENT_3D ( 'NONE', #116, #343, #394 ) ;
#166 = ORIENTED_EDGE ( 'NONE', *, *, #191, .T. ) ;
#167 = CIRCLE ( 'NONE', #3, 0.3240741737109292808 ) ;
#168 = VERTEX_POINT ( 'NONE', #292 ) ;
#169 = EDGE_LOOP ( 'NONE', ( #52 ) ) ;
#170 = CARTESIAN_POINT ( 'NONE',  ( 1.200000000000133182, 0.000000000000000000, 37.99999999999999289 ) ) ;
#171 = ORIENTED_EDGE ( 'NONE', *, *, #88, .T. ) ;
#172 = LOCAL_TIME ( 10, 26, 50.00000000000000000, #328 ) ;
#173 = CARTESIAN_POINT ( 'NONE',  ( 1.571166602479410010E-14, 0.000000000000000000, 4.500000000000000000 ) ) ;
#174 = APPROVAL_STATUS ( 'not_yet_approved' ) ;
#175 = APPROVAL_PERSON_ORGANIZATION ( #239, #134, #57 ) ;
#176 = DIRECTION ( 'NONE',  ( 3.491481338843133355E-15, -0.000000000000000000, 1.000000000000000000 ) ) ;
#177 = EDGE_CURVE ( 'NONE', #46, #46, #203, .T. ) ;
#178 = PERSON_AND_ORGANIZATION ( #381, #359 ) ;
#179 = FACE_OUTER_BOUND ( 'NONE', #255, .T. ) ;
#180 = CC_DESIGN_APPROVAL ( #134, ( #189 ) ) ;
#181 = CARTESIAN_POINT ( 'NONE',  ( 1.571166602479409063E-14, 0.000000000000000000, 4.499999999999997335 ) ) ;
#182 = CIRCLE ( 'NONE', #13, 1.499999999999996669 ) ;
#183 = LOCAL_TIME ( 10, 26, 50.00000000000000000, #44 ) ;
#184 = CARTESIAN_POINT ( 'NONE',  ( 0.000000000000000000, 0.000000000000000000, 0.000000000000000000 ) ) ;
#185 = DIRECTION ( 'NONE',  ( -1.000000000000000000, 0.000000000000000000, 4.625929269271495577E-15 ) ) ;
#186 = CONICAL_SURFACE ( 'NONE', #67, 0.2868430139592783590, 1.047197551196603627 ) ;
#187 = CYLINDRICAL_SURFACE ( 'NONE', #208, 0.2899999999999997580 ) ;
#188 = ORIENTED_EDGE ( 'NONE', *, *, #256, .T. ) ;
#189 = SECURITY_CLASSIFICATION ( '', '', #362 ) ;
#190 = AXIS2_PLACEMENT_3D ( 'NONE', #338, #28, #185 ) ;
#191 = EDGE_CURVE ( 'NONE', #14, #14, #69, .T. ) ;
#192 = FACE_OUTER_BOUND ( 'NONE', #351, .T. ) ;
#193 = ORIENTED_EDGE ( 'NONE', *, *, #131, .F. ) ;
#194 = DIRECTION ( 'NONE',  ( -3.491481338843133355E-15, 0.000000000000000000, -1.000000000000000000 ) ) ;
#195 = LOCAL_TIME ( 10, 26, 50.00000000000000000, #197 ) ;
#196 = ORIENTED_EDGE ( 'NONE', *, *, #256, .F. ) ;
#197 = COORDINATED_UNIVERSAL_TIME_OFFSET ( 1, 0, .AHEAD. ) ;
#198 = CARTESIAN_POINT ( 'NONE',  ( 1.326762908760390423E-13, 0.000000000000000000, 38.00000000000000000 ) ) ;
#199 = CARTESIAN_POINT ( 'NONE',  ( 1.500000000000128120, 0.000000000000000000, 37.69999999999998863 ) ) ;
#200 = EDGE_LOOP ( 'NONE', ( #290 ) ) ;
#201 = CC_DESIGN_APPROVAL ( #97, ( #6 ) ) ;
#202 = LOCAL_TIME ( 10, 26, 50.00000000000000000, #393 ) ;
#203 = CIRCLE ( 'NONE', #391, 1.200000000000000622 ) ;
#204 = CARTESIAN_POINT ( 'NONE',  ( 0.3517949192431122363, 0.000000000000000000, 0.2624999999999976241 ) ) ;
#205 = EDGE_LOOP ( 'NONE', ( #350 ) ) ;
#206 = PERSON_AND_ORGANIZATION_ROLE ( 'creator' ) ;
#207 = CARTESIAN_POINT ( 'NONE',  ( 1.661532789090671330E-14, 0.000000000000000000, 4.758819045102509193 ) ) ;
#208 = AXIS2_PLACEMENT_3D ( 'NONE', #216, #156, #317 ) ;
#209 = CARTESIAN_POINT ( 'NONE',  ( 4.800786840909263990E-16, 0.000000000000000000, 0.1374999999999987343 ) ) ;
#210 = PLANE ( 'NONE',  #29 ) ;
#211 = DIRECTION ( 'NONE',  ( -1.000000000000000000, 0.000000000000000000, 3.491481338843133355E-15 ) ) ;
#212 = FACE_BOUND ( 'NONE', #78, .T. ) ;
#213 = EDGE_CURVE ( 'NONE', #224, #224, #36, .T. ) ;
#214 = DIRECTION ( 'NONE',  ( 3.491481338843133355E-15, -0.000000000000000000, 1.000000000000000000 ) ) ;
#215 = DIRECTION ( 'NONE',  ( -1.000000000000000000, 0.000000000000000000, 3.510749891857823562E-15 ) ) ;
#216 = CARTESIAN_POINT ( 'NONE',  ( 1.326762908760390423E-13, 0.000000000000000000, 38.00000000000000000 ) ) ;
#217 = EDGE_CURVE ( 'NONE', #20, #20, #339, .T. ) ;
#218 = FACE_OUTER_BOUND ( 'NONE', #302, .T. ) ;
#219 = ORIENTED_EDGE ( 'NONE', *, *, #191, .F. ) ;
#220 = CIRCLE ( 'NONE', #19, 0.5250000000000000222 ) ;
#221 = CARTESIAN_POINT ( 'NONE',  ( 0.5250000000000015765, 0.000000000000000000, 0.4374999999999985567 ) ) ;
#222 = EDGE_LOOP ( 'NONE', ( #345 ) ) ;
#223 = CARTESIAN_POINT ( 'NONE',  ( 0.000000000000000000, 0.000000000000000000, 0.000000000000000000 ) ) ;
#224 = VERTEX_POINT ( 'NONE', #323 ) ;
#225 = ORIENTED_EDGE ( 'NONE', *, *, #177, .F. ) ;
#226 = CC_DESIGN_APPROVAL ( #369, ( #235 ) ) ;
#227 = AXIS2_PLACEMENT_3D ( 'NONE', #198, #266, #361 ) ;
#228 = PERSON_AND_ORGANIZATION ( #381, #359 ) ;
#229 = FACE_BOUND ( 'NONE', #137, .T. ) ;
#230 = DATE_TIME_ROLE ( 'creation_date' ) ;
#231 = DIRECTION ( 'NONE',  ( 3.491481338843133355E-15, -0.000000000000000000, 1.000000000000000000 ) ) ;
#232 = AXIS2_PLACEMENT_3D ( 'NONE', #209, #395, #308 ) ;
#233 = VERTEX_POINT ( 'NONE', #204 ) ;
#234 = DIRECTION ( 'NONE',  ( 3.491481338843133355E-15, -0.000000000000000000, 1.000000000000000000 ) ) ;
#235 = PRODUCT_DEFINITION_FORMATION_WITH_SPECIFIED_SOURCE ( 'ANY', '', #249, .NOT_KNOWN. ) ;
#236 = AXIS2_PLACEMENT_3D ( 'NONE', #329, #45, #142 ) ;
#237 = FACE_OUTER_BOUND ( 'NONE', #377, .T. ) ;
#238 = DIRECTION ( 'NONE',  ( 1.000000000000000000, 0.000000000000000000, -5.782411586589354089E-15 ) ) ;
#239 = PERSON_AND_ORGANIZATION ( #381, #359 ) ;
#240 = DIRECTION ( 'NONE',  ( 3.491481338843133355E-15, -0.000000000000000000, 1.000000000000000000 ) ) ;
#241 = ORIENTED_EDGE ( 'NONE', *, *, #254, .F. ) ;
#242 = COORDINATED_UNIVERSAL_TIME_OFFSET ( 1, 0, .AHEAD. ) ;
#243 = CARTESIAN_POINT ( 'NONE',  ( 1.178374951859548830E-15, 0.000000000000000000, 0.3374999999999975242 ) ) ;
#244 = EDGE_CURVE ( 'NONE', #135, #135, #81, .T. ) ;
#245 = CALENDAR_DATE ( 2023, 27, 9 ) ;
#246 = CARTESIAN_POINT ( 'NONE',  ( 9.165138514463183642E-16, 0.000000000000000000, 0.2624999999999988454 ) ) ;
#247 = DIRECTION ( 'NONE',  ( 3.491481338843133355E-15, -0.000000000000000000, 1.000000000000000000 ) ) ;
#248 = FACE_BOUND ( 'NONE', #200, .T. ) ;
#249 = PRODUCT ( '961153', '961153', '', ( #264 ) ) ;
#250 = DIRECTION ( 'NONE',  ( 3.491481338843133355E-15, -0.000000000000000000, 1.000000000000000000 ) ) ;
#251 = ORIENTED_EDGE ( 'NONE', *, *, #217, .F. ) ;
#252 = AXIS2_PLACEMENT_3D ( 'NONE', #278, #123, #150 ) ;
#253 = DIRECTION ( 'NONE',  ( -1.000000000000000000, 0.000000000000000000, 3.491481338843133355E-15 ) ) ;
#254 = EDGE_CURVE ( 'NONE', #168, #168, #56, .T. ) ;
#255 = EDGE_LOOP ( 'NONE', ( #295 ) ) ;
#256 = EDGE_CURVE ( 'NONE', #75, #75, #110, .T. ) ;
#257 = ADVANCED_FACE ( 'NONE', ( #51, #60 ), #117, .T. ) ;
#258 = APPROVAL_ROLE ( '' ) ;
#259 = CARTESIAN_POINT ( 'NONE',  ( 0.3517949192431132910, 0.000000000000000000, 0.5624999999999993339 ) ) ;
#260 = DIRECTION ( 'NONE',  ( 3.491481338843133355E-15, -0.000000000000000000, 1.000000000000000000 ) ) ;
#261 = AXIS2_PLACEMENT_3D ( 'NONE', #363, #93, #82 ) ;
#262 = CALENDAR_DATE ( 2023, 27, 9 ) ;
#263 = FACE_BOUND ( 'NONE', #98, .T. ) ;
#264 = MECHANICAL_CONTEXT ( 'NONE', #284, 'mechanical' ) ;
#265 = AXIS2_PLACEMENT_3D ( 'NONE', #246, #367, #154 ) ;
#266 = DIRECTION ( 'NONE',  ( 3.491481338843133355E-15, -0.000000000000000000, 1.000000000000000000 ) ) ;
#267 = FACE_OUTER_BOUND ( 'NONE', #327, .T. ) ;
#268 = EDGE_CURVE ( 'NONE', #102, #102, #43, .T. ) ;
#269 = MANIFOLD_SOLID_BREP ( 'Corps-Déplacer/Copier1', #41 ) ;
#270 = CARTESIAN_POINT ( 'NONE',  ( 1.527523085743872223E-15, 0.000000000000000000, 0.4375000000000003886 ) ) ;
#271 = DIRECTION ( 'NONE',  ( 1.000000000000000000, 0.000000000000000000, -3.491481338843133355E-15 ) ) ;
#272 = CONICAL_SURFACE ( 'NONE', #90, 0.5250000000000000222, 1.047197551196587861 ) ;
#273 = DATE_AND_TIME ( #245, #172 ) ;
#274 = CARTESIAN_POINT ( 'NONE',  ( 1.326762908760390423E-13, 0.000000000000000000, 38.00000000000000000 ) ) ;
#275 = EDGE_LOOP ( 'NONE', ( #47 ) ) ;
#276 = AXIS2_PLACEMENT_3D ( 'NONE', #25, #164, #324 ) ;
#277 = DIRECTION ( 'NONE',  ( 1.000000000000000000, 0.000000000000000000, -3.469446951953614189E-15 ) ) ;
#278 = CARTESIAN_POINT ( 'NONE',  ( 1.326762908760390423E-13, 0.000000000000000000, 38.00000000000000000 ) ) ;
#279 = AXIS2_PLACEMENT_3D ( 'NONE', #243, #89, #83 ) ;
#280 = CARTESIAN_POINT ( 'NONE',  ( 1.326762908760390423E-13, 1.200000000000000622, 38.00000000000000000 ) ) ;
#281 = DIRECTION ( 'NONE',  ( 1.000000000000000000, 0.000000000000000000, -4.625929269271495577E-15 ) ) ;
#282 = AXIS2_PLACEMENT_3D ( 'NONE', #155, #127, #373 ) ;
#283 = ADVANCED_FACE ( 'NONE', ( #4, #212 ), #186, .T. ) ;
#284 = APPLICATION_CONTEXT ( 'configuration controlled 3d designs of mechanical parts and assemblies' ) ;
#285 = VERTEX_POINT ( 'NONE', #221 ) ;
#286 = EDGE_CURVE ( 'NONE', #233, #233, #74, .T. ) ;
#287 = VERTEX_POINT ( 'NONE', #199 ) ;
#288 = CC_DESIGN_PERSON_AND_ORGANIZATION_ASSIGNMENT ( #178, #121, ( #189 ) ) ;
#289 = CC_DESIGN_PERSON_AND_ORGANIZATION_ASSIGNMENT ( #352, #68, ( #6 ) ) ;
#290 = ORIENTED_EDGE ( 'NONE', *, *, #286, .F. ) ;
#291 = DIRECTION ( 'NONE',  ( 1.000000000000000000, 0.000000000000000000, -3.510749891857823562E-15 ) ) ;
#292 = CARTESIAN_POINT ( 'NONE',  ( 0.5250000000000004663, 0.000000000000000000, 0.1374999999999969025 ) ) ;
#293 = FACE_OUTER_BOUND ( 'NONE', #275, .T. ) ;
#294 = DIRECTION ( 'NONE',  ( 0.000000000000000000, 0.000000000000000000, 1.000000000000000000 ) ) ;
#295 = ORIENTED_EDGE ( 'NONE', *, *, #213, .T. ) ;
#296 = CC_DESIGN_PERSON_AND_ORGANIZATION_ASSIGNMENT ( #141, #206, ( #235 ) ) ;
#297 = PERSON_AND_ORGANIZATION_ROLE ( 'design_supplier' ) ;
#298 = EDGE_LOOP ( 'NONE', ( #196 ) ) ;
#299 = ADVANCED_FACE ( 'NONE', ( #311, #218 ), #272, .T. ) ;
#300 = APPROVAL_PERSON_ORGANIZATION ( #356, #369, #305 ) ;
#301 = DIRECTION ( 'NONE',  ( 3.491481338843133355E-15, -0.000000000000000000, 1.000000000000000000 ) ) ;
#302 = EDGE_LOOP ( 'NONE', ( #171 ) ) ;
#303 = CARTESIAN_POINT ( 'NONE',  ( 2.094888803305880013E-15, 0.3517949192431112926, 0.6000000000000000888 ) ) ;
#304 = ADVANCED_FACE ( 'NONE', ( #66, #192 ), #187, .T. ) ;
#305 = APPROVAL_ROLE ( '' ) ;
#306 = CARTESIAN_POINT ( 'NONE',  ( 1.963958253099264484E-15, 0.000000000000000000, 0.5625000000000004441 ) ) ;
#307 = AXIS2_PLACEMENT_3D ( 'NONE', #173, #231, #357 ) ;
#308 = DIRECTION ( 'NONE',  ( 1.000000000000000000, 0.000000000000000000, -3.510749891857823562E-15 ) ) ;
#309 = ADVANCED_FACE ( 'NONE', ( #248, #346 ), #96, .T. ) ;
#310 = DIRECTION ( 'NONE',  ( 1.000000000000000000, 0.000000000000000000, 0.000000000000000000 ) ) ;
#311 = FACE_BOUND ( 'NONE', #298, .T. ) ;
#312 = EDGE_LOOP ( 'NONE', ( #385 ) ) ;
#313 = CYLINDRICAL_SURFACE ( 'NONE', #282, 1.499999999999998224 ) ;
#314 = EDGE_LOOP ( 'NONE', ( #188 ) ) ;
#315 = CONICAL_SURFACE ( 'NONE', #279, 0.3517949192431112926, 1.047197551196587861 ) ;
#316 = ADVANCED_FACE ( 'NONE', ( #63 ), #376, .F. ) ;
#317 = DIRECTION ( 'NONE',  ( 1.000000000000000000, 0.000000000000000000, 0.000000000000000000 ) ) ;
#318 = LOCAL_TIME ( 10, 26, 50.00000000000000000, #242 ) ;
#319 = FACE_OUTER_BOUND ( 'NONE', #314, .T. ) ;
#320 = APPROVAL_DATE_TIME ( #382, #97 ) ;
#321 = FACE_OUTER_BOUND ( 'NONE', #23, .T. ) ;
#322 = AXIS2_PLACEMENT_3D ( 'NONE', #94, #100, #215 ) ;
#323 = CARTESIAN_POINT ( 'NONE',  ( 0.3517949192431134575, 0.000000000000000000, 0.6000000000000020872 ) ) ;
#324 = DIRECTION ( 'NONE',  ( 1.000000000000000000, 0.000000000000000000, -3.544202687863989290E-15 ) ) ;
#325 = CONICAL_SURFACE ( 'NONE', #379, 0.3240741737109292808, 0.2617993877991425244 ) ;
#326 =( NAMED_UNIT ( * ) SI_UNIT ( $, .STERADIAN. ) SOLID_ANGLE_UNIT ( ) );
#327 = EDGE_LOOP ( 'NONE', ( #353 ) ) ;
#328 = COORDINATED_UNIVERSAL_TIME_OFFSET ( 1, 0, .AHEAD. ) ;
#329 = CARTESIAN_POINT ( 'NONE',  ( 2.094888803305891846E-15, 0.000000000000000000, 0.6000000000000033085 ) ) ;
#330 = EDGE_CURVE ( 'NONE', #287, #287, #182, .T. ) ;
#331 = CALENDAR_DATE ( 2023, 27, 9 ) ;
#332 = DIRECTION ( 'NONE',  ( 1.000000000000000000, 0.000000000000000000, -3.390106918826424590E-15 ) ) ;
#333 = AXIS2_PLACEMENT_3D ( 'NONE', #270, #73, #291 ) ;
#334 = DATE_TIME_ROLE ( 'classification_date' ) ;
#335 = FACE_BOUND ( 'NONE', #312, .T. ) ;
#336 = ORIENTED_EDGE ( 'NONE', *, *, #40, .T. ) ;
#337 = DATE_AND_TIME ( #331, #202 ) ;
#338 = CARTESIAN_POINT ( 'NONE',  ( 1.316288464743861212E-13, 0.000000000000000000, 37.69999999999999574 ) ) ;
#339 = CIRCLE ( 'NONE', #161, 0.5250000000000000222 ) ;
#340 = EDGE_LOOP ( 'NONE', ( #8 ) ) ;
#341 = AXIS2_PLACEMENT_3D ( 'NONE', #306, #214, #332 ) ;
#342 = FACE_OUTER_BOUND ( 'NONE', #169, .T. ) ;
#343 = DIRECTION ( 'NONE',  ( 3.491481338843133355E-15, -0.000000000000000000, 1.000000000000000000 ) ) ;
#344 = FACE_OUTER_BOUND ( 'NONE', #148, .T. ) ;
#345 = ORIENTED_EDGE ( 'NONE', *, *, #131, .T. ) ;
#346 = FACE_OUTER_BOUND ( 'NONE', #84, .T. ) ;
#347 = CC_DESIGN_SECURITY_CLASSIFICATION ( #189, ( #235 ) ) ;
#348 = AXIS2_PLACEMENT_3D ( 'NONE', #181, #31, #32 ) ;
#349 = EDGE_LOOP ( 'NONE', ( #193 ) ) ;
#350 = ORIENTED_EDGE ( 'NONE', *, *, #330, .F. ) ;
#351 = EDGE_LOOP ( 'NONE', ( #380 ) ) ;
#352 = PERSON_AND_ORGANIZATION ( #381, #359 ) ;
#353 = ORIENTED_EDGE ( 'NONE', *, *, #286, .T. ) ;
#354 = APPROVAL_STATUS ( 'not_yet_approved' ) ;
#355 = DIRECTION ( 'NONE',  ( 1.000000000000000000, 0.000000000000000000, -2.676429682922160140E-15 ) ) ;
#356 = PERSON_AND_ORGANIZATION ( #381, #359 ) ;
#357 = DIRECTION ( 'NONE',  ( 1.000000000000000000, 0.000000000000000000, -3.491481338843133355E-15 ) ) ;
#358 = AXIS2_PLACEMENT_3D ( 'NONE', #280, #194, #253 ) ;
#359 = ORGANIZATION ( 'UNSPECIFIED', 'UNSPECIFIED', '' ) ;
#360 = CARTESIAN_POINT ( 'NONE',  ( 1.614810119214940894E-15, 0.000000000000000000, 0.4624999999999976352 ) ) ;
#361 = DIRECTION ( 'NONE',  ( 1.000000000000000000, 0.000000000000000000, 0.000000000000000000 ) ) ;
#362 = SECURITY_CLASSIFICATION_LEVEL ( 'unclassified' ) ;
#363 = CARTESIAN_POINT ( 'NONE',  ( 2.094888803305891846E-15, 0.000000000000000000, 0.6000000000000033085 ) ) ;
#364 = CARTESIAN_POINT ( 'NONE',  ( 3.193809502112483336E-14, 0.000000000000000000, 9.147433974745856844 ) ) ;
#365 = EDGE_LOOP ( 'NONE', ( #140 ) ) ;
#366 = FACE_OUTER_BOUND ( 'NONE', #11, .T. ) ;
#367 = DIRECTION ( 'NONE',  ( 3.491481338843133355E-15, -0.000000000000000000, 1.000000000000000000 ) ) ;
#368 = CYLINDRICAL_SURFACE ( 'NONE', #378, 0.5250000000000000222 ) ;
#369 = APPROVAL ( #174, 'UNSPECIFIED' ) ;
#370 = CARTESIAN_POINT ( 'NONE',  ( 1.614810119214940894E-15, 0.000000000000000000, 0.4624999999999976352 ) ) ;
#371 = AXIS2_PLACEMENT_3D ( 'NONE', #184, #2, #271 ) ;
#372 = ADVANCED_FACE ( 'NONE', ( #38, #344 ), #313, .T. ) ;
#373 = DIRECTION ( 'NONE',  ( 1.000000000000000000, 0.000000000000000000, -4.625929269271490844E-15 ) ) ;
#374 = PRODUCT_RELATED_PRODUCT_CATEGORY ( 'detail', '', ( #249 ) ) ;
#375 = EDGE_LOOP ( 'NONE', ( #130 ) ) ;
#376 = PLANE ( 'NONE',  #358 ) ;
#377 = EDGE_LOOP ( 'NONE', ( #387 ) ) ;
#378 = AXIS2_PLACEMENT_3D ( 'NONE', #55, #144, #310 ) ;
#379 = AXIS2_PLACEMENT_3D ( 'NONE', #207, #234, #355 ) ;
#380 = ORIENTED_EDGE ( 'NONE', *, *, #124, .T. ) ;
#381 = PERSON ( 'UNSPECIFIED', 'UNSPECIFIED', 'UNSPECIFIED', ('UNSPECIFIED'), ('UNSPECIFIED'), ('UNSPECIFIED') ) ;
#382 = DATE_AND_TIME ( #386, #195 ) ;
#383 =( LENGTH_UNIT ( ) NAMED_UNIT ( * ) SI_UNIT ( .MILLI., .METRE. ) );
#384 = PERSON_AND_ORGANIZATION ( #381, #359 ) ;
#385 = ORIENTED_EDGE ( 'NONE', *, *, #124, .F. ) ;
#386 = CALENDAR_DATE ( 2023, 27, 9 ) ;
#387 = ORIENTED_EDGE ( 'NONE', *, *, #40, .F. ) ;
#388 = CC_DESIGN_DATE_AND_TIME_ASSIGNMENT ( #72, #230, ( #6 ) ) ;
#389 = PERSON_AND_ORGANIZATION_ROLE ( 'design_owner' ) ;
#390 = FACE_OUTER_BOUND ( 'NONE', #365, .T. ) ;
#391 = AXIS2_PLACEMENT_3D ( 'NONE', #274, #247, #238 ) ;
#392 = CIRCLE ( 'NONE', #333, 0.5250000000000000222 ) ;
#393 = COORDINATED_UNIVERSAL_TIME_OFFSET ( 1, 0, .AHEAD. ) ;
#394 = DIRECTION ( 'NONE',  ( 1.000000000000000000, 0.000000000000000000, -3.491481338843133355E-15 ) ) ;
#395 = DIRECTION ( 'NONE',  ( 3.491481338843133355E-15, -0.000000000000000000, 1.000000000000000000 ) ) ;
ENDSEC;
END-ISO-10303-21;
