ISO-10303-21;
HEADER;
FILE_DESCRIPTION (( 'STEP AP203' ),
    '1' );
FILE_NAME ('961152.step',
    '2023-09-27T08:26:50',
    ( '' ),
    ( '' ),
    'SwSTEP 2.0',
    'SolidWorks 2022',
    '' );
FILE_SCHEMA (( 'CONFIG_CONTROL_DESIGN' ));
ENDSEC;

DATA;
#1 = DIRECTION ( 'NONE',  ( 1.000000000000000000, 0.000000000000000000, -3.491481338843133355E-15 ) ) ;
#2 = ADVANCED_FACE ( 'NONE', ( #96, #22 ), #285, .T. ) ;
#3 = DIRECTION ( 'NONE',  ( 1.000000000000000000, 0.000000000000000000, 0.000000000000000000 ) ) ;
#4 = FACE_OUTER_BOUND ( 'NONE', #228, .T. ) ;
#5 = PERSON_AND_ORGANIZATION ( #26, #310 ) ;
#6 = DIRECTION ( 'NONE',  ( 1.000000000000000000, 0.000000000000000000, -3.000481595618963838E-15 ) ) ;
#7 = ORIENTED_EDGE ( 'NONE', *, *, #18, .T. ) ;
#8 = CARTESIAN_POINT ( 'NONE',  ( 4.728047646350040591E-16, 0.000000000000000000, 0.1354166666666656305 ) ) ;
#9 = AXIS2_PLACEMENT_3D ( 'NONE', #100, #140, #229 ) ;
#10 = EDGE_LOOP ( 'NONE', ( #218 ) ) ;
#11 = CARTESIAN_POINT ( 'NONE',  ( 0.3106624327025935828, 0.000000000000000000, 0.2812499999999956701 ) ) ;
#12 = DIRECTION ( 'NONE',  ( 3.491481338843133355E-15, -0.000000000000000000, 1.000000000000000000 ) ) ;
#13 = EDGE_CURVE ( 'NONE', #373, #373, #322, .T. ) ;
#14 = LOCAL_TIME ( 10, 26, 50.00000000000000000, #177 ) ;
#15 = PRODUCT_DEFINITION_SHAPE ( 'NONE', 'NONE',  #206 ) ;
#16 = EDGE_CURVE ( 'NONE', #91, #91, #333, .T. ) ;
#17 = APPLICATION_PROTOCOL_DEFINITION ( 'international standard', 'config_control_design', 1994, #247 ) ;
#18 = EDGE_CURVE ( 'NONE', #341, #341, #194, .T. ) ;
#19 = ORIENTED_EDGE ( 'NONE', *, *, #16, .F. ) ;
#20 = COORDINATED_UNIVERSAL_TIME_OFFSET ( 1, 0, .AHEAD. ) ;
#21 = AXIS2_PLACEMENT_3D ( 'NONE', #384, #105, #351 ) ;
#22 = FACE_OUTER_BOUND ( 'NONE', #355, .T. ) ;
#23 = CARTESIAN_POINT ( 'NONE',  ( 1.200000000000133182, 0.000000000000000000, 37.99999999999999289 ) ) ;
#24 = DIRECTION ( 'NONE',  ( -1.000000000000000000, 0.000000000000000000, 3.455149780448311020E-15 ) ) ;
#25 = CARTESIAN_POINT ( 'NONE',  ( 1.636631877582708111E-15, 0.000000000000000000, 0.4687499999999969469 ) ) ;
#26 = PERSON ( 'UNSPECIFIED', 'UNSPECIFIED', 'UNSPECIFIED', ('UNSPECIFIED'), ('UNSPECIFIED'), ('UNSPECIFIED') ) ;
#27 = FACE_OUTER_BOUND ( 'NONE', #382, .T. ) ;
#28 = CALENDAR_DATE ( 2023, 27, 9 ) ;
#29 = CC_DESIGN_DATE_AND_TIME_ASSIGNMENT ( #383, #143, ( #206 ) ) ;
#30 = DIRECTION ( 'NONE',  ( 3.491481338843133355E-15, -0.000000000000000000, 1.000000000000000000 ) ) ;
#31 = DIRECTION ( 'NONE',  ( 3.491481338843133355E-15, -0.000000000000000000, 1.000000000000000000 ) ) ;
#32 = SECURITY_CLASSIFICATION ( '', '', #299 ) ;
#33 = APPROVAL_PERSON_ORGANIZATION ( #301, #372, #147 ) ;
#34 = CYLINDRICAL_SURFACE ( 'NONE', #306, 0.3106624327025925836 ) ;
#35 = AXIS2_PLACEMENT_3D ( 'NONE', #243, #30, #84 ) ;
#36 = DIRECTION ( 'NONE',  ( 1.000000000000000000, 0.000000000000000000, -4.625929269271495577E-15 ) ) ;
#37 = CYLINDRICAL_SURFACE ( 'NONE', #345, 0.2549999999999997824 ) ;
#38 = DIRECTION ( 'NONE',  ( 1.000000000000000000, 0.000000000000000000, -3.489968719595545908E-15 ) ) ;
#39 = AXIS2_PLACEMENT_3D ( 'NONE', #321, #136, #330 ) ;
#40 = ORIENTED_EDGE ( 'NONE', *, *, #315, .F. ) ;
#41 = DIRECTION ( 'NONE',  ( 3.491481338843133355E-15, -0.000000000000000000, 1.000000000000000000 ) ) ;
#42 = CIRCLE ( 'NONE', #266, 0.3106624327025925836 ) ;
#43 = EDGE_CURVE ( 'NONE', #64, #64, #241, .T. ) ;
#44 = DIRECTION ( 'NONE',  ( 1.000000000000000000, 0.000000000000000000, 0.000000000000000000 ) ) ;
#45 = ADVANCED_FACE ( 'NONE', ( #198, #197 ), #231, .T. ) ;
#46 = ADVANCED_FACE ( 'NONE', ( #212, #108 ), #226, .T. ) ;
#47 = CARTESIAN_POINT ( 'NONE',  ( 1.500000000000128120, 0.000000000000000000, 37.69999999999998863 ) ) ;
#48 = ORIENTED_EDGE ( 'NONE', *, *, #43, .F. ) ;
#49 =( LENGTH_UNIT ( ) NAMED_UNIT ( * ) SI_UNIT ( .MILLI., .METRE. ) );
#50 = EDGE_LOOP ( 'NONE', ( #260 ) ) ;
#51 = CIRCLE ( 'NONE', #325, 1.499999999999996669 ) ;
#52 = ORIENTED_EDGE ( 'NONE', *, *, #120, .T. ) ;
#53 = PERSON_AND_ORGANIZATION ( #26, #310 ) ;
#54 = CC_DESIGN_PERSON_AND_ORGANIZATION_ASSIGNMENT ( #289, #94, ( #187 ) ) ;
#55 = CARTESIAN_POINT ( 'NONE',  ( 4.728047646350040591E-16, 0.000000000000000000, 0.1354166666666656305 ) ) ;
#56 = DIRECTION ( 'NONE',  ( 3.491481338843133355E-15, -0.000000000000000000, 1.000000000000000000 ) ) ;
#57 = FACE_OUTER_BOUND ( 'NONE', #232, .T. ) ;
#58 = ADVANCED_BREP_SHAPE_REPRESENTATION ( '961152', ( #141, #9 ), #288 ) ;
#59 = DIRECTION ( 'NONE',  ( 3.491481338843133355E-15, -0.000000000000000000, 1.000000000000000000 ) ) ;
#60 = DIRECTION ( 'NONE',  ( 1.000000000000000000, 0.000000000000000000, 0.000000000000000000 ) ) ;
#61 = CARTESIAN_POINT ( 'NONE',  ( 1.326762908760390423E-13, 0.000000000000000000, 38.00000000000000000 ) ) ;
#62 = DIRECTION ( 'NONE',  ( 3.491481338843133355E-15, -0.000000000000000000, 1.000000000000000000 ) ) ;
#63 = FACE_OUTER_BOUND ( 'NONE', #176, .T. ) ;
#64 = VERTEX_POINT ( 'NONE', #11 ) ;
#65 = CIRCLE ( 'NONE', #112, 0.2549999999999995604 ) ;
#66 = ORIENTED_EDGE ( 'NONE', *, *, #376, .T. ) ;
#67 = CARTESIAN_POINT ( 'NONE',  ( 0.2565358449660651297, 0.000000000000000000, -8.956901154433715261E-16 ) ) ;
#68 = CIRCLE ( 'NONE', #168, 0.4550000000000000155 ) ;
#69 = CC_DESIGN_APPROVAL ( #372, ( #32 ) ) ;
#70 = EDGE_LOOP ( 'NONE', ( #122 ) ) ;
#71 = APPROVAL_DATE_TIME ( #220, #269 ) ;
#72 = DIRECTION ( 'NONE',  ( 1.000000000000000000, 0.000000000000000000, -3.489968719595545119E-15 ) ) ;
#73 = VERTEX_POINT ( 'NONE', #225 ) ;
#74 = EDGE_LOOP ( 'NONE', ( #227 ) ) ;
#75 = LOCAL_TIME ( 10, 26, 50.00000000000000000, #81 ) ;
#76 = DIRECTION ( 'NONE',  ( 1.000000000000000000, 0.000000000000000000, -3.455149780448311020E-15 ) ) ;
#77 = APPROVAL_DATE_TIME ( #361, #372 ) ;
#78 = ADVANCED_FACE ( 'NONE', ( #366, #238 ), #97, .F. ) ;
#79 = ORIENTED_EDGE ( 'NONE', *, *, #18, .F. ) ;
#80 = DIRECTION ( 'NONE',  ( 1.000000000000000000, 0.000000000000000000, -3.000481595618963838E-15 ) ) ;
#81 = COORDINATED_UNIVERSAL_TIME_OFFSET ( 1, 0, .AHEAD. ) ;
#82 = CARTESIAN_POINT ( 'NONE',  ( 1.344220315454606500E-14, 0.000000000000000000, 3.850000000000000089 ) ) ;
#83 = PRODUCT_RELATED_PRODUCT_CATEGORY ( 'detail', '', ( #187 ) ) ;
#84 = DIRECTION ( 'NONE',  ( 1.000000000000000000, 0.000000000000000000, -3.401418580346680523E-15 ) ) ;
#85 = AXIS2_PLACEMENT_3D ( 'NONE', #163, #161, #6 ) ;
#86 = CARTESIAN_POINT ( 'NONE',  ( 1.345675099345788088E-15, 0.000000000000000000, 0.3854166666666658525 ) ) ;
#87 = FACE_OUTER_BOUND ( 'NONE', #252, .T. ) ;
#88 = CYLINDRICAL_SURFACE ( 'NONE', #251, 0.4550000000000000155 ) ;
#89 = SHAPE_DEFINITION_REPRESENTATION ( #15, #58 ) ;
#90 = DIRECTION ( 'NONE',  ( 1.000000000000000000, 0.000000000000000000, -3.489968719595545119E-15 ) ) ;
#91 = VERTEX_POINT ( 'NONE', #309 ) ;
#92 = VERTEX_POINT ( 'NONE', #67 ) ;
#93 = ORIENTED_EDGE ( 'NONE', *, *, #347, .T. ) ;
#94 = PERSON_AND_ORGANIZATION_ROLE ( 'design_owner' ) ;
#95 = ADVANCED_FACE ( 'NONE', ( #27, #182 ), #152, .T. ) ;
#96 = FACE_BOUND ( 'NONE', #312, .T. ) ;
#97 = TOROIDAL_SURFACE ( 'NONE', #286, 1.254999999999999671, 0.9999999999999995559 ) ;
#98 = EDGE_LOOP ( 'NONE', ( #124 ) ) ;
#99 = ORIENTED_EDGE ( 'NONE', *, *, #128, .F. ) ;
#100 = CARTESIAN_POINT ( 'NONE',  ( 0.000000000000000000, 0.000000000000000000, 0.000000000000000000 ) ) ;
#101 = EDGE_LOOP ( 'NONE', ( #222 ) ) ;
#102 = AXIS2_PLACEMENT_3D ( 'NONE', #296, #224, #76 ) ;
#103 = EDGE_CURVE ( 'NONE', #344, #344, #65, .T. ) ;
#104 = CIRCLE ( 'NONE', #35, 0.2550000000000000044 ) ;
#105 = DIRECTION ( 'NONE',  ( 3.491481338843133355E-15, -0.000000000000000000, 1.000000000000000000 ) ) ;
#106 = CYLINDRICAL_SURFACE ( 'NONE', #379, 0.3106624327025925836 ) ;
#107 = CALENDAR_DATE ( 2023, 27, 9 ) ;
#108 = FACE_BOUND ( 'NONE', #230, .T. ) ;
#109 = APPROVAL_ROLE ( '' ) ;
#110 = CC_DESIGN_APPROVAL ( #269, ( #206 ) ) ;
#111 = CARTESIAN_POINT ( 'NONE',  ( 1.326762908760390423E-13, 1.200000000000000622, 38.00000000000000000 ) ) ;
#112 = AXIS2_PLACEMENT_3D ( 'NONE', #365, #277, #244 ) ;
#113 = DESIGN_CONTEXT ( 'detailed design', #247, 'design' ) ;
#114 = APPROVAL_PERSON_ORGANIZATION ( #352, #269, #291 ) ;
#115 = DIRECTION ( 'NONE',  ( 1.000000000000000000, 0.000000000000000000, -3.491481338843133355E-15 ) ) ;
#116 = CARTESIAN_POINT ( 'NONE',  ( 0.000000000000000000, 0.000000000000000000, 0.000000000000000000 ) ) ;
#117 = CARTESIAN_POINT ( 'NONE',  ( 1.326762908760390423E-13, 0.000000000000000000, 38.00000000000000000 ) ) ;
#118 = CALENDAR_DATE ( 2023, 27, 9 ) ;
#119 = PLANE ( 'NONE',  #234 ) ;
#120 = EDGE_CURVE ( 'NONE', #92, #92, #324, .T. ) ;
#121 = AXIS2_PLACEMENT_3D ( 'NONE', #111, #209, #331 ) ;
#122 = ORIENTED_EDGE ( 'NONE', *, *, #158, .F. ) ;
#123 = DIRECTION ( 'NONE',  ( 1.000000000000000000, 0.000000000000000000, -3.514721328387074684E-15 ) ) ;
#124 = ORIENTED_EDGE ( 'NONE', *, *, #128, .T. ) ;
#125 = CARTESIAN_POINT ( 'NONE',  ( 0.2550000000000130496, 0.000000000000000000, 3.849999999999998312 ) ) ;
#126 = LOCAL_TIME ( 10, 26, 50.00000000000000000, #181 ) ;
#127 = FACE_OUTER_BOUND ( 'NONE', #74, .T. ) ;
#128 = EDGE_CURVE ( 'NONE', #196, #196, #104, .T. ) ;
#129 = EDGE_LOOP ( 'NONE', ( #292 ) ) ;
#130 =( NAMED_UNIT ( * ) SI_UNIT ( $, .STERADIAN. ) SOLID_ANGLE_UNIT ( ) );
#131 = ORIENTED_EDGE ( 'NONE', *, *, #13, .F. ) ;
#132 = COORDINATED_UNIVERSAL_TIME_OFFSET ( 1, 0, .AHEAD. ) ;
#133 = EDGE_LOOP ( 'NONE', ( #171 ) ) ;
#134 = CARTESIAN_POINT ( 'NONE',  ( 0.2890741737109439602, 0.000000000000000000, 4.108819045102510614 ) ) ;
#135 = AXIS2_PLACEMENT_3D ( 'NONE', #25, #142, #72 ) ;
#136 = DIRECTION ( 'NONE',  ( -3.491481338843133355E-15, 0.000000000000000000, -1.000000000000000000 ) ) ;
#137 = CONICAL_SURFACE ( 'NONE', #387, 0.4550000000000000155, 1.047197551196612286 ) ;
#138 = MECHANICAL_CONTEXT ( 'NONE', #270, 'mechanical' ) ;
#139 = EDGE_LOOP ( 'NONE', ( #343 ) ) ;
#140 = DIRECTION ( 'NONE',  ( 0.000000000000000000, 0.000000000000000000, 1.000000000000000000 ) ) ;
#141 = MANIFOLD_SOLID_BREP ( 'Corps-Déplacer/Copier1', #144 ) ;
#142 = DIRECTION ( 'NONE',  ( 3.491481338843133355E-15, -0.000000000000000000, 1.000000000000000000 ) ) ;
#143 = DATE_TIME_ROLE ( 'creation_date' ) ;
#144 = CLOSED_SHELL ( 'NONE', ( #257, #46, #245, #186, #240, #354, #337, #2, #213, #215, #369, #78, #328, #95, #45, #235 ) ) ;
#145 = AXIS2_PLACEMENT_3D ( 'NONE', #362, #59, #336 ) ;
#146 = DIRECTION ( 'NONE',  ( 1.000000000000000000, 0.000000000000000000, -3.491481338843133355E-15 ) ) ;
#147 = APPROVAL_ROLE ( '' ) ;
#148 = CONICAL_SURFACE ( 'NONE', #371, 0.3106624327025926391, 1.047197551196575871 ) ;
#149 = DIRECTION ( 'NONE',  ( 3.491481338843133355E-15, -0.000000000000000000, 1.000000000000000000 ) ) ;
#150 = PERSON_AND_ORGANIZATION ( #26, #310 ) ;
#151 = FACE_OUTER_BOUND ( 'NONE', #374, .T. ) ;
#152 = CYLINDRICAL_SURFACE ( 'NONE', #342, 1.499999999999998224 ) ;
#153 = AXIS2_PLACEMENT_3D ( 'NONE', #271, #210, #1 ) ;
#154 = CARTESIAN_POINT ( 'NONE',  ( 1.326762908760390423E-13, 0.000000000000000000, 38.00000000000000000 ) ) ;
#155 = CIRCLE ( 'NONE', #393, 0.4550000000000000155 ) ;
#156 = CARTESIAN_POINT ( 'NONE',  ( 1.326762908760390423E-13, 0.000000000000000000, 38.00000000000000000 ) ) ;
#157 = CYLINDRICAL_SURFACE ( 'NONE', #191, 0.4549999999999999600 ) ;
#158 = EDGE_CURVE ( 'NONE', #295, #295, #335, .T. ) ;
#159 = DIRECTION ( 'NONE',  ( 3.491481338843133355E-15, -0.000000000000000000, 1.000000000000000000 ) ) ;
#160 = ORIENTED_EDGE ( 'NONE', *, *, #16, .T. ) ;
#161 = DIRECTION ( 'NONE',  ( 3.491481338843133355E-15, -0.000000000000000000, 1.000000000000000000 ) ) ;
#162 = EDGE_CURVE ( 'NONE', #223, #223, #390, .T. ) ;
#163 = CARTESIAN_POINT ( 'NONE',  ( 1.434586502065868293E-14, 0.000000000000000000, 4.108819045102511502 ) ) ;
#164 = AXIS2_PLACEMENT_3D ( 'NONE', #290, #389, #203 ) ;
#165 = PERSON_AND_ORGANIZATION_ROLE ( 'creator' ) ;
#166 = LOCAL_TIME ( 10, 26, 50.00000000000000000, #20 ) ;
#167 = CC_DESIGN_PERSON_AND_ORGANIZATION_ASSIGNMENT ( #316, #165, ( #206 ) ) ;
#168 = AXIS2_PLACEMENT_3D ( 'NONE', #284, #12, #283 ) ;
#169 = EDGE_LOOP ( 'NONE', ( #19 ) ) ;
#170 = CC_DESIGN_APPROVAL ( #350, ( #193 ) ) ;
#171 = ORIENTED_EDGE ( 'NONE', *, *, #208, .T. ) ;
#172 = VERTEX_POINT ( 'NONE', #287 ) ;
#173 = CIRCLE ( 'NONE', #184, 1.200000000000000622 ) ;
#174 = ORIENTED_EDGE ( 'NONE', *, *, #43, .T. ) ;
#175 = CARTESIAN_POINT ( 'NONE',  ( 1.345675099345788088E-15, 0.000000000000000000, 0.3854166666666658525 ) ) ;
#176 = EDGE_LOOP ( 'NONE', ( #93 ) ) ;
#177 = COORDINATED_UNIVERSAL_TIME_OFFSET ( 1, 0, .AHEAD. ) ;
#178 = AXIS2_PLACEMENT_3D ( 'NONE', #175, #263, #24 ) ;
#179 = CARTESIAN_POINT ( 'NONE',  ( 1.434586502065868293E-14, 0.000000000000000000, 4.108819045102511502 ) ) ;
#180 = DIRECTION ( 'NONE',  ( -3.491481338843133355E-15, 0.000000000000000000, -1.000000000000000000 ) ) ;
#181 = COORDINATED_UNIVERSAL_TIME_OFFSET ( 1, 0, .AHEAD. ) ;
#182 = FACE_OUTER_BOUND ( 'NONE', #357, .T. ) ;
#183 = DIRECTION ( 'NONE',  ( 1.000000000000000000, 0.000000000000000000, -5.782411586589354089E-15 ) ) ;
#184 = AXIS2_PLACEMENT_3D ( 'NONE', #61, #185, #183 ) ;
#185 = DIRECTION ( 'NONE',  ( 3.491481338843133355E-15, -0.000000000000000000, 1.000000000000000000 ) ) ;
#186 = ADVANCED_FACE ( 'NONE', ( #395, #87 ), #137, .T. ) ;
#187 = PRODUCT ( '961152', '961152', '', ( #138 ) ) ;
#188 = FACE_BOUND ( 'NONE', #282, .T. ) ;
#189 = FACE_OUTER_BOUND ( 'NONE', #267, .T. ) ;
#190 = FACE_OUTER_BOUND ( 'NONE', #129, .T. ) ;
#191 = AXIS2_PLACEMENT_3D ( 'NONE', #308, #211, #250 ) ;
#192 = APPROVAL_STATUS ( 'not_yet_approved' ) ;
#193 = PRODUCT_DEFINITION_FORMATION_WITH_SPECIFIED_SOURCE ( 'ANY', '', #187, .NOT_KNOWN. ) ;
#194 = CIRCLE ( 'NONE', #135, 0.3106624327025926391 ) ;
#195 = EDGE_CURVE ( 'NONE', #381, #381, #173, .T. ) ;
#196 = VERTEX_POINT ( 'NONE', #349 ) ;
#197 = FACE_OUTER_BOUND ( 'NONE', #133, .T. ) ;
#198 = FACE_BOUND ( 'NONE', #268, .T. ) ;
#199 = VERTEX_POINT ( 'NONE', #47 ) ;
#200 = LOCAL_TIME ( 10, 26, 50.00000000000000000, #132 ) ;
#201 = ORIENTED_EDGE ( 'NONE', *, *, #208, .F. ) ;
#202 = CARTESIAN_POINT ( 'NONE',  ( 0.4550000000000004041, 0.000000000000000000, 0.1145833333333330095 ) ) ;
#203 = DIRECTION ( 'NONE',  ( 1.000000000000000000, 0.000000000000000000, -3.469446951953614189E-15 ) ) ;
#204 = EDGE_LOOP ( 'NONE', ( #174 ) ) ;
#205 = FACE_OUTER_BOUND ( 'NONE', #326, .T. ) ;
#206 = PRODUCT_DEFINITION ( 'UNKNOWN', '', #193, #113 ) ;
#207 = DIRECTION ( 'NONE',  ( -1.000000000000000000, 0.000000000000000000, 3.514721328387074684E-15 ) ) ;
#208 = EDGE_CURVE ( 'NONE', #199, #199, #51, .T. ) ;
#209 = DIRECTION ( 'NONE',  ( -3.491481338843133355E-15, 0.000000000000000000, -1.000000000000000000 ) ) ;
#210 = DIRECTION ( 'NONE',  ( 3.491481338843133355E-15, -0.000000000000000000, 1.000000000000000000 ) ) ;
#211 = DIRECTION ( 'NONE',  ( 3.491481338843133355E-15, -0.000000000000000000, 1.000000000000000000 ) ) ;
#212 = FACE_OUTER_BOUND ( 'NONE', #10, .T. ) ;
#213 = ADVANCED_FACE ( 'NONE', ( #151, #246 ), #106, .T. ) ;
#214 = DIRECTION ( 'NONE',  ( 3.491481338843133355E-15, -0.000000000000000000, 1.000000000000000000 ) ) ;
#215 = ADVANCED_FACE ( 'NONE', ( #236, #205 ), #329, .F. ) ;
#216 = DIRECTION ( 'NONE',  ( 3.491481338843133355E-15, -0.000000000000000000, 1.000000000000000000 ) ) ;
#217 = DIRECTION ( 'NONE',  ( 1.000000000000000000, 0.000000000000000000, 0.000000000000000000 ) ) ;
#218 = ORIENTED_EDGE ( 'NONE', *, *, #347, .F. ) ;
#219 = CARTESIAN_POINT ( 'NONE',  ( 0.3106624327025942489, 0.000000000000000000, 0.4687499999999958367 ) ) ;
#220 = DATE_AND_TIME ( #356, #166 ) ;
#221 = AXIS2_PLACEMENT_3D ( 'NONE', #86, #280, #248 ) ;
#222 = ORIENTED_EDGE ( 'NONE', *, *, #162, .F. ) ;
#223 = VERTEX_POINT ( 'NONE', #134 ) ;
#224 = DIRECTION ( 'NONE',  ( 3.491481338843133355E-15, -0.000000000000000000, 1.000000000000000000 ) ) ;
#225 = CARTESIAN_POINT ( 'NONE',  ( 0.4550000000000012923, 0.000000000000000000, 0.3854166666666642982 ) ) ;
#226 = CONICAL_SURFACE ( 'NONE', #242, 0.2565358449660651297, 1.047197551196595189 ) ;
#227 = ORIENTED_EDGE ( 'NONE', *, *, #103, .F. ) ;
#228 = EDGE_LOOP ( 'NONE', ( #353 ) ) ;
#229 = DIRECTION ( 'NONE',  ( 1.000000000000000000, 0.000000000000000000, 0.000000000000000000 ) ) ;
#230 = EDGE_LOOP ( 'NONE', ( #52 ) ) ;
#231 = CONICAL_SURFACE ( 'NONE', #39, 1.499999999999996669, 0.7853981633974389531 ) ;
#232 = EDGE_LOOP ( 'NONE', ( #48 ) ) ;
#233 = APPROVAL_STATUS ( 'not_yet_approved' ) ;
#234 = AXIS2_PLACEMENT_3D ( 'NONE', #370, #214, #367 ) ;
#235 = ADVANCED_FACE ( 'NONE', ( #300 ), #274, .F. ) ;
#236 = FACE_BOUND ( 'NONE', #294, .T. ) ;
#237 = PERSON_AND_ORGANIZATION_ROLE ( 'classification_officer' ) ;
#238 = FACE_OUTER_BOUND ( 'NONE', #314, .T. ) ;
#239 = DATE_AND_TIME ( #118, #75 ) ;
#240 = ADVANCED_FACE ( 'NONE', ( #57, #302 ), #34, .T. ) ;
#241 = CIRCLE ( 'NONE', #21, 0.3106624327025926391 ) ;
#242 = AXIS2_PLACEMENT_3D ( 'NONE', #116, #394, #115 ) ;
#243 = CARTESIAN_POINT ( 'NONE',  ( 1.745740669421568255E-15, 0.000000000000000000, 0.5000000000000004441 ) ) ;
#244 = DIRECTION ( 'NONE',  ( 1.000000000000000000, 0.000000000000000000, -3.401418580346686440E-15 ) ) ;
#245 = ADVANCED_FACE ( 'NONE', ( #190, #63 ), #88, .T. ) ;
#246 = FACE_OUTER_BOUND ( 'NONE', #380, .T. ) ;
#247 = APPLICATION_CONTEXT ( 'configuration controlled 3d designs of mechanical parts and assemblies' ) ;
#248 = DIRECTION ( 'NONE',  ( 1.000000000000000000, 0.000000000000000000, -3.455149780448311020E-15 ) ) ;
#249 = DATE_TIME_ROLE ( 'classification_date' ) ;
#250 = DIRECTION ( 'NONE',  ( 1.000000000000000000, 0.000000000000000000, 0.000000000000000000 ) ) ;
#251 = AXIS2_PLACEMENT_3D ( 'NONE', #338, #62, #60 ) ;
#252 = EDGE_LOOP ( 'NONE', ( #327 ) ) ;
#253 = CARTESIAN_POINT ( 'NONE',  ( 9.819791265496200149E-16, 0.000000000000000000, 0.2812499999999967804 ) ) ;
#254 = ORIENTED_EDGE ( 'NONE', *, *, #315, .T. ) ;
#255 = DIRECTION ( 'NONE',  ( 3.491481338843133355E-15, -0.000000000000000000, 1.000000000000000000 ) ) ;
#256 = CARTESIAN_POINT ( 'NONE',  ( 0.4550000000000011813, 0.000000000000000000, 0.3645833333333332593 ) ) ;
#257 = ADVANCED_FACE ( 'NONE', ( #4 ), #119, .F. ) ;
#258 = EDGE_LOOP ( 'NONE', ( #358 ) ) ;
#259 = VERTEX_POINT ( 'NONE', #264 ) ;
#260 = ORIENTED_EDGE ( 'NONE', *, *, #158, .T. ) ;
#261 = CALENDAR_DATE ( 2023, 27, 9 ) ;
#262 = CC_DESIGN_SECURITY_CLASSIFICATION ( #32, ( #193 ) ) ;
#263 = DIRECTION ( 'NONE',  ( -3.491481338843133355E-15, 0.000000000000000000, -1.000000000000000000 ) ) ;
#264 = CARTESIAN_POINT ( 'NONE',  ( 0.3106624327025943044, 0.000000000000000000, 0.4999999999999993339 ) ) ;
#265 = CONICAL_SURFACE ( 'NONE', #85, 0.2890741737109295828, 0.2617993877991428020 ) ;
#266 = AXIS2_PLACEMENT_3D ( 'NONE', #340, #281, #38 ) ;
#267 = EDGE_LOOP ( 'NONE', ( #131 ) ) ;
#268 = EDGE_LOOP ( 'NONE', ( #377 ) ) ;
#269 = APPROVAL ( #192, 'UNSPECIFIED' ) ;
#270 = APPLICATION_CONTEXT ( 'configuration controlled 3d designs of mechanical parts and assemblies' ) ;
#271 = CARTESIAN_POINT ( 'NONE',  ( 0.000000000000000000, 0.000000000000000000, 0.000000000000000000 ) ) ;
#272 = PERSON_AND_ORGANIZATION ( #26, #310 ) ;
#273 = CARTESIAN_POINT ( 'NONE',  ( 1.326762908760390423E-13, 0.000000000000000000, 38.00000000000000000 ) ) ;
#274 = PLANE ( 'NONE',  #121 ) ;
#275 = UNCERTAINTY_MEASURE_WITH_UNIT (LENGTH_MEASURE( 1.000000000000000082E-05 ), #49, 'distance_accuracy_value', 'NONE');
#276 = DIRECTION ( 'NONE',  ( -3.491481338843133355E-15, 0.000000000000000000, -1.000000000000000000 ) ) ;
#277 = DIRECTION ( 'NONE',  ( 3.491481338843133355E-15, -0.000000000000000000, 1.000000000000000000 ) ) ;
#278 = CC_DESIGN_PERSON_AND_ORGANIZATION_ASSIGNMENT ( #150, #368, ( #193 ) ) ;
#279 = APPROVAL_DATE_TIME ( #359, #350 ) ;
#280 = DIRECTION ( 'NONE',  ( 3.491481338843133355E-15, -0.000000000000000000, 1.000000000000000000 ) ) ;
#281 = DIRECTION ( 'NONE',  ( 3.491481338843133355E-15, -0.000000000000000000, 1.000000000000000000 ) ) ;
#282 = EDGE_LOOP ( 'NONE', ( #297 ) ) ;
#283 = DIRECTION ( 'NONE',  ( 1.000000000000000000, 0.000000000000000000, -3.484935554417692655E-15 ) ) ;
#284 = CARTESIAN_POINT ( 'NONE',  ( 4.000655700757801179E-16, 0.000000000000000000, 0.1145833333333345916 ) ) ;
#285 = CONICAL_SURFACE ( 'NONE', #178, 0.4549999999999999600, 1.047197551196612064 ) ;
#286 = AXIS2_PLACEMENT_3D ( 'NONE', #82, #392, #146 ) ;
#287 = CARTESIAN_POINT ( 'NONE',  ( 0.4550000000000005151, 0.000000000000000000, 0.1354166666666640206 ) ) ;
#288 =( GEOMETRIC_REPRESENTATION_CONTEXT ( 3 ) GLOBAL_UNCERTAINTY_ASSIGNED_CONTEXT ( ( #275 ) ) GLOBAL_UNIT_ASSIGNED_CONTEXT ( ( #49, #318, #130 ) ) REPRESENTATION_CONTEXT ( 'NONE', 'WORKASPACE' ) );
#289 = PERSON_AND_ORGANIZATION ( #26, #310 ) ;
#290 = CARTESIAN_POINT ( 'NONE',  ( 3.012469565213523249E-14, 0.000000000000000000, 8.628055753010768214 ) ) ;
#291 = APPROVAL_ROLE ( '' ) ;
#292 = ORIENTED_EDGE ( 'NONE', *, *, #385, .F. ) ;
#293 = CARTESIAN_POINT ( 'NONE',  ( 0.3106624327025933607, 0.000000000000000000, 0.2187499999999956424 ) ) ;
#294 = EDGE_LOOP ( 'NONE', ( #99 ) ) ;
#295 = VERTEX_POINT ( 'NONE', #293 ) ;
#296 = CARTESIAN_POINT ( 'NONE',  ( 1.272935904786564295E-15, 0.000000000000000000, 0.3645833333333348136 ) ) ;
#297 = ORIENTED_EDGE ( 'NONE', *, *, #162, .T. ) ;
#298 = CARTESIAN_POINT ( 'NONE',  ( 1.745740669421566678E-15, 0.3106624327025925836, 0.5000000000000000000 ) ) ;
#299 = SECURITY_CLASSIFICATION_LEVEL ( 'unclassified' ) ;
#300 = FACE_OUTER_BOUND ( 'NONE', #258, .T. ) ;
#301 = PERSON_AND_ORGANIZATION ( #26, #310 ) ;
#302 = FACE_OUTER_BOUND ( 'NONE', #50, .T. ) ;
#303 = CARTESIAN_POINT ( 'NONE',  ( 1.316288464743861212E-13, 0.000000000000000000, 37.69999999999999574 ) ) ;
#304 = CC_DESIGN_PERSON_AND_ORGANIZATION_ASSIGNMENT ( #5, #237, ( #32 ) ) ;
#305 = FACE_OUTER_BOUND ( 'NONE', #98, .T. ) ;
#306 = AXIS2_PLACEMENT_3D ( 'NONE', #117, #41, #44 ) ;
#307 = FACE_OUTER_BOUND ( 'NONE', #323, .T. ) ;
#308 = CARTESIAN_POINT ( 'NONE',  ( 1.326762908760390423E-13, 0.000000000000000000, 38.00000000000000000 ) ) ;
#309 = CARTESIAN_POINT ( 'NONE',  ( 1.500000000000030198, 0.000000000000000000, 8.628055753010762885 ) ) ;
#310 = ORGANIZATION ( 'UNSPECIFIED', 'UNSPECIFIED', '' ) ;
#311 = CC_DESIGN_PERSON_AND_ORGANIZATION_ASSIGNMENT ( #272, #339, ( #193 ) ) ;
#312 = EDGE_LOOP ( 'NONE', ( #79 ) ) ;
#313 = FACE_OUTER_BOUND ( 'NONE', #169, .T. ) ;
#314 = EDGE_LOOP ( 'NONE', ( #320 ) ) ;
#315 = EDGE_CURVE ( 'NONE', #73, #73, #346, .T. ) ;
#316 = PERSON_AND_ORGANIZATION ( #26, #310 ) ;
#317 = AXIS2_PLACEMENT_3D ( 'NONE', #179, #31, #80 ) ;
#318 =( NAMED_UNIT ( * ) PLANE_ANGLE_UNIT ( ) SI_UNIT ( $, .RADIAN. ) );
#319 = AXIS2_PLACEMENT_3D ( 'NONE', #298, #180, #364 ) ;
#320 = ORIENTED_EDGE ( 'NONE', *, *, #103, .T. ) ;
#321 = CARTESIAN_POINT ( 'NONE',  ( 1.316288464743861212E-13, 0.000000000000000000, 37.69999999999999574 ) ) ;
#322 = CIRCLE ( 'NONE', #102, 0.4549999999999999600 ) ;
#323 = EDGE_LOOP ( 'NONE', ( #40 ) ) ;
#324 = CIRCLE ( 'NONE', #153, 0.2565358449660651297 ) ;
#325 = AXIS2_PLACEMENT_3D ( 'NONE', #303, #56, #36 ) ;
#326 = EDGE_LOOP ( 'NONE', ( #66 ) ) ;
#327 = ORIENTED_EDGE ( 'NONE', *, *, #385, .T. ) ;
#328 = ADVANCED_FACE ( 'NONE', ( #313, #188 ), #265, .T. ) ;
#329 = PLANE ( 'NONE',  #319 ) ;
#330 = DIRECTION ( 'NONE',  ( -1.000000000000000000, 0.000000000000000000, 4.625929269271495577E-15 ) ) ;
#331 = DIRECTION ( 'NONE',  ( -1.000000000000000000, 0.000000000000000000, 3.491481338843133355E-15 ) ) ;
#332 = DIRECTION ( 'NONE',  ( 1.000000000000000000, 0.000000000000000000, -4.625929269271490844E-15 ) ) ;
#333 = CIRCLE ( 'NONE', #164, 1.500000000000000000 ) ;
#334 = FACE_BOUND ( 'NONE', #204, .T. ) ;
#335 = CIRCLE ( 'NONE', #145, 0.3106624327025925836 ) ;
#336 = DIRECTION ( 'NONE',  ( 1.000000000000000000, 0.000000000000000000, -3.489968719595545908E-15 ) ) ;
#337 = ADVANCED_FACE ( 'NONE', ( #307, #375 ), #157, .T. ) ;
#338 = CARTESIAN_POINT ( 'NONE',  ( 1.326762908760390423E-13, 0.000000000000000000, 38.00000000000000000 ) ) ;
#339 = PERSON_AND_ORGANIZATION_ROLE ( 'creator' ) ;
#340 = CARTESIAN_POINT ( 'NONE',  ( 1.745740669421568255E-15, 0.000000000000000000, 0.5000000000000004441 ) ) ;
#341 = VERTEX_POINT ( 'NONE', #219 ) ;
#342 = AXIS2_PLACEMENT_3D ( 'NONE', #273, #360, #332 ) ;
#343 = ORIENTED_EDGE ( 'NONE', *, *, #13, .T. ) ;
#344 = VERTEX_POINT ( 'NONE', #125 ) ;
#345 = AXIS2_PLACEMENT_3D ( 'NONE', #156, #216, #217 ) ;
#346 = CIRCLE ( 'NONE', #221, 0.4549999999999999600 ) ;
#347 = EDGE_CURVE ( 'NONE', #386, #386, #68, .T. ) ;
#348 = APPROVAL_PERSON_ORGANIZATION ( #53, #350, #109 ) ;
#349 = CARTESIAN_POINT ( 'NONE',  ( 0.2550000000000017808, 0.000000000000000000, 0.4999999999999995559 ) ) ;
#350 = APPROVAL ( #233, 'UNSPECIFIED' ) ;
#351 = DIRECTION ( 'NONE',  ( 1.000000000000000000, 0.000000000000000000, -3.489968719595545119E-15 ) ) ;
#352 = PERSON_AND_ORGANIZATION ( #26, #310 ) ;
#353 = ORIENTED_EDGE ( 'NONE', *, *, #120, .F. ) ;
#354 = ADVANCED_FACE ( 'NONE', ( #189, #334 ), #148, .T. ) ;
#355 = EDGE_LOOP ( 'NONE', ( #254 ) ) ;
#356 = CALENDAR_DATE ( 2023, 27, 9 ) ;
#357 = EDGE_LOOP ( 'NONE', ( #160 ) ) ;
#358 = ORIENTED_EDGE ( 'NONE', *, *, #195, .T. ) ;
#359 = DATE_AND_TIME ( #28, #126 ) ;
#360 = DIRECTION ( 'NONE',  ( 3.491481338843133355E-15, -0.000000000000000000, 1.000000000000000000 ) ) ;
#361 = DATE_AND_TIME ( #107, #14 ) ;
#362 = CARTESIAN_POINT ( 'NONE',  ( 7.637615428719239830E-16, 0.000000000000000000, 0.2187499999999967248 ) ) ;
#363 = APPROVAL_STATUS ( 'not_yet_approved' ) ;
#364 = DIRECTION ( 'NONE',  ( -1.000000000000000000, 0.000000000000000000, 3.491481338843133355E-15 ) ) ;
#365 = CARTESIAN_POINT ( 'NONE',  ( 1.344220315454606184E-14, 0.000000000000000000, 3.849999999999999201 ) ) ;
#366 = FACE_OUTER_BOUND ( 'NONE', #101, .T. ) ;
#367 = DIRECTION ( 'NONE',  ( 1.000000000000000000, 0.000000000000000000, -3.491481338843133355E-15 ) ) ;
#368 = PERSON_AND_ORGANIZATION_ROLE ( 'design_supplier' ) ;
#369 = ADVANCED_FACE ( 'NONE', ( #127, #305 ), #37, .T. ) ;
#370 = CARTESIAN_POINT ( 'NONE',  ( -5.575248175452456992E-33, 0.000000000000000000, -1.596814542133499769E-18 ) ) ;
#371 = AXIS2_PLACEMENT_3D ( 'NONE', #253, #255, #90 ) ;
#372 = APPROVAL ( #363, 'UNSPECIFIED' ) ;
#373 = VERTEX_POINT ( 'NONE', #256 ) ;
#374 = EDGE_LOOP ( 'NONE', ( #388 ) ) ;
#375 = FACE_OUTER_BOUND ( 'NONE', #139, .T. ) ;
#376 = EDGE_CURVE ( 'NONE', #259, #259, #42, .T. ) ;
#377 = ORIENTED_EDGE ( 'NONE', *, *, #195, .F. ) ;
#378 = APPLICATION_PROTOCOL_DEFINITION ( 'international standard', 'config_control_design', 1994, #270 ) ;
#379 = AXIS2_PLACEMENT_3D ( 'NONE', #154, #149, #3 ) ;
#380 = EDGE_LOOP ( 'NONE', ( #7 ) ) ;
#381 = VERTEX_POINT ( 'NONE', #23 ) ;
#382 = EDGE_LOOP ( 'NONE', ( #201 ) ) ;
#383 = DATE_AND_TIME ( #261, #200 ) ;
#384 = CARTESIAN_POINT ( 'NONE',  ( 9.819791265496200149E-16, 0.000000000000000000, 0.2812499999999967804 ) ) ;
#385 = EDGE_CURVE ( 'NONE', #172, #172, #155, .T. ) ;
#386 = VERTEX_POINT ( 'NONE', #202 ) ;
#387 = AXIS2_PLACEMENT_3D ( 'NONE', #55, #276, #207 ) ;
#388 = ORIENTED_EDGE ( 'NONE', *, *, #376, .F. ) ;
#389 = DIRECTION ( 'NONE',  ( 3.491481338843133355E-15, -0.000000000000000000, 1.000000000000000000 ) ) ;
#390 = CIRCLE ( 'NONE', #317, 0.2890741737109295828 ) ;
#391 = CC_DESIGN_DATE_AND_TIME_ASSIGNMENT ( #239, #249, ( #32 ) ) ;
#392 = DIRECTION ( 'NONE',  ( 3.491481338843133355E-15, -0.000000000000000000, 1.000000000000000000 ) ) ;
#393 = AXIS2_PLACEMENT_3D ( 'NONE', #8, #159, #123 ) ;
#394 = DIRECTION ( 'NONE',  ( 3.491481338843133355E-15, -0.000000000000000000, 1.000000000000000000 ) ) ;
#395 = FACE_BOUND ( 'NONE', #70, .T. ) ;
ENDSEC;
END-ISO-10303-21;
