ISO-10303-21;
HEADER;
FILE_DESCRIPTION (( 'STEP AP203' ),
    '1' );
FILE_NAME ('961151.step',
    '2023-09-27T08:26:49',
    ( '' ),
    ( '' ),
    'SwSTEP 2.0',
    'SolidWorks 2022',
    '' );
FILE_SCHEMA (( 'CONFIG_CONTROL_DESIGN' ));
ENDSEC;

DATA;
#1 = CARTESIAN_POINT ( 'NONE',  ( 1.326762908760390423E-13, 0.000000000000000000, 38.00000000000000000 ) ) ;
#2 = APPROVAL ( #228, 'UNSPECIFIED' ) ;
#3 =( LENGTH_UNIT ( ) NAMED_UNIT ( * ) SI_UNIT ( .MILLI., .METRE. ) );
#4 =( GEOMETRIC_REPRESENTATION_CONTEXT ( 3 ) GLOBAL_UNCERTAINTY_ASSIGNED_CONTEXT ( ( #89 ) ) GLOBAL_UNIT_ASSIGNED_CONTEXT ( ( #3, #102, #249 ) ) REPRESENTATION_CONTEXT ( 'NONE', 'WORKASPACE' ) );
#5 = PERSON_AND_ORGANIZATION_ROLE ( 'design_owner' ) ;
#6 = ORIENTED_EDGE ( 'NONE', *, *, #134, .T. ) ;
#7 = DATE_AND_TIME ( #315, #28 ) ;
#8 = CARTESIAN_POINT ( 'NONE',  ( 1.326762908760390423E-13, 0.000000000000000000, 38.00000000000000000 ) ) ;
#9 = AXIS2_PLACEMENT_3D ( 'NONE', #65, #313, #70 ) ;
#10 = VERTEX_POINT ( 'NONE', #68 ) ;
#11 = MECHANICAL_CONTEXT ( 'NONE', #90, 'mechanical' ) ;
#12 = FACE_OUTER_BOUND ( 'NONE', #296, .T. ) ;
#13 = EDGE_CURVE ( 'NONE', #31, #31, #350, .T. ) ;
#14 = PERSON_AND_ORGANIZATION_ROLE ( 'creator' ) ;
#15 = CARTESIAN_POINT ( 'NONE',  ( 1.345675099345788088E-15, 0.000000000000000000, 0.3854166666666658525 ) ) ;
#16 = CARTESIAN_POINT ( 'NONE',  ( 1.326762908760390423E-13, 1.200000000000000622, 38.00000000000000000 ) ) ;
#17 = EDGE_CURVE ( 'NONE', #29, #29, #99, .T. ) ;
#18 = EDGE_LOOP ( 'NONE', ( #288 ) ) ;
#19 = ORIENTED_EDGE ( 'NONE', *, *, #371, .T. ) ;
#20 = EDGE_LOOP ( 'NONE', ( #145 ) ) ;
#21 = EDGE_LOOP ( 'NONE', ( #112 ) ) ;
#22 = CC_DESIGN_PERSON_AND_ORGANIZATION_ASSIGNMENT ( #44, #39, ( #335 ) ) ;
#23 = CARTESIAN_POINT ( 'NONE',  ( 0.3550000000000013145, 0.000000000000000000, 0.3854166666666646313 ) ) ;
#24 = PERSON_AND_ORGANIZATION ( #273, #230 ) ;
#25 = DIRECTION ( 'NONE',  ( 3.491481338843133355E-15, -0.000000000000000000, 1.000000000000000000 ) ) ;
#26 = EDGE_LOOP ( 'NONE', ( #138 ) ) ;
#27 = AXIS2_PLACEMENT_3D ( 'NONE', #343, #239, #363 ) ;
#28 = LOCAL_TIME ( 10, 26, 49.00000000000000000, #76 ) ;
#29 = VERTEX_POINT ( 'NONE', #23 ) ;
#30 = EDGE_LOOP ( 'NONE', ( #113 ) ) ;
#31 = VERTEX_POINT ( 'NONE', #209 ) ;
#32 = AXIS2_PLACEMENT_3D ( 'NONE', #45, #193, #129 ) ;
#33 = COORDINATED_UNIVERSAL_TIME_OFFSET ( 1, 0, .AHEAD. ) ;
#34 = FACE_OUTER_BOUND ( 'NONE', #30, .T. ) ;
#35 = CALENDAR_DATE ( 2023, 27, 9 ) ;
#36 = CARTESIAN_POINT ( 'NONE',  ( -2.916672132158388188E-34, 0.000000000000000000, -8.353680999838303275E-20 ) ) ;
#37 = AXIS2_PLACEMENT_3D ( 'NONE', #319, #293, #289 ) ;
#38 = VERTEX_POINT ( 'NONE', #290 ) ;
#39 = PERSON_AND_ORGANIZATION_ROLE ( 'classification_officer' ) ;
#40 = DIRECTION ( 'NONE',  ( 3.491481338843133355E-15, -0.000000000000000000, 1.000000000000000000 ) ) ;
#41 = AXIS2_PLACEMENT_3D ( 'NONE', #325, #46, #136 ) ;
#42 = AXIS2_PLACEMENT_3D ( 'NONE', #340, #63, #385 ) ;
#43 = EDGE_CURVE ( 'NONE', #184, #184, #268, .T. ) ;
#44 = PERSON_AND_ORGANIZATION ( #273, #230 ) ;
#45 = CARTESIAN_POINT ( 'NONE',  ( 4.728047646350040591E-16, 0.000000000000000000, 0.1354166666666656305 ) ) ;
#46 = DIRECTION ( 'NONE',  ( 3.491481338843133355E-15, -0.000000000000000000, 1.000000000000000000 ) ) ;
#47 = AXIS2_PLACEMENT_3D ( 'NONE', #309, #210, #153 ) ;
#48 = PRODUCT_DEFINITION ( 'UNKNOWN', '', #321, #64 ) ;
#49 = CIRCLE ( 'NONE', #150, 0.2106624327025926058 ) ;
#50 = EDGE_LOOP ( 'NONE', ( #19 ) ) ;
#51 = EDGE_LOOP ( 'NONE', ( #269 ) ) ;
#52 = AXIS2_PLACEMENT_3D ( 'NONE', #16, #196, #379 ) ;
#53 = EDGE_LOOP ( 'NONE', ( #332 ) ) ;
#54 = ORIENTED_EDGE ( 'NONE', *, *, #382, .F. ) ;
#55 = DATE_AND_TIME ( #158, #217 ) ;
#56 = ORIENTED_EDGE ( 'NONE', *, *, #43, .T. ) ;
#57 = EDGE_LOOP ( 'NONE', ( #174 ) ) ;
#58 = DIRECTION ( 'NONE',  ( 3.491481338843133355E-15, -0.000000000000000000, 1.000000000000000000 ) ) ;
#59 = DIRECTION ( 'NONE',  ( 3.491481338843133355E-15, -0.000000000000000000, 1.000000000000000000 ) ) ;
#60 = CARTESIAN_POINT ( 'NONE',  ( 0.1600000000000017519, 0.000000000000000000, 0.4999999999999998890 ) ) ;
#61 = ORIENTED_EDGE ( 'NONE', *, *, #357, .F. ) ;
#62 = CC_DESIGN_APPROVAL ( #356, ( #48 ) ) ;
#63 = DIRECTION ( 'NONE',  ( 3.491481338843133355E-15, -0.000000000000000000, 1.000000000000000000 ) ) ;
#64 = DESIGN_CONTEXT ( 'detailed design', #281, 'design' ) ;
#65 = CARTESIAN_POINT ( 'NONE',  ( 0.000000000000000000, 0.000000000000000000, 0.000000000000000000 ) ) ;
#66 = APPROVAL_DATE_TIME ( #91, #356 ) ;
#67 = DIRECTION ( 'NONE',  ( 1.000000000000000000, 0.000000000000000000, 0.000000000000000000 ) ) ;
#68 = CARTESIAN_POINT ( 'NONE',  ( 0.2106624327025942434, 0.000000000000000000, 0.4687499999999961697 ) ) ;
#69 = DATE_TIME_ROLE ( 'classification_date' ) ;
#70 = DIRECTION ( 'NONE',  ( 1.000000000000000000, 0.000000000000000000, -3.491481338843133355E-15 ) ) ;
#71 = PLANE ( 'NONE',  #271 ) ;
#72 = CARTESIAN_POINT ( 'NONE',  ( 0.2106624327025933552, 0.000000000000000000, 0.2187499999999960032 ) ) ;
#73 = PERSON_AND_ORGANIZATION ( #273, #230 ) ;
#74 = FACE_OUTER_BOUND ( 'NONE', #137, .T. ) ;
#75 = ADVANCED_FACE ( 'NONE', ( #34, #126 ), #370, .T. ) ;
#76 = COORDINATED_UNIVERSAL_TIME_OFFSET ( 1, 0, .AHEAD. ) ;
#77 = FACE_OUTER_BOUND ( 'NONE', #287, .T. ) ;
#78 = AXIS2_PLACEMENT_3D ( 'NONE', #98, #219, #284 ) ;
#79 = APPROVAL_DATE_TIME ( #7, #2 ) ;
#80 = CYLINDRICAL_SURFACE ( 'NONE', #37, 0.2106624327025925780 ) ;
#81 = AXIS2_PLACEMENT_3D ( 'NONE', #88, #58, #179 ) ;
#82 = EDGE_LOOP ( 'NONE', ( #54 ) ) ;
#83 = DIRECTION ( 'NONE',  ( 3.491481338843133355E-15, -0.000000000000000000, 1.000000000000000000 ) ) ;
#84 = FACE_OUTER_BOUND ( 'NONE', #334, .T. ) ;
#85 = CC_DESIGN_PERSON_AND_ORGANIZATION_ASSIGNMENT ( #348, #253, ( #321 ) ) ;
#86 = FACE_OUTER_BOUND ( 'NONE', #326, .T. ) ;
#87 = ORIENTED_EDGE ( 'NONE', *, *, #134, .F. ) ;
#88 = CARTESIAN_POINT ( 'NONE',  ( 4.728047646350040591E-16, 0.000000000000000000, 0.1354166666666656305 ) ) ;
#89 = UNCERTAINTY_MEASURE_WITH_UNIT (LENGTH_MEASURE( 1.000000000000000082E-05 ), #3, 'distance_accuracy_value', 'NONE');
#90 = APPLICATION_CONTEXT ( 'configuration controlled 3d designs of mechanical parts and assemblies' ) ;
#91 = DATE_AND_TIME ( #282, #95 ) ;
#92 = DIRECTION ( 'NONE',  ( 1.000000000000000000, 0.000000000000000000, -3.388131789017201356E-15 ) ) ;
#93 = ORIENTED_EDGE ( 'NONE', *, *, #43, .F. ) ;
#94 = FACE_OUTER_BOUND ( 'NONE', #203, .T. ) ;
#95 = LOCAL_TIME ( 10, 26, 49.00000000000000000, #123 ) ;
#96 = VERTEX_POINT ( 'NONE', #72 ) ;
#97 = DIRECTION ( 'NONE',  ( 3.491481338843133355E-15, -0.000000000000000000, 1.000000000000000000 ) ) ;
#98 = CARTESIAN_POINT ( 'NONE',  ( 1.207640215041065256E-14, 0.000000000000000000, 3.458819045102513812 ) ) ;
#99 = CIRCLE ( 'NONE', #255, 0.3549999999999999822 ) ;
#100 = VERTEX_POINT ( 'NONE', #258 ) ;
#101 = ADVANCED_FACE ( 'NONE', ( #305, #283 ), #339, .F. ) ;
#102 =( NAMED_UNIT ( * ) PLANE_ANGLE_UNIT ( ) SI_UNIT ( $, .RADIAN. ) );
#103 = CALENDAR_DATE ( 2023, 27, 9 ) ;
#104 = CARTESIAN_POINT ( 'NONE',  ( 9.819791265496200149E-16, 0.000000000000000000, 0.2812499999999967804 ) ) ;
#105 = DIRECTION ( 'NONE',  ( -1.000000000000000000, 0.000000000000000000, 3.512204220727690448E-15 ) ) ;
#106 = ADVANCED_FACE ( 'NONE', ( #159, #246 ), #254, .T. ) ;
#107 = AXIS2_PLACEMENT_3D ( 'NONE', #236, #181, #120 ) ;
#108 = EDGE_LOOP ( 'NONE', ( #364 ) ) ;
#109 = EDGE_CURVE ( 'NONE', #154, #154, #238, .T. ) ;
#110 = ORIENTED_EDGE ( 'NONE', *, *, #162, .F. ) ;
#111 = DIRECTION ( 'NONE',  ( 3.491481338843133355E-15, -0.000000000000000000, 1.000000000000000000 ) ) ;
#112 = ORIENTED_EDGE ( 'NONE', *, *, #164, .F. ) ;
#113 = ORIENTED_EDGE ( 'NONE', *, *, #317, .F. ) ;
#114 = DIRECTION ( 'NONE',  ( 1.000000000000000000, 0.000000000000000000, -3.491481338843132961E-15 ) ) ;
#115 = APPROVAL_ROLE ( '' ) ;
#116 = CIRCLE ( 'NONE', #107, 0.3549999999999999822 ) ;
#117 = DIRECTION ( 'NONE',  ( 1.000000000000000000, 0.000000000000000000, -3.491481338843133355E-15 ) ) ;
#118 = PERSON_AND_ORGANIZATION ( #273, #230 ) ;
#119 = DIRECTION ( 'NONE',  ( 1.000000000000000000, 0.000000000000000000, 0.000000000000000000 ) ) ;
#120 = DIRECTION ( 'NONE',  ( 1.000000000000000000, 0.000000000000000000, -3.512204220727690448E-15 ) ) ;
#121 = CARTESIAN_POINT ( 'NONE',  ( 1.345675099345788088E-15, 0.000000000000000000, 0.3854166666666658525 ) ) ;
#122 = CARTESIAN_POINT ( 'NONE',  ( 0.2106624327025935772, 0.000000000000000000, 0.2812499999999960032 ) ) ;
#123 = COORDINATED_UNIVERSAL_TIME_OFFSET ( 1, 0, .AHEAD. ) ;
#124 = FACE_OUTER_BOUND ( 'NONE', #51, .T. ) ;
#125 = CARTESIAN_POINT ( 'NONE',  ( 0.1565358449660652629, 0.000000000000000000, -5.465419815590586836E-16 ) ) ;
#126 = FACE_OUTER_BOUND ( 'NONE', #369, .T. ) ;
#127 = DIRECTION ( 'NONE',  ( 3.491481338843133355E-15, -0.000000000000000000, 1.000000000000000000 ) ) ;
#128 = ADVANCED_FACE ( 'NONE', ( #124, #187 ), #248, .T. ) ;
#129 = DIRECTION ( 'NONE',  ( -1.000000000000000000, 0.000000000000000000, 3.512204220727690448E-15 ) ) ;
#130 = AXIS2_PLACEMENT_3D ( 'NONE', #172, #111, #276 ) ;
#131 = DIRECTION ( 'NONE',  ( 3.491481338843133355E-15, -0.000000000000000000, 1.000000000000000000 ) ) ;
#132 = SECURITY_CLASSIFICATION_LEVEL ( 'unclassified' ) ;
#133 = DIRECTION ( 'NONE',  ( -3.491481338843133355E-15, 0.000000000000000000, -1.000000000000000000 ) ) ;
#134 = EDGE_CURVE ( 'NONE', #242, #242, #306, .T. ) ;
#135 = PLANE ( 'NONE',  #52 ) ;
#136 = DIRECTION ( 'NONE',  ( 1.000000000000000000, 0.000000000000000000, -3.602642915508840499E-15 ) ) ;
#137 = EDGE_LOOP ( 'NONE', ( #142 ) ) ;
#138 = ORIENTED_EDGE ( 'NONE', *, *, #164, .T. ) ;
#139 = LOCAL_TIME ( 10, 26, 49.00000000000000000, #308 ) ;
#140 = ORIENTED_EDGE ( 'NONE', *, *, #13, .F. ) ;
#141 = CARTESIAN_POINT ( 'NONE',  ( 1.316288464743861212E-13, 0.000000000000000000, 37.69999999999999574 ) ) ;
#142 = ORIENTED_EDGE ( 'NONE', *, *, #162, .T. ) ;
#143 = DIRECTION ( 'NONE',  ( 1.000000000000000000, 0.000000000000000000, -2.710505431213768579E-15 ) ) ;
#144 = PERSON_AND_ORGANIZATION ( #273, #230 ) ;
#145 = ORIENTED_EDGE ( 'NONE', *, *, #324, .T. ) ;
#146 = FACE_BOUND ( 'NONE', #26, .T. ) ;
#147 = APPROVAL ( #387, 'UNSPECIFIED' ) ;
#148 = CIRCLE ( 'NONE', #247, 0.1599999999999995592 ) ;
#149 = DIRECTION ( 'NONE',  ( 1.000000000000000000, 0.000000000000000000, -3.602642915508841288E-15 ) ) ;
#150 = AXIS2_PLACEMENT_3D ( 'NONE', #304, #277, #176 ) ;
#151 = CARTESIAN_POINT ( 'NONE',  ( 1.117274028429803147E-14, 0.000000000000000000, 3.200000000000001510 ) ) ;
#152 = APPLICATION_PROTOCOL_DEFINITION ( 'international standard', 'config_control_design', 1994, #281 ) ;
#153 = DIRECTION ( 'NONE',  ( 1.000000000000000000, 0.000000000000000000, -3.474028087893693774E-15 ) ) ;
#154 = VERTEX_POINT ( 'NONE', #392 ) ;
#155 = ORIENTED_EDGE ( 'NONE', *, *, #17, .T. ) ;
#156 = MANIFOLD_SOLID_BREP ( 'Corps-Déplacer/Copier1', #294 ) ;
#157 = VERTEX_POINT ( 'NONE', #218 ) ;
#158 = CALENDAR_DATE ( 2023, 27, 9 ) ;
#159 = FACE_OUTER_BOUND ( 'NONE', #285, .T. ) ;
#160 = CIRCLE ( 'NONE', #81, 0.3549999999999999822 ) ;
#161 = DIRECTION ( 'NONE',  ( -3.491481338843133355E-15, 0.000000000000000000, -1.000000000000000000 ) ) ;
#162 = EDGE_CURVE ( 'NONE', #360, #360, #182, .T. ) ;
#163 = CARTESIAN_POINT ( 'NONE',  ( 0.3550000000000004263, 0.000000000000000000, 0.1354166666666643815 ) ) ;
#164 = EDGE_CURVE ( 'NONE', #333, #333, #186, .T. ) ;
#165 = SHAPE_DEFINITION_REPRESENTATION ( #265, #383 ) ;
#166 = EDGE_CURVE ( 'NONE', #38, #38, #204, .T. ) ;
#167 = PRODUCT ( '961151', '961151', '', ( #11 ) ) ;
#168 = AXIS2_PLACEMENT_3D ( 'NONE', #393, #161, #251 ) ;
#169 = CC_DESIGN_DATE_AND_TIME_ASSIGNMENT ( #192, #69, ( #335 ) ) ;
#170 = CONICAL_SURFACE ( 'NONE', #374, 0.1565358449660652629, 1.047197551196594745 ) ;
#171 = ADVANCED_FACE ( 'NONE', ( #213, #292 ), #353, .T. ) ;
#172 = CARTESIAN_POINT ( 'NONE',  ( 7.637615428719239830E-16, 0.000000000000000000, 0.2187499999999967248 ) ) ;
#173 = CIRCLE ( 'NONE', #27, 1.500000000000000000 ) ;
#174 = ORIENTED_EDGE ( 'NONE', *, *, #13, .T. ) ;
#175 = ADVANCED_FACE ( 'NONE', ( #199, #194 ), #220, .T. ) ;
#176 = DIRECTION ( 'NONE',  ( 1.000000000000000000, 0.000000000000000000, -3.602642915508840499E-15 ) ) ;
#177 = ORIENTED_EDGE ( 'NONE', *, *, #166, .T. ) ;
#178 = AXIS2_PLACEMENT_3D ( 'NONE', #222, #216, #349 ) ;
#179 = DIRECTION ( 'NONE',  ( 1.000000000000000000, 0.000000000000000000, -3.512204220727690448E-15 ) ) ;
#180 = CARTESIAN_POINT ( 'NONE',  ( 1.745740669421568255E-15, 0.000000000000000000, 0.5000000000000004441 ) ) ;
#181 = DIRECTION ( 'NONE',  ( 3.491481338843133355E-15, -0.000000000000000000, 1.000000000000000000 ) ) ;
#182 = CIRCLE ( 'NONE', #178, 1.200000000000000622 ) ;
#183 = EDGE_LOOP ( 'NONE', ( #177 ) ) ;
#184 = VERTEX_POINT ( 'NONE', #390 ) ;
#185 = APPROVAL_STATUS ( 'not_yet_approved' ) ;
#186 = CIRCLE ( 'NONE', #9, 0.1565358449660652629 ) ;
#187 = FACE_OUTER_BOUND ( 'NONE', #384, .T. ) ;
#188 = APPROVAL_ROLE ( '' ) ;
#189 = EDGE_LOOP ( 'NONE', ( #297 ) ) ;
#190 = AXIS2_PLACEMENT_3D ( 'NONE', #141, #215, #336 ) ;
#191 = CC_DESIGN_PERSON_AND_ORGANIZATION_ASSIGNMENT ( #24, #5, ( #167 ) ) ;
#192 = DATE_AND_TIME ( #103, #381 ) ;
#193 = DIRECTION ( 'NONE',  ( -3.491481338843133355E-15, 0.000000000000000000, -1.000000000000000000 ) ) ;
#194 = FACE_BOUND ( 'NONE', #208, .T. ) ;
#195 = DIRECTION ( 'NONE',  ( 1.000000000000000000, 0.000000000000000000, 0.000000000000000000 ) ) ;
#196 = DIRECTION ( 'NONE',  ( -3.491481338843133355E-15, 0.000000000000000000, -1.000000000000000000 ) ) ;
#197 = AXIS2_PLACEMENT_3D ( 'NONE', #180, #25, #149 ) ;
#198 = AXIS2_PLACEMENT_3D ( 'NONE', #365, #362, #114 ) ;
#199 = FACE_OUTER_BOUND ( 'NONE', #82, .T. ) ;
#200 = PRODUCT_RELATED_PRODUCT_CATEGORY ( 'detail', '', ( #167 ) ) ;
#201 = AXIS2_PLACEMENT_3D ( 'NONE', #376, #131, #351 ) ;
#202 = AXIS2_PLACEMENT_3D ( 'NONE', #8, #127, #372 ) ;
#203 = EDGE_LOOP ( 'NONE', ( #140 ) ) ;
#204 = CIRCLE ( 'NONE', #261, 1.499999999999996669 ) ;
#205 = CARTESIAN_POINT ( 'NONE',  ( 1.200000000000133182, 0.000000000000000000, 37.99999999999999289 ) ) ;
#206 = ORIENTED_EDGE ( 'NONE', *, *, #244, .T. ) ;
#207 = AXIS2_PLACEMENT_3D ( 'NONE', #1, #368, #67 ) ;
#208 = EDGE_LOOP ( 'NONE', ( #56 ) ) ;
#209 = CARTESIAN_POINT ( 'NONE',  ( 0.3550000000000003153, 0.000000000000000000, 0.1145833333333333565 ) ) ;
#210 = DIRECTION ( 'NONE',  ( 3.491481338843133355E-15, -0.000000000000000000, 1.000000000000000000 ) ) ;
#211 = CC_DESIGN_PERSON_AND_ORGANIZATION_ASSIGNMENT ( #73, #14, ( #321 ) ) ;
#212 = FACE_BOUND ( 'NONE', #327, .T. ) ;
#213 = FACE_BOUND ( 'NONE', #316, .T. ) ;
#214 = ADVANCED_FACE ( 'NONE', ( #77, #256 ), #80, .T. ) ;
#215 = DIRECTION ( 'NONE',  ( -3.491481338843133355E-15, 0.000000000000000000, -1.000000000000000000 ) ) ;
#216 = DIRECTION ( 'NONE',  ( 3.491481338843133355E-15, -0.000000000000000000, 1.000000000000000000 ) ) ;
#217 = LOCAL_TIME ( 10, 26, 49.00000000000000000, #33 ) ;
#218 = CARTESIAN_POINT ( 'NONE',  ( 0.3550000000000012035, 0.000000000000000000, 0.3645833333333335924 ) ) ;
#219 = DIRECTION ( 'NONE',  ( 3.491481338843133355E-15, -0.000000000000000000, 1.000000000000000000 ) ) ;
#220 = CONICAL_SURFACE ( 'NONE', #201, 0.1940741737109295539, 0.2617993877991428020 ) ;
#221 = ADVANCED_FACE ( 'NONE', ( #291, #264 ), #320, .T. ) ;
#222 = CARTESIAN_POINT ( 'NONE',  ( 1.326762908760390423E-13, 0.000000000000000000, 38.00000000000000000 ) ) ;
#223 = FACE_OUTER_BOUND ( 'NONE', #21, .T. ) ;
#224 = CC_DESIGN_DATE_AND_TIME_ASSIGNMENT ( #55, #302, ( #48 ) ) ;
#225 = CARTESIAN_POINT ( 'NONE',  ( 1.326762908760390423E-13, 0.000000000000000000, 38.00000000000000000 ) ) ;
#226 = COORDINATED_UNIVERSAL_TIME_OFFSET ( 1, 0, .AHEAD. ) ;
#227 = CIRCLE ( 'NONE', #252, 0.2106624327025926058 ) ;
#228 = APPROVAL_STATUS ( 'not_yet_approved' ) ;
#229 = FACE_OUTER_BOUND ( 'NONE', #53, .T. ) ;
#230 = ORGANIZATION ( 'UNSPECIFIED', 'UNSPECIFIED', '' ) ;
#231 = FACE_BOUND ( 'NONE', #257, .T. ) ;
#232 = ORIENTED_EDGE ( 'NONE', *, *, #377, .F. ) ;
#233 = AXIS2_PLACEMENT_3D ( 'NONE', #345, #97, #119 ) ;
#234 = AXIS2_PLACEMENT_3D ( 'NONE', #329, #375, #195 ) ;
#235 = CC_DESIGN_APPROVAL ( #2, ( #335 ) ) ;
#236 = CARTESIAN_POINT ( 'NONE',  ( 1.272935904786564295E-15, 0.000000000000000000, 0.3645833333333348136 ) ) ;
#237 = FACE_OUTER_BOUND ( 'NONE', #272, .T. ) ;
#238 = CIRCLE ( 'NONE', #197, 0.2106624327025925503 ) ;
#239 = DIRECTION ( 'NONE',  ( 3.491481338843133355E-15, -0.000000000000000000, 1.000000000000000000 ) ) ;
#240 = APPROVAL_PERSON_ORGANIZATION ( #318, #2, #188 ) ;
#241 = ORIENTED_EDGE ( 'NONE', *, *, #244, .F. ) ;
#242 = VERTEX_POINT ( 'NONE', #60 ) ;
#243 = DIRECTION ( 'NONE',  ( 3.491481338843133355E-15, -0.000000000000000000, 1.000000000000000000 ) ) ;
#244 = EDGE_CURVE ( 'NONE', #373, #373, #227, .T. ) ;
#245 = FACE_OUTER_BOUND ( 'NONE', #183, .T. ) ;
#246 = FACE_OUTER_BOUND ( 'NONE', #57, .T. ) ;
#247 = AXIS2_PLACEMENT_3D ( 'NONE', #151, #338, #143 ) ;
#248 = CYLINDRICAL_SURFACE ( 'NONE', #233, 0.2106624327025925780 ) ;
#249 =( NAMED_UNIT ( * ) SI_UNIT ( $, .STERADIAN. ) SOLID_ANGLE_UNIT ( ) );
#250 = ADVANCED_FACE ( 'NONE', ( #354, #12 ), #303, .T. ) ;
#251 = DIRECTION ( 'NONE',  ( -1.000000000000000000, 0.000000000000000000, 3.491481338843133355E-15 ) ) ;
#252 = AXIS2_PLACEMENT_3D ( 'NONE', #104, #266, #262 ) ;
#253 = PERSON_AND_ORGANIZATION_ROLE ( 'design_supplier' ) ;
#254 = CYLINDRICAL_SURFACE ( 'NONE', #202, 0.3549999999999999822 ) ;
#255 = AXIS2_PLACEMENT_3D ( 'NONE', #121, #59, #342 ) ;
#256 = FACE_OUTER_BOUND ( 'NONE', #275, .T. ) ;
#257 = EDGE_LOOP ( 'NONE', ( #206 ) ) ;
#258 = CARTESIAN_POINT ( 'NONE',  ( 1.500000000000029088, 0.000000000000000000, 8.332600579729817269 ) ) ;
#259 = APPROVAL_DATE_TIME ( #323, #147 ) ;
#260 = ADVANCED_FACE ( 'NONE', ( #74 ), #135, .F. ) ;
#261 = AXIS2_PLACEMENT_3D ( 'NONE', #391, #243, #366 ) ;
#262 = DIRECTION ( 'NONE',  ( 1.000000000000000000, 0.000000000000000000, -3.602642915508840499E-15 ) ) ;
#263 = APPLICATION_PROTOCOL_DEFINITION ( 'international standard', 'config_control_design', 1994, #90 ) ;
#264 = FACE_OUTER_BOUND ( 'NONE', #189, .T. ) ;
#265 = PRODUCT_DEFINITION_SHAPE ( 'NONE', 'NONE',  #48 ) ;
#266 = DIRECTION ( 'NONE',  ( 3.491481338843133355E-15, -0.000000000000000000, 1.000000000000000000 ) ) ;
#267 = CC_DESIGN_SECURITY_CLASSIFICATION ( #335, ( #321 ) ) ;
#268 = CIRCLE ( 'NONE', #78, 0.1940741737109295539 ) ;
#269 = ORIENTED_EDGE ( 'NONE', *, *, #109, .F. ) ;
#270 = ADVANCED_FACE ( 'NONE', ( #229, #231 ), #355, .T. ) ;
#271 = AXIS2_PLACEMENT_3D ( 'NONE', #36, #307, #367 ) ;
#272 = EDGE_LOOP ( 'NONE', ( #93 ) ) ;
#273 = PERSON ( 'UNSPECIFIED', 'UNSPECIFIED', 'UNSPECIFIED', ('UNSPECIFIED'), ('UNSPECIFIED'), ('UNSPECIFIED') ) ;
#274 = FACE_OUTER_BOUND ( 'NONE', #50, .T. ) ;
#275 = EDGE_LOOP ( 'NONE', ( #299 ) ) ;
#276 = DIRECTION ( 'NONE',  ( 1.000000000000000000, 0.000000000000000000, -3.473977097097810932E-15 ) ) ;
#277 = DIRECTION ( 'NONE',  ( 3.491481338843133355E-15, -0.000000000000000000, 1.000000000000000000 ) ) ;
#278 = APPROVAL_ROLE ( '' ) ;
#279 = DIRECTION ( 'NONE',  ( 3.491481338843133355E-15, -0.000000000000000000, 1.000000000000000000 ) ) ;
#280 = CYLINDRICAL_SURFACE ( 'NONE', #42, 0.3549999999999999822 ) ;
#281 = APPLICATION_CONTEXT ( 'configuration controlled 3d designs of mechanical parts and assemblies' ) ;
#282 = CALENDAR_DATE ( 2023, 27, 9 ) ;
#283 = FACE_OUTER_BOUND ( 'NONE', #18, .T. ) ;
#284 = DIRECTION ( 'NONE',  ( 1.000000000000000000, 0.000000000000000000, -4.469228034845714395E-15 ) ) ;
#285 = EDGE_LOOP ( 'NONE', ( #298 ) ) ;
#286 = CC_DESIGN_APPROVAL ( #147, ( #321 ) ) ;
#287 = EDGE_LOOP ( 'NONE', ( #241 ) ) ;
#288 = ORIENTED_EDGE ( 'NONE', *, *, #109, .T. ) ;
#289 = DIRECTION ( 'NONE',  ( 1.000000000000000000, 0.000000000000000000, 0.000000000000000000 ) ) ;
#290 = CARTESIAN_POINT ( 'NONE',  ( 1.500000000000128120, 0.000000000000000000, 37.69999999999998863 ) ) ;
#291 = FACE_OUTER_BOUND ( 'NONE', #108, .T. ) ;
#292 = FACE_OUTER_BOUND ( 'NONE', #20, .T. ) ;
#293 = DIRECTION ( 'NONE',  ( 3.491481338843133355E-15, -0.000000000000000000, 1.000000000000000000 ) ) ;
#294 = CLOSED_SHELL ( 'NONE', ( #300, #337, #106, #171, #214, #270, #394, #250, #128, #101, #75, #331, #175, #221, #359, #260 ) ) ;
#295 = CC_DESIGN_PERSON_AND_ORGANIZATION_ASSIGNMENT ( #341, #312, ( #48 ) ) ;
#296 = EDGE_LOOP ( 'NONE', ( #155 ) ) ;
#297 = ORIENTED_EDGE ( 'NONE', *, *, #382, .T. ) ;
#298 = ORIENTED_EDGE ( 'NONE', *, *, #324, .F. ) ;
#299 = ORIENTED_EDGE ( 'NONE', *, *, #357, .T. ) ;
#300 = ADVANCED_FACE ( 'NONE', ( #223 ), #71, .F. ) ;
#301 = CARTESIAN_POINT ( 'NONE',  ( 0.000000000000000000, 0.000000000000000000, 0.000000000000000000 ) ) ;
#302 = DATE_TIME_ROLE ( 'creation_date' ) ;
#303 = CONICAL_SURFACE ( 'NONE', #347, 0.3549999999999999822, 1.047197551196612064 ) ;
#304 = CARTESIAN_POINT ( 'NONE',  ( 1.636631877582708111E-15, 0.000000000000000000, 0.4687499999999969469 ) ) ;
#305 = FACE_BOUND ( 'NONE', #386, .T. ) ;
#306 = CIRCLE ( 'NONE', #328, 0.1600000000000000033 ) ;
#307 = DIRECTION ( 'NONE',  ( 3.491481338843133355E-15, -0.000000000000000000, 1.000000000000000000 ) ) ;
#308 = COORDINATED_UNIVERSAL_TIME_OFFSET ( 1, 0, .AHEAD. ) ;
#309 = CARTESIAN_POINT ( 'NONE',  ( 4.000655700757801179E-16, 0.000000000000000000, 0.1145833333333345916 ) ) ;
#310 = CARTESIAN_POINT ( 'NONE',  ( 1.745740669421568255E-15, 0.000000000000000000, 0.5000000000000004441 ) ) ;
#311 = CARTESIAN_POINT ( 'NONE',  ( 0.1600000000000107170, 0.000000000000000000, 3.200000000000001066 ) ) ;
#312 = PERSON_AND_ORGANIZATION_ROLE ( 'creator' ) ;
#313 = DIRECTION ( 'NONE',  ( 3.491481338843133355E-15, -0.000000000000000000, 1.000000000000000000 ) ) ;
#314 = APPROVAL_PERSON_ORGANIZATION ( #144, #147, #115 ) ;
#315 = CALENDAR_DATE ( 2023, 27, 9 ) ;
#316 = EDGE_LOOP ( 'NONE', ( #61 ) ) ;
#317 = EDGE_CURVE ( 'NONE', #352, #352, #148, .T. ) ;
#318 = PERSON_AND_ORGANIZATION ( #273, #230 ) ;
#319 = CARTESIAN_POINT ( 'NONE',  ( 1.326762908760390423E-13, 0.000000000000000000, 38.00000000000000000 ) ) ;
#320 = CYLINDRICAL_SURFACE ( 'NONE', #346, 1.499999999999998224 ) ;
#321 = PRODUCT_DEFINITION_FORMATION_WITH_SPECIFIED_SOURCE ( 'ANY', '', #167, .NOT_KNOWN. ) ;
#322 = ORIENTED_EDGE ( 'NONE', *, *, #377, .T. ) ;
#323 = DATE_AND_TIME ( #35, #139 ) ;
#324 = EDGE_CURVE ( 'NONE', #395, #395, #160, .T. ) ;
#325 = CARTESIAN_POINT ( 'NONE',  ( 9.819791265496200149E-16, 0.000000000000000000, 0.2812499999999967804 ) ) ;
#326 = EDGE_LOOP ( 'NONE', ( #388 ) ) ;
#327 = EDGE_LOOP ( 'NONE', ( #110 ) ) ;
#328 = AXIS2_PLACEMENT_3D ( 'NONE', #310, #279, #92 ) ;
#329 = CARTESIAN_POINT ( 'NONE',  ( 0.000000000000000000, 0.000000000000000000, 0.000000000000000000 ) ) ;
#330 = ORIENTED_EDGE ( 'NONE', *, *, #317, .T. ) ;
#331 = ADVANCED_FACE ( 'NONE', ( #237, #84 ), #380, .F. ) ;
#332 = ORIENTED_EDGE ( 'NONE', *, *, #371, .F. ) ;
#333 = VERTEX_POINT ( 'NONE', #125 ) ;
#334 = EDGE_LOOP ( 'NONE', ( #330 ) ) ;
#335 = SECURITY_CLASSIFICATION ( '', '', #132 ) ;
#336 = DIRECTION ( 'NONE',  ( -1.000000000000000000, 0.000000000000000000, 4.625929269271495577E-15 ) ) ;
#337 = ADVANCED_FACE ( 'NONE', ( #94, #146 ), #170, .T. ) ;
#338 = DIRECTION ( 'NONE',  ( 3.491481338843133355E-15, -0.000000000000000000, 1.000000000000000000 ) ) ;
#339 = PLANE ( 'NONE',  #168 ) ;
#340 = CARTESIAN_POINT ( 'NONE',  ( 1.326762908760390423E-13, 0.000000000000000000, 38.00000000000000000 ) ) ;
#341 = PERSON_AND_ORGANIZATION ( #273, #230 ) ;
#342 = DIRECTION ( 'NONE',  ( 1.000000000000000000, 0.000000000000000000, -3.512204220727690448E-15 ) ) ;
#343 = CARTESIAN_POINT ( 'NONE',  ( 2.909311942816014978E-14, 0.000000000000000000, 8.332600579729822599 ) ) ;
#344 = CONICAL_SURFACE ( 'NONE', #190, 1.499999999999996669, 0.7853981633974389531 ) ;
#345 = CARTESIAN_POINT ( 'NONE',  ( 1.326762908760390423E-13, 0.000000000000000000, 38.00000000000000000 ) ) ;
#346 = AXIS2_PLACEMENT_3D ( 'NONE', #225, #40, #378 ) ;
#347 = AXIS2_PLACEMENT_3D ( 'NONE', #15, #133, #105 ) ;
#348 = PERSON_AND_ORGANIZATION ( #273, #230 ) ;
#349 = DIRECTION ( 'NONE',  ( 1.000000000000000000, 0.000000000000000000, -5.782411586589354089E-15 ) ) ;
#350 = CIRCLE ( 'NONE', #47, 0.3549999999999999822 ) ;
#351 = DIRECTION ( 'NONE',  ( 1.000000000000000000, 0.000000000000000000, -4.469228034845714395E-15 ) ) ;
#352 = VERTEX_POINT ( 'NONE', #311 ) ;
#353 = CONICAL_SURFACE ( 'NONE', #32, 0.3549999999999999822, 1.047197551196612064 ) ;
#354 = FACE_BOUND ( 'NONE', #361, .T. ) ;
#355 = CONICAL_SURFACE ( 'NONE', #41, 0.2106624327025926058, 1.047197551196576093 ) ;
#356 = APPROVAL ( #185, 'UNSPECIFIED' ) ;
#357 = EDGE_CURVE ( 'NONE', #96, #96, #389, .T. ) ;
#358 = APPROVAL_PERSON_ORGANIZATION ( #118, #356, #278 ) ;
#359 = ADVANCED_FACE ( 'NONE', ( #212, #245 ), #344, .T. ) ;
#360 = VERTEX_POINT ( 'NONE', #205 ) ;
#361 = EDGE_LOOP ( 'NONE', ( #232 ) ) ;
#362 = DIRECTION ( 'NONE',  ( 3.491481338843133355E-15, -0.000000000000000000, 1.000000000000000000 ) ) ;
#363 = DIRECTION ( 'NONE',  ( 1.000000000000000000, 0.000000000000000000, -3.469446951953614189E-15 ) ) ;
#364 = ORIENTED_EDGE ( 'NONE', *, *, #166, .F. ) ;
#365 = CARTESIAN_POINT ( 'NONE',  ( 1.117274028429802674E-14, 0.000000000000000000, 3.200000000000000178 ) ) ;
#366 = DIRECTION ( 'NONE',  ( 1.000000000000000000, 0.000000000000000000, -4.625929269271495577E-15 ) ) ;
#367 = DIRECTION ( 'NONE',  ( 1.000000000000000000, 0.000000000000000000, -3.491481338843133355E-15 ) ) ;
#368 = DIRECTION ( 'NONE',  ( 3.491481338843133355E-15, -0.000000000000000000, 1.000000000000000000 ) ) ;
#369 = EDGE_LOOP ( 'NONE', ( #6 ) ) ;
#370 = CYLINDRICAL_SURFACE ( 'NONE', #207, 0.1599999999999997813 ) ;
#371 = EDGE_CURVE ( 'NONE', #157, #157, #116, .T. ) ;
#372 = DIRECTION ( 'NONE',  ( 1.000000000000000000, 0.000000000000000000, 0.000000000000000000 ) ) ;
#373 = VERTEX_POINT ( 'NONE', #122 ) ;
#374 = AXIS2_PLACEMENT_3D ( 'NONE', #301, #83, #117 ) ;
#375 = DIRECTION ( 'NONE',  ( 0.000000000000000000, 0.000000000000000000, 1.000000000000000000 ) ) ;
#376 = CARTESIAN_POINT ( 'NONE',  ( 1.207640215041065256E-14, 0.000000000000000000, 3.458819045102513812 ) ) ;
#377 = EDGE_CURVE ( 'NONE', #10, #10, #49, .T. ) ;
#378 = DIRECTION ( 'NONE',  ( 1.000000000000000000, 0.000000000000000000, -4.625929269271490844E-15 ) ) ;
#379 = DIRECTION ( 'NONE',  ( -1.000000000000000000, 0.000000000000000000, 3.491481338843133355E-15 ) ) ;
#380 = TOROIDAL_SURFACE ( 'NONE', #198, 1.159999999999999476, 1.000000000000000000 ) ;
#381 = LOCAL_TIME ( 10, 26, 49.00000000000000000, #226 ) ;
#382 = EDGE_CURVE ( 'NONE', #100, #100, #173, .T. ) ;
#383 = ADVANCED_BREP_SHAPE_REPRESENTATION ( '961151', ( #156, #234 ), #4 ) ;
#384 = EDGE_LOOP ( 'NONE', ( #322 ) ) ;
#385 = DIRECTION ( 'NONE',  ( 1.000000000000000000, 0.000000000000000000, 0.000000000000000000 ) ) ;
#386 = EDGE_LOOP ( 'NONE', ( #87 ) ) ;
#387 = APPROVAL_STATUS ( 'not_yet_approved' ) ;
#388 = ORIENTED_EDGE ( 'NONE', *, *, #17, .F. ) ;
#389 = CIRCLE ( 'NONE', #130, 0.2106624327025925780 ) ;
#390 = CARTESIAN_POINT ( 'NONE',  ( 0.1940741737109416554, 0.000000000000000000, 3.458819045102512924 ) ) ;
#391 = CARTESIAN_POINT ( 'NONE',  ( 1.316288464743861212E-13, 0.000000000000000000, 37.69999999999999574 ) ) ;
#392 = CARTESIAN_POINT ( 'NONE',  ( 0.2106624327025942989, 0.000000000000000000, 0.4999999999999996669 ) ) ;
#393 = CARTESIAN_POINT ( 'NONE',  ( 1.745740669421566678E-15, 0.2106624327025925503, 0.5000000000000000000 ) ) ;
#394 = ADVANCED_FACE ( 'NONE', ( #86, #274 ), #280, .T. ) ;
#395 = VERTEX_POINT ( 'NONE', #163 ) ;
ENDSEC;
END-ISO-10303-21;
