ISO-10303-21;
HEADER;
FILE_DESCRIPTION (( 'STEP AP203' ),
    '1' );
FILE_NAME ('961150.step',
    '2023-09-27T08:26:48',
    ( '' ),
    ( '' ),
    'SwSTEP 2.0',
    'SolidWorks 2022',
    '' );
FILE_SCHEMA (( 'CONFIG_CONTROL_DESIGN' ));
ENDSEC;

DATA;
#1 = DIRECTION ( 'NONE',  ( 3.491481338843133355E-15, -0.000000000000000000, 1.000000000000000000 ) ) ;
#2 = CARTESIAN_POINT ( 'NONE',  ( 1.326762908760390423E-13, 0.000000000000000000, 38.00000000000000000 ) ) ;
#3 = EDGE_CURVE ( 'NONE', #46, #46, #13, .T. ) ;
#4 = LOCAL_TIME ( 10, 26, 48.00000000000000000, #190 ) ;
#5 = CARTESIAN_POINT ( 'NONE',  ( -5.456643485169333236E-34, 0.000000000000000000, -1.562844808724464386E-19 ) ) ;
#6 = UNCERTAINTY_MEASURE_WITH_UNIT (LENGTH_MEASURE( 1.000000000000000082E-05 ), #148, 'distance_accuracy_value', 'NONE');
#7 = CIRCLE ( 'NONE', #92, 0.1900961894323334456 ) ;
#8 = DIRECTION ( 'NONE',  ( -3.491481338843133355E-15, 0.000000000000000000, -1.000000000000000000 ) ) ;
#9 = FACE_BOUND ( 'NONE', #312, .T. ) ;
#10 = DIRECTION ( 'NONE',  ( -3.491481338843133355E-15, 0.000000000000000000, -1.000000000000000000 ) ) ;
#11 = ADVANCED_FACE ( 'NONE', ( #22, #136 ), #231, .T. ) ;
#12 = DIRECTION ( 'NONE',  ( 1.000000000000000000, 0.000000000000000000, -3.472835083742631390E-15 ) ) ;
#13 = CIRCLE ( 'NONE', #223, 1.500000000000000000 ) ;
#14 = CIRCLE ( 'NONE', #278, 0.1449999999999999900 ) ;
#15 = AXIS2_PLACEMENT_3D ( 'NONE', #157, #125, #44 ) ;
#16 = DIRECTION ( 'NONE',  ( -3.491481338843133355E-15, 0.000000000000000000, -1.000000000000000000 ) ) ;
#17 = CALENDAR_DATE ( 2023, 27, 9 ) ;
#18 = CARTESIAN_POINT ( 'NONE',  ( 0.1450000000000015721, 0.000000000000000000, 0.4499999999999985123 ) ) ;
#19 = DATE_TIME_ROLE ( 'creation_date' ) ;
#20 = ADVANCED_FACE ( 'NONE', ( #88, #270 ), #33, .T. ) ;
#21 = ORIENTED_EDGE ( 'NONE', *, *, #378, .T. ) ;
#22 = FACE_OUTER_BOUND ( 'NONE', #261, .T. ) ;
#23 = CARTESIAN_POINT ( 'NONE',  ( 0.3200000000000004508, 0.000000000000000000, 0.1218749999999993450 ) ) ;
#24 = CARTESIAN_POINT ( 'NONE',  ( 1.326762908760390423E-13, 0.000000000000000000, 38.00000000000000000 ) ) ;
#25 = ORIENTED_EDGE ( 'NONE', *, *, #3, .T. ) ;
#26 = DIRECTION ( 'NONE',  ( 1.000000000000000000, 0.000000000000000000, 0.000000000000000000 ) ) ;
#27 = CC_DESIGN_SECURITY_CLASSIFICATION ( #333, ( #326 ) ) ;
#28 = FACE_BOUND ( 'NONE', #255, .T. ) ;
#29 = CALENDAR_DATE ( 2023, 27, 9 ) ;
#30 = CYLINDRICAL_SURFACE ( 'NONE', #344, 1.499999999999998224 ) ;
#31 = FACE_BOUND ( 'NONE', #292, .T. ) ;
#32 = LOCAL_TIME ( 10, 26, 48.00000000000000000, #146 ) ;
#33 = CONICAL_SURFACE ( 'NONE', #252, 0.1790741737109295129, 0.2617993877991427465 ) ;
#34 = CONICAL_SURFACE ( 'NONE', #182, 0.3200000000000000067, 1.047197551196607845 ) ;
#35 = FACE_OUTER_BOUND ( 'NONE', #347, .T. ) ;
#36 = LOCAL_TIME ( 10, 26, 48.00000000000000000, #277 ) ;
#37 = CARTESIAN_POINT ( 'NONE',  ( 1.571166602479410010E-15, 0.1900961894323334178, 0.4500000000000000111 ) ) ;
#38 = EDGE_CURVE ( 'NONE', #53, #53, #370, .T. ) ;
#39 = FACE_OUTER_BOUND ( 'NONE', #72, .T. ) ;
#40 = PERSON_AND_ORGANIZATION_ROLE ( 'creator' ) ;
#41 = DIRECTION ( 'NONE',  ( 3.491481338843133355E-15, -0.000000000000000000, 1.000000000000000000 ) ) ;
#42 = CIRCLE ( 'NONE', #359, 0.3199999999999999512 ) ;
#43 = AXIS2_PLACEMENT_3D ( 'NONE', #254, #97, #12 ) ;
#44 = DIRECTION ( 'NONE',  ( 1.000000000000000000, 0.000000000000000000, -3.422063879522750913E-15 ) ) ;
#45 = ADVANCED_FACE ( 'NONE', ( #143, #57 ), #325, .T. ) ;
#46 = VERTEX_POINT ( 'NONE', #316 ) ;
#47 = ORIENTED_EDGE ( 'NONE', *, *, #3, .F. ) ;
#48 = DIRECTION ( 'NONE',  ( 1.000000000000000000, 0.000000000000000000, 0.000000000000000000 ) ) ;
#49 = APPROVAL_PERSON_ORGANIZATION ( #387, #109, #358 ) ;
#50 = EDGE_LOOP ( 'NONE', ( #170 ) ) ;
#51 = CYLINDRICAL_SURFACE ( 'NONE', #203, 0.3200000000000000067 ) ;
#52 = ORIENTED_EDGE ( 'NONE', *, *, #185, .F. ) ;
#53 = VERTEX_POINT ( 'NONE', #171 ) ;
#54 = DIRECTION ( 'NONE',  ( 3.491481338843133355E-15, -0.000000000000000000, 1.000000000000000000 ) ) ;
#55 = DIRECTION ( 'NONE',  ( 1.000000000000000000, 0.000000000000000000, 0.000000000000000000 ) ) ;
#56 = CIRCLE ( 'NONE', #258, 0.1790741737109295129 ) ;
#57 = FACE_OUTER_BOUND ( 'NONE', #365, .T. ) ;
#58 = DIRECTION ( 'NONE',  ( 1.000000000000000000, 0.000000000000000000, -3.491481338843133355E-15 ) ) ;
#59 = DIRECTION ( 'NONE',  ( 1.000000000000000000, 0.000000000000000000, 0.000000000000000000 ) ) ;
#60 = CONICAL_SURFACE ( 'NONE', #71, 0.1413822604694588148, 1.047197551196588972 ) ;
#61 = AXIS2_PLACEMENT_3D ( 'NONE', #247, #41, #249 ) ;
#62 = FACE_OUTER_BOUND ( 'NONE', #283, .T. ) ;
#63 = ADVANCED_FACE ( 'NONE', ( #266, #31 ), #60, .T. ) ;
#64 = CONICAL_SURFACE ( 'NONE', #314, 0.1900961894323334456, 1.047197551196607845 ) ;
#65 = AXIS2_PLACEMENT_3D ( 'NONE', #276, #16, #305 ) ;
#66 = DIRECTION ( 'NONE',  ( -1.000000000000000000, 0.000000000000000000, 3.491481338843133355E-15 ) ) ;
#67 = PERSON_AND_ORGANIZATION ( #81, #200 ) ;
#68 = APPROVAL_STATUS ( 'not_yet_approved' ) ;
#69 = DIRECTION ( 'NONE',  ( 3.491481338843133355E-15, -0.000000000000000000, 1.000000000000000000 ) ) ;
#70 = MECHANICAL_CONTEXT ( 'NONE', #159, 'mechanical' ) ;
#71 = AXIS2_PLACEMENT_3D ( 'NONE', #214, #298, #321 ) ;
#72 = EDGE_LOOP ( 'NONE', ( #385 ) ) ;
#73 = DIRECTION ( 'NONE',  ( 1.000000000000000000, 0.000000000000000000, -3.422063879522750519E-15 ) ) ;
#74 = ORIENTED_EDGE ( 'NONE', *, *, #275, .T. ) ;
#75 = VERTEX_POINT ( 'NONE', #198 ) ;
#76 = DIRECTION ( 'NONE',  ( 3.491481338843133355E-15, -0.000000000000000000, 1.000000000000000000 ) ) ;
#77 = EDGE_LOOP ( 'NONE', ( #138 ) ) ;
#78 = AXIS2_PLACEMENT_3D ( 'NONE', #114, #140, #241 ) ;
#79 = ORIENTED_EDGE ( 'NONE', *, *, #275, .F. ) ;
#80 = DIRECTION ( 'NONE',  ( 3.491481338843133355E-15, -0.000000000000000000, 1.000000000000000000 ) ) ;
#81 = PERSON ( 'UNSPECIFIED', 'UNSPECIFIED', 'UNSPECIFIED', ('UNSPECIFIED'), ('UNSPECIFIED'), ('UNSPECIFIED') ) ;
#82 = FACE_BOUND ( 'NONE', #137, .T. ) ;
#83 = ADVANCED_FACE ( 'NONE', ( #362, #272 ), #296, .T. ) ;
#84 = DIRECTION ( 'NONE',  ( 3.491481338843133355E-15, -0.000000000000000000, 1.000000000000000000 ) ) ;
#85 = VERTEX_POINT ( 'NONE', #89 ) ;
#86 = PERSON_AND_ORGANIZATION_ROLE ( 'design_supplier' ) ;
#87 = DIRECTION ( 'NONE',  ( 3.491481338843133355E-15, -0.000000000000000000, 1.000000000000000000 ) ) ;
#88 = FACE_OUTER_BOUND ( 'NONE', #264, .T. ) ;
#89 = CARTESIAN_POINT ( 'NONE',  ( 0.1900961894323341395, 0.000000000000000000, 0.1968749999999984956 ) ) ;
#90 = DIRECTION ( 'NONE',  ( -1.000000000000000000, 0.000000000000000000, 3.557538378468062213E-15 ) ) ;
#91 = AXIS2_PLACEMENT_3D ( 'NONE', #357, #1, #58 ) ;
#92 = AXIS2_PLACEMENT_3D ( 'NONE', #94, #187, #189 ) ;
#93 = ORIENTED_EDGE ( 'NONE', *, *, #215, .F. ) ;
#94 = CARTESIAN_POINT ( 'NONE',  ( 8.837812138946677361E-16, 0.000000000000000000, 0.2531249999999998779 ) ) ;
#95 = ADVANCED_FACE ( 'NONE', ( #35, #62 ), #30, .T. ) ;
#96 = DIRECTION ( 'NONE',  ( 0.000000000000000000, 0.000000000000000000, 1.000000000000000000 ) ) ;
#97 = DIRECTION ( 'NONE',  ( 3.491481338843133355E-15, -0.000000000000000000, 1.000000000000000000 ) ) ;
#98 = APPROVAL_STATUS ( 'not_yet_approved' ) ;
#99 = AXIS2_PLACEMENT_3D ( 'NONE', #251, #69, #368 ) ;
#100 = DIRECTION ( 'NONE',  ( 1.000000000000000000, 0.000000000000000000, -3.491481338843133355E-15 ) ) ;
#101 = ADVANCED_FACE ( 'NONE', ( #82, #244 ), #386, .T. ) ;
#102 = FACE_OUTER_BOUND ( 'NONE', #342, .T. ) ;
#103 = ORIENTED_EDGE ( 'NONE', *, *, #260, .T. ) ;
#104 = APPROVAL_ROLE ( '' ) ;
#105 = AXIS2_PLACEMENT_3D ( 'NONE', #181, #294, #59 ) ;
#106 = EDGE_LOOP ( 'NONE', ( #287 ) ) ;
#107 = AXIS2_PLACEMENT_3D ( 'NONE', #329, #186, #301 ) ;
#108 = CARTESIAN_POINT ( 'NONE',  ( 0.1450000000000098710, 0.000000000000000000, 2.899999999999999467 ) ) ;
#109 = APPROVAL ( #115, 'UNSPECIFIED' ) ;
#110 = ORIENTED_EDGE ( 'NONE', *, *, #172, .T. ) ;
#111 = CARTESIAN_POINT ( 'NONE',  ( 0.3200000000000011169, 0.000000000000000000, 0.3281249999999973910 ) ) ;
#112 = EDGE_LOOP ( 'NONE', ( #245 ) ) ;
#113 = DIRECTION ( 'NONE',  ( 1.000000000000000000, 0.000000000000000000, -3.422063879522750519E-15 ) ) ;
#114 = CARTESIAN_POINT ( 'NONE',  ( 1.145642314307898202E-15, 0.000000000000000000, 0.3281249999999985567 ) ) ;
#115 = APPROVAL_STATUS ( 'not_yet_approved' ) ;
#116 = DIRECTION ( 'NONE',  ( 3.491481338843133355E-15, -0.000000000000000000, 1.000000000000000000 ) ) ;
#117 = TOROIDAL_SURFACE ( 'NONE', #91, 1.144999999999999796, 1.000000000000000000 ) ;
#118 = DIRECTION ( 'NONE',  ( 1.000000000000000000, 0.000000000000000000, -3.491481338843133355E-15 ) ) ;
#119 = DIRECTION ( 'NONE',  ( 1.000000000000000000, 0.000000000000000000, -4.625929269271490844E-15 ) ) ;
#120 = CARTESIAN_POINT ( 'NONE',  ( 4.255242881715084554E-16, 0.000000000000000000, 0.1218750000000004552 ) ) ;
#121 = AXIS2_PLACEMENT_3D ( 'NONE', #24, #199, #352 ) ;
#122 = ADVANCED_FACE ( 'NONE', ( #237, #147 ), #327, .T. ) ;
#123 = ORIENTED_EDGE ( 'NONE', *, *, #248, .F. ) ;
#124 = DIRECTION ( 'NONE',  ( 3.491481338843133355E-15, -0.000000000000000000, 1.000000000000000000 ) ) ;
#125 = DIRECTION ( 'NONE',  ( 3.491481338843133355E-15, -0.000000000000000000, 1.000000000000000000 ) ) ;
#126 = DIRECTION ( 'NONE',  ( 1.000000000000000000, 0.000000000000000000, 0.000000000000000000 ) ) ;
#127 = EDGE_CURVE ( 'NONE', #163, #163, #303, .T. ) ;
#128 = AXIS2_PLACEMENT_3D ( 'NONE', #150, #116, #297 ) ;
#129 = AXIS2_PLACEMENT_3D ( 'NONE', #239, #360, #118 ) ;
#130 = DIRECTION ( 'NONE',  ( -1.000000000000000000, 0.000000000000000000, 3.472835083742631390E-15 ) ) ;
#131 = EDGE_LOOP ( 'NONE', ( #167 ) ) ;
#132 = CARTESIAN_POINT ( 'NONE',  ( 1.500000000000128120, 0.000000000000000000, 37.69999999999998863 ) ) ;
#133 = APPROVAL_ROLE ( '' ) ;
#134 = ORIENTED_EDGE ( 'NONE', *, *, #320, .T. ) ;
#135 = VERTEX_POINT ( 'NONE', #290 ) ;
#136 = FACE_OUTER_BOUND ( 'NONE', #307, .T. ) ;
#137 = EDGE_LOOP ( 'NONE', ( #309 ) ) ;
#138 = ORIENTED_EDGE ( 'NONE', *, *, #369, .F. ) ;
#139 = CARTESIAN_POINT ( 'NONE',  ( 0.3200000000000011724, 0.000000000000000000, 0.3468750000000022649 ) ) ;
#140 = DIRECTION ( 'NONE',  ( 3.491481338843133355E-15, -0.000000000000000000, 1.000000000000000000 ) ) ;
#141 = PERSON_AND_ORGANIZATION ( #81, #200 ) ;
#142 = CC_DESIGN_PERSON_AND_ORGANIZATION_ASSIGNMENT ( #67, #40, ( #338 ) ) ;
#143 = FACE_OUTER_BOUND ( 'NONE', #289, .T. ) ;
#144 = CALENDAR_DATE ( 2023, 27, 9 ) ;
#145 = DIRECTION ( 'NONE',  ( 3.491481338843133355E-15, -0.000000000000000000, 1.000000000000000000 ) ) ;
#146 = COORDINATED_UNIVERSAL_TIME_OFFSET ( 1, 0, .AHEAD. ) ;
#147 = FACE_OUTER_BOUND ( 'NONE', #375, .T. ) ;
#148 =( LENGTH_UNIT ( ) NAMED_UNIT ( * ) SI_UNIT ( .MILLI., .METRE. ) );
#149 = AXIS2_PLACEMENT_3D ( 'NONE', #211, #363, #90 ) ;
#150 = CARTESIAN_POINT ( 'NONE',  ( 1.326762908760390423E-13, 0.000000000000000000, 38.00000000000000000 ) ) ;
#151 = EDGE_CURVE ( 'NONE', #195, #195, #42, .T. ) ;
#152 = CC_DESIGN_PERSON_AND_ORGANIZATION_ASSIGNMENT ( #353, #210, ( #326 ) ) ;
#153 = ADVANCED_FACE ( 'NONE', ( #388, #28 ), #64, .T. ) ;
#154 = COORDINATED_UNIVERSAL_TIME_OFFSET ( 1, 0, .AHEAD. ) ;
#155 = PRODUCT_RELATED_PRODUCT_CATEGORY ( 'detail', '', ( #177 ) ) ;
#156 = DIRECTION ( 'NONE',  ( 1.000000000000000000, 0.000000000000000000, -3.364765362886048502E-15 ) ) ;
#157 = CARTESIAN_POINT ( 'NONE',  ( 1.571166602479406657E-15, 0.000000000000000000, 0.4499999999999990119 ) ) ;
#158 = CIRCLE ( 'NONE', #183, 0.3200000000000000067 ) ;
#159 = APPLICATION_CONTEXT ( 'configuration controlled 3d designs of mechanical parts and assemblies' ) ;
#160 = CALENDAR_DATE ( 2023, 27, 9 ) ;
#161 = CC_DESIGN_DATE_AND_TIME_ASSIGNMENT ( #389, #178, ( #333 ) ) ;
#162 = EDGE_LOOP ( 'NONE', ( #201 ) ) ;
#163 = VERTEX_POINT ( 'NONE', #111 ) ;
#164 = EDGE_LOOP ( 'NONE', ( #52 ) ) ;
#165 = CARTESIAN_POINT ( 'NONE',  ( 0.1790741737109405596, 0.000000000000000000, 3.158819045102511769 ) ) ;
#166 = CC_DESIGN_APPROVAL ( #259, ( #326 ) ) ;
#167 = ORIENTED_EDGE ( 'NONE', *, *, #394, .F. ) ;
#168 = PERSON_AND_ORGANIZATION_ROLE ( 'classification_officer' ) ;
#169 = ADVANCED_FACE ( 'NONE', ( #205, #390 ), #117, .F. ) ;
#170 = ORIENTED_EDGE ( 'NONE', *, *, #151, .T. ) ;
#171 = CARTESIAN_POINT ( 'NONE',  ( 1.200000000000133182, 0.000000000000000000, 37.99999999999999289 ) ) ;
#172 = EDGE_CURVE ( 'NONE', #135, #135, #299, .T. ) ;
#173 = ORIENTED_EDGE ( 'NONE', *, *, #394, .T. ) ;
#174 = DIRECTION ( 'NONE',  ( 1.000000000000000000, 0.000000000000000000, -2.421794611735978956E-15 ) ) ;
#175 = DIRECTION ( 'NONE',  ( 3.491481338843133355E-15, -0.000000000000000000, 1.000000000000000000 ) ) ;
#176 =( GEOMETRIC_REPRESENTATION_CONTEXT ( 3 ) GLOBAL_UNCERTAINTY_ASSIGNED_CONTEXT ( ( #6 ) ) GLOBAL_UNIT_ASSIGNED_CONTEXT ( ( #148, #361, #208 ) ) REPRESENTATION_CONTEXT ( 'NONE', 'WORKASPACE' ) );
#177 = PRODUCT ( '961150', '961150', '', ( #70 ) ) ;
#178 = DATE_TIME_ROLE ( 'classification_date' ) ;
#179 = CARTESIAN_POINT ( 'NONE',  ( 1.211107589411223913E-15, 0.000000000000000000, 0.3468750000000034306 ) ) ;
#180 = LOCAL_TIME ( 10, 26, 48.00000000000000000, #154 ) ;
#181 = CARTESIAN_POINT ( 'NONE',  ( 1.326762908760390423E-13, 0.000000000000000000, 38.00000000000000000 ) ) ;
#182 = AXIS2_PLACEMENT_3D ( 'NONE', #120, #10, #130 ) ;
#183 = AXIS2_PLACEMENT_3D ( 'NONE', #262, #384, #319 ) ;
#184 = CARTESIAN_POINT ( 'NONE',  ( 1.326762908760390423E-13, 0.000000000000000000, 38.00000000000000000 ) ) ;
#185 = EDGE_CURVE ( 'NONE', #281, #281, #14, .T. ) ;
#186 = DIRECTION ( 'NONE',  ( -3.491481338843133355E-15, 0.000000000000000000, -1.000000000000000000 ) ) ;
#187 = DIRECTION ( 'NONE',  ( 3.491481338843133355E-15, -0.000000000000000000, 1.000000000000000000 ) ) ;
#188 = AXIS2_PLACEMENT_3D ( 'NONE', #257, #54, #73 ) ;
#189 = DIRECTION ( 'NONE',  ( 1.000000000000000000, 0.000000000000000000, -3.422063879522750519E-15 ) ) ;
#190 = COORDINATED_UNIVERSAL_TIME_OFFSET ( 1, 0, .AHEAD. ) ;
#191 = ORIENTED_EDGE ( 'NONE', *, *, #38, .T. ) ;
#192 = CC_DESIGN_APPROVAL ( #109, ( #333 ) ) ;
#193 = PERSON_AND_ORGANIZATION_ROLE ( 'design_owner' ) ;
#194 = ORIENTED_EDGE ( 'NONE', *, *, #248, .T. ) ;
#195 = VERTEX_POINT ( 'NONE', #139 ) ;
#196 = AXIS2_PLACEMENT_3D ( 'NONE', #343, #80, #113 ) ;
#197 = DIRECTION ( 'NONE',  ( 1.000000000000000000, 0.000000000000000000, -3.469446951953614189E-15 ) ) ;
#198 = CARTESIAN_POINT ( 'NONE',  ( 0.3200000000000003952, 0.000000000000000000, 0.1031250000000014100 ) ) ;
#199 = DIRECTION ( 'NONE',  ( 3.491481338843133355E-15, -0.000000000000000000, 1.000000000000000000 ) ) ;
#200 = ORGANIZATION ( 'UNSPECIFIED', 'UNSPECIFIED', '' ) ;
#201 = ORIENTED_EDGE ( 'NONE', *, *, #215, .T. ) ;
#202 = ADVANCED_BREP_SHAPE_REPRESENTATION ( '961150', ( #268, #332 ), #176 ) ;
#203 = AXIS2_PLACEMENT_3D ( 'NONE', #288, #313, #48 ) ;
#204 = EDGE_LOOP ( 'NONE', ( #173 ) ) ;
#205 = FACE_OUTER_BOUND ( 'NONE', #318, .T. ) ;
#206 = DESIGN_CONTEXT ( 'detailed design', #271, 'design' ) ;
#207 = CARTESIAN_POINT ( 'NONE',  ( 8.837812138946677361E-16, 0.000000000000000000, 0.2531249999999998779 ) ) ;
#208 =( NAMED_UNIT ( * ) SI_UNIT ( $, .STERADIAN. ) SOLID_ANGLE_UNIT ( ) );
#209 = ADVANCED_FACE ( 'NONE', ( #9, #216 ), #322, .T. ) ;
#210 = PERSON_AND_ORGANIZATION_ROLE ( 'creator' ) ;
#211 = CARTESIAN_POINT ( 'NONE',  ( 1.211107589411223913E-15, 0.000000000000000000, 0.3468750000000034306 ) ) ;
#212 = CARTESIAN_POINT ( 'NONE',  ( 1.102895774875770782E-14, 0.000000000000000000, 3.158819045102512213 ) ) ;
#213 = APPROVAL_PERSON_ORGANIZATION ( #372, #259, #104 ) ;
#214 = CARTESIAN_POINT ( 'NONE',  ( 0.000000000000000000, 0.000000000000000000, 0.000000000000000000 ) ) ;
#215 = EDGE_CURVE ( 'NONE', #379, #379, #226, .T. ) ;
#216 = FACE_OUTER_BOUND ( 'NONE', #162, .T. ) ;
#217 = APPROVAL ( #98, 'UNSPECIFIED' ) ;
#218 = ORIENTED_EDGE ( 'NONE', *, *, #320, .F. ) ;
#219 = FACE_OUTER_BOUND ( 'NONE', #383, .T. ) ;
#220 = PERSON_AND_ORGANIZATION ( #81, #200 ) ;
#221 = LOCAL_TIME ( 10, 26, 48.00000000000000000, #295 ) ;
#222 = FACE_BOUND ( 'NONE', #164, .T. ) ;
#223 = AXIS2_PLACEMENT_3D ( 'NONE', #285, #76, #197 ) ;
#224 = DIRECTION ( 'NONE',  ( 1.000000000000000000, 0.000000000000000000, -2.421794611735978956E-15 ) ) ;
#225 = ORIENTED_EDGE ( 'NONE', *, *, #151, .F. ) ;
#226 = CIRCLE ( 'NONE', #99, 1.499999999999996669 ) ;
#227 = AXIS2_PLACEMENT_3D ( 'NONE', #37, #8, #66 ) ;
#228 = ORIENTED_EDGE ( 'NONE', *, *, #260, .F. ) ;
#229 = CARTESIAN_POINT ( 'NONE',  ( 0.1900961894323343615, 0.000000000000000000, 0.2531249999999992117 ) ) ;
#230 = CIRCLE ( 'NONE', #188, 0.1900961894323334456 ) ;
#231 = CYLINDRICAL_SURFACE ( 'NONE', #121, 0.3199999999999999512 ) ;
#232 = VERTEX_POINT ( 'NONE', #351 ) ;
#233 = EDGE_LOOP ( 'NONE', ( #79 ) ) ;
#234 = EDGE_LOOP ( 'NONE', ( #134 ) ) ;
#235 = CIRCLE ( 'NONE', #196, 0.1900961894323334456 ) ;
#236 = SHAPE_DEFINITION_REPRESENTATION ( #393, #202 ) ;
#237 = FACE_OUTER_BOUND ( 'NONE', #380, .T. ) ;
#238 = SECURITY_CLASSIFICATION_LEVEL ( 'unclassified' ) ;
#239 = CARTESIAN_POINT ( 'NONE',  ( 0.000000000000000000, 0.000000000000000000, 0.000000000000000000 ) ) ;
#240 = ADVANCED_FACE ( 'NONE', ( #366, #219 ), #34, .T. ) ;
#241 = DIRECTION ( 'NONE',  ( 1.000000000000000000, 0.000000000000000000, -3.557538378468062213E-15 ) ) ;
#242 = CARTESIAN_POINT ( 'NONE',  ( 1.326762908760390423E-13, 0.000000000000000000, 38.00000000000000000 ) ) ;
#243 = EDGE_CURVE ( 'NONE', #381, #381, #354, .T. ) ;
#244 = FACE_OUTER_BOUND ( 'NONE', #50, .T. ) ;
#245 = ORIENTED_EDGE ( 'NONE', *, *, #243, .T. ) ;
#246 = AXIS2_PLACEMENT_3D ( 'NONE', #5, #340, #100 ) ;
#247 = CARTESIAN_POINT ( 'NONE',  ( 1.012529588264508515E-14, 0.000000000000000000, 2.899999999999999911 ) ) ;
#248 = EDGE_CURVE ( 'NONE', #284, #284, #328, .T. ) ;
#249 = DIRECTION ( 'NONE',  ( 1.000000000000000000, 0.000000000000000000, -2.990902544787603621E-15 ) ) ;
#250 = APPROVAL_PERSON_ORGANIZATION ( #306, #217, #133 ) ;
#251 = CARTESIAN_POINT ( 'NONE',  ( 1.316288464743861212E-13, 0.000000000000000000, 37.69999999999999574 ) ) ;
#252 = AXIS2_PLACEMENT_3D ( 'NONE', #212, #84, #174 ) ;
#253 = DATE_AND_TIME ( #274, #180 ) ;
#254 = CARTESIAN_POINT ( 'NONE',  ( 3.600590130682069033E-16, 0.000000000000000000, 0.1031250000000025202 ) ) ;
#255 = EDGE_LOOP ( 'NONE', ( #103 ) ) ;
#256 = ORIENTED_EDGE ( 'NONE', *, *, #369, .T. ) ;
#257 = CARTESIAN_POINT ( 'NONE',  ( 6.873853885847389211E-16, 0.000000000000000000, 0.1968749999999991340 ) ) ;
#258 = AXIS2_PLACEMENT_3D ( 'NONE', #331, #124, #224 ) ;
#259 = APPROVAL ( #68, 'UNSPECIFIED' ) ;
#260 = EDGE_CURVE ( 'NONE', #348, #348, #7, .T. ) ;
#261 = EDGE_LOOP ( 'NONE', ( #225 ) ) ;
#262 = CARTESIAN_POINT ( 'NONE',  ( 4.255242881715084554E-16, 0.000000000000000000, 0.1218750000000004552 ) ) ;
#263 = DATE_AND_TIME ( #29, #32 ) ;
#264 = EDGE_LOOP ( 'NONE', ( #47 ) ) ;
#265 = DIRECTION ( 'NONE',  ( 3.491481338843133355E-15, -0.000000000000000000, 1.000000000000000000 ) ) ;
#266 = FACE_OUTER_BOUND ( 'NONE', #233, .T. ) ;
#267 = APPLICATION_PROTOCOL_DEFINITION ( 'international standard', 'config_control_design', 1994, #159 ) ;
#268 = MANIFOLD_SOLID_BREP ( 'Corps-Déplacer/Copier1', #395 ) ;
#269 = DIRECTION ( 'NONE',  ( 1.000000000000000000, 0.000000000000000000, -3.557538378468062213E-15 ) ) ;
#270 = FACE_BOUND ( 'NONE', #234, .T. ) ;
#271 = APPLICATION_CONTEXT ( 'configuration controlled 3d designs of mechanical parts and assemblies' ) ;
#272 = FACE_OUTER_BOUND ( 'NONE', #204, .T. ) ;
#273 = APPLICATION_PROTOCOL_DEFINITION ( 'international standard', 'config_control_design', 1994, #271 ) ;
#274 = CALENDAR_DATE ( 2023, 27, 9 ) ;
#275 = EDGE_CURVE ( 'NONE', #75, #75, #279, .T. ) ;
#276 = CARTESIAN_POINT ( 'NONE',  ( 1.326762908760390423E-13, 1.200000000000000622, 38.00000000000000000 ) ) ;
#277 = COORDINATED_UNIVERSAL_TIME_OFFSET ( 1, 0, .AHEAD. ) ;
#278 = AXIS2_PLACEMENT_3D ( 'NONE', #323, #87, #156 ) ;
#279 = CIRCLE ( 'NONE', #43, 0.3200000000000000067 ) ;
#280 = EDGE_LOOP ( 'NONE', ( #191 ) ) ;
#281 = VERTEX_POINT ( 'NONE', #18 ) ;
#282 = CC_DESIGN_PERSON_AND_ORGANIZATION_ASSIGNMENT ( #220, #193, ( #177 ) ) ;
#283 = EDGE_LOOP ( 'NONE', ( #25 ) ) ;
#284 = VERTEX_POINT ( 'NONE', #108 ) ;
#285 = CARTESIAN_POINT ( 'NONE',  ( 2.824113081276083143E-14, 0.000000000000000000, 8.088581341843356753 ) ) ;
#286 = VERTEX_POINT ( 'NONE', #23 ) ;
#287 = ORIENTED_EDGE ( 'NONE', *, *, #127, .F. ) ;
#288 = CARTESIAN_POINT ( 'NONE',  ( 1.326762908760390423E-13, 0.000000000000000000, 38.00000000000000000 ) ) ;
#289 = EDGE_LOOP ( 'NONE', ( #123 ) ) ;
#290 = CARTESIAN_POINT ( 'NONE',  ( 0.1413822604694588148, 0.000000000000000000, -4.936335240725746442E-16 ) ) ;
#291 = CC_DESIGN_PERSON_AND_ORGANIZATION_ASSIGNMENT ( #317, #168, ( #333 ) ) ;
#292 = EDGE_LOOP ( 'NONE', ( #110 ) ) ;
#293 = AXIS2_PLACEMENT_3D ( 'NONE', #242, #175, #55 ) ;
#294 = DIRECTION ( 'NONE',  ( 3.491481338843133355E-15, -0.000000000000000000, 1.000000000000000000 ) ) ;
#295 = COORDINATED_UNIVERSAL_TIME_OFFSET ( 1, 0, .AHEAD. ) ;
#296 = CYLINDRICAL_SURFACE ( 'NONE', #293, 0.1900961894323334456 ) ;
#297 = DIRECTION ( 'NONE',  ( 1.000000000000000000, 0.000000000000000000, -5.782411586589354089E-15 ) ) ;
#298 = DIRECTION ( 'NONE',  ( 3.491481338843133355E-15, -0.000000000000000000, 1.000000000000000000 ) ) ;
#299 = CIRCLE ( 'NONE', #129, 0.1413822604694588148 ) ;
#300 = CC_DESIGN_DATE_AND_TIME_ASSIGNMENT ( #253, #19, ( #338 ) ) ;
#301 = DIRECTION ( 'NONE',  ( -1.000000000000000000, 0.000000000000000000, 4.625929269271495577E-15 ) ) ;
#302 = PLANE ( 'NONE',  #65 ) ;
#303 = CIRCLE ( 'NONE', #78, 0.3199999999999999512 ) ;
#304 = ADVANCED_FACE ( 'NONE', ( #39 ), #371, .F. ) ;
#305 = DIRECTION ( 'NONE',  ( -1.000000000000000000, 0.000000000000000000, 3.491481338843133355E-15 ) ) ;
#306 = PERSON_AND_ORGANIZATION ( #81, #200 ) ;
#307 = EDGE_LOOP ( 'NONE', ( #350 ) ) ;
#308 = CARTESIAN_POINT ( 'NONE',  ( 0.1900961894323349999, 0.000000000000000000, 0.4499999999999983458 ) ) ;
#309 = ORIENTED_EDGE ( 'NONE', *, *, #378, .F. ) ;
#310 = VERTEX_POINT ( 'NONE', #165 ) ;
#311 = ADVANCED_FACE ( 'NONE', ( #222, #367 ), #334, .F. ) ;
#312 = EDGE_LOOP ( 'NONE', ( #377 ) ) ;
#313 = DIRECTION ( 'NONE',  ( 3.491481338843133355E-15, -0.000000000000000000, 1.000000000000000000 ) ) ;
#314 = AXIS2_PLACEMENT_3D ( 'NONE', #207, #392, #356 ) ;
#315 = ORIENTED_EDGE ( 'NONE', *, *, #243, .F. ) ;
#316 = CARTESIAN_POINT ( 'NONE',  ( 1.500000000000028200, 0.000000000000000000, 8.088581341843351424 ) ) ;
#317 = PERSON_AND_ORGANIZATION ( #81, #200 ) ;
#318 = EDGE_LOOP ( 'NONE', ( #218 ) ) ;
#319 = DIRECTION ( 'NONE',  ( 1.000000000000000000, 0.000000000000000000, -3.472835083742631390E-15 ) ) ;
#320 = EDGE_CURVE ( 'NONE', #310, #310, #56, .T. ) ;
#321 = DIRECTION ( 'NONE',  ( 1.000000000000000000, 0.000000000000000000, -3.491481338843133355E-15 ) ) ;
#322 = CONICAL_SURFACE ( 'NONE', #107, 1.499999999999996669, 0.7853981633974389531 ) ;
#323 = CARTESIAN_POINT ( 'NONE',  ( 1.571166602479406657E-15, 0.000000000000000000, 0.4499999999999990119 ) ) ;
#324 = DIRECTION ( 'NONE',  ( 3.491481338843133355E-15, -0.000000000000000000, 1.000000000000000000 ) ) ;
#325 = CYLINDRICAL_SURFACE ( 'NONE', #105, 0.1449999999999998790 ) ;
#326 = PRODUCT_DEFINITION_FORMATION_WITH_SPECIFIED_SOURCE ( 'ANY', '', #177, .NOT_KNOWN. ) ;
#327 = CYLINDRICAL_SURFACE ( 'NONE', #346, 0.1900961894323334178 ) ;
#328 = CIRCLE ( 'NONE', #61, 0.1449999999999997402 ) ;
#329 = CARTESIAN_POINT ( 'NONE',  ( 1.316288464743861212E-13, 0.000000000000000000, 37.69999999999999574 ) ) ;
#330 = EDGE_LOOP ( 'NONE', ( #194 ) ) ;
#331 = CARTESIAN_POINT ( 'NONE',  ( 1.102895774875770782E-14, 0.000000000000000000, 3.158819045102512213 ) ) ;
#332 = AXIS2_PLACEMENT_3D ( 'NONE', #341, #96, #126 ) ;
#333 = SECURITY_CLASSIFICATION ( '', '', #238 ) ;
#334 = PLANE ( 'NONE',  #227 ) ;
#335 = DATE_AND_TIME ( #160, #4 ) ;
#336 = FACE_OUTER_BOUND ( 'NONE', #280, .T. ) ;
#337 = APPROVAL_DATE_TIME ( #335, #217 ) ;
#338 = PRODUCT_DEFINITION ( 'UNKNOWN', '', #326, #206 ) ;
#339 = EDGE_LOOP ( 'NONE', ( #228 ) ) ;
#340 = DIRECTION ( 'NONE',  ( 3.491481338843133355E-15, -0.000000000000000000, 1.000000000000000000 ) ) ;
#341 = CARTESIAN_POINT ( 'NONE',  ( 0.000000000000000000, 0.000000000000000000, 0.000000000000000000 ) ) ;
#342 = EDGE_LOOP ( 'NONE', ( #74 ) ) ;
#343 = CARTESIAN_POINT ( 'NONE',  ( 1.472968689824454378E-15, 0.000000000000000000, 0.4218750000000021094 ) ) ;
#344 = AXIS2_PLACEMENT_3D ( 'NONE', #2, #145, #119 ) ;
#345 = CC_DESIGN_PERSON_AND_ORGANIZATION_ASSIGNMENT ( #141, #86, ( #326 ) ) ;
#346 = AXIS2_PLACEMENT_3D ( 'NONE', #184, #265, #26 ) ;
#347 = EDGE_LOOP ( 'NONE', ( #93 ) ) ;
#348 = VERTEX_POINT ( 'NONE', #229 ) ;
#349 = ADVANCED_FACE ( 'NONE', ( #336 ), #302, .F. ) ;
#350 = ORIENTED_EDGE ( 'NONE', *, *, #127, .T. ) ;
#351 = CARTESIAN_POINT ( 'NONE',  ( 0.1900961894323349166, 0.000000000000000000, 0.4218750000000014433 ) ) ;
#352 = DIRECTION ( 'NONE',  ( 1.000000000000000000, 0.000000000000000000, 0.000000000000000000 ) ) ;
#353 = PERSON_AND_ORGANIZATION ( #81, #200 ) ;
#354 = CIRCLE ( 'NONE', #15, 0.1900961894323334178 ) ;
#355 = ORIENTED_EDGE ( 'NONE', *, *, #185, .T. ) ;
#356 = DIRECTION ( 'NONE',  ( 1.000000000000000000, 0.000000000000000000, -3.422063879522750519E-15 ) ) ;
#357 = CARTESIAN_POINT ( 'NONE',  ( 1.012529588264508515E-14, 0.000000000000000000, 2.899999999999999911 ) ) ;
#358 = APPROVAL_ROLE ( '' ) ;
#359 = AXIS2_PLACEMENT_3D ( 'NONE', #179, #324, #269 ) ;
#360 = DIRECTION ( 'NONE',  ( 3.491481338843133355E-15, -0.000000000000000000, 1.000000000000000000 ) ) ;
#361 =( NAMED_UNIT ( * ) PLANE_ANGLE_UNIT ( ) SI_UNIT ( $, .RADIAN. ) );
#362 = FACE_OUTER_BOUND ( 'NONE', #339, .T. ) ;
#363 = DIRECTION ( 'NONE',  ( -3.491481338843133355E-15, 0.000000000000000000, -1.000000000000000000 ) ) ;
#364 = ADVANCED_FACE ( 'NONE', ( #373, #102 ), #51, .T. ) ;
#365 = EDGE_LOOP ( 'NONE', ( #355 ) ) ;
#366 = FACE_BOUND ( 'NONE', #131, .T. ) ;
#367 = FACE_OUTER_BOUND ( 'NONE', #112, .T. ) ;
#368 = DIRECTION ( 'NONE',  ( 1.000000000000000000, 0.000000000000000000, -4.625929269271495577E-15 ) ) ;
#369 = EDGE_CURVE ( 'NONE', #286, #286, #158, .T. ) ;
#370 = CIRCLE ( 'NONE', #128, 1.200000000000000622 ) ;
#371 = PLANE ( 'NONE',  #246 ) ;
#372 = PERSON_AND_ORGANIZATION ( #81, #200 ) ;
#373 = FACE_OUTER_BOUND ( 'NONE', #77, .T. ) ;
#374 = DATE_AND_TIME ( #17, #36 ) ;
#375 = EDGE_LOOP ( 'NONE', ( #21 ) ) ;
#376 = CC_DESIGN_APPROVAL ( #217, ( #338 ) ) ;
#377 = ORIENTED_EDGE ( 'NONE', *, *, #38, .F. ) ;
#378 = EDGE_CURVE ( 'NONE', #232, #232, #235, .T. ) ;
#379 = VERTEX_POINT ( 'NONE', #132 ) ;
#380 = EDGE_LOOP ( 'NONE', ( #315 ) ) ;
#381 = VERTEX_POINT ( 'NONE', #308 ) ;
#382 = APPROVAL_DATE_TIME ( #374, #259 ) ;
#383 = EDGE_LOOP ( 'NONE', ( #256 ) ) ;
#384 = DIRECTION ( 'NONE',  ( 3.491481338843133355E-15, -0.000000000000000000, 1.000000000000000000 ) ) ;
#385 = ORIENTED_EDGE ( 'NONE', *, *, #172, .F. ) ;
#386 = CONICAL_SURFACE ( 'NONE', #149, 0.3199999999999999512, 1.047197551196607845 ) ;
#387 = PERSON_AND_ORGANIZATION ( #81, #200 ) ;
#388 = FACE_OUTER_BOUND ( 'NONE', #106, .T. ) ;
#389 = DATE_AND_TIME ( #144, #221 ) ;
#390 = FACE_OUTER_BOUND ( 'NONE', #330, .T. ) ;
#391 = APPROVAL_DATE_TIME ( #263, #109 ) ;
#392 = DIRECTION ( 'NONE',  ( 3.491481338843133355E-15, -0.000000000000000000, 1.000000000000000000 ) ) ;
#393 = PRODUCT_DEFINITION_SHAPE ( 'NONE', 'NONE',  #338 ) ;
#394 = EDGE_CURVE ( 'NONE', #85, #85, #230, .T. ) ;
#395 = CLOSED_SHELL ( 'NONE', ( #304, #63, #364, #240, #83, #153, #11, #101, #122, #311, #45, #169, #20, #95, #209, #349 ) ) ;
ENDSEC;
END-ISO-10303-21;
