ISO-10303-21;
HEADER;
FILE_DESCRIPTION (( 'STEP AP203' ),
    '1' );
FILE_NAME ('961148.step',
    '2023-09-27T08:26:48',
    ( '' ),
    ( '' ),
    'SwSTEP 2.0',
    'SolidWorks 2022',
    '' );
FILE_SCHEMA (( 'CONFIG_CONTROL_DESIGN' ));
ENDSEC;

DATA;
#1 = AXIS2_PLACEMENT_3D ( 'NONE', #187, #333, #154 ) ;
#2 = EDGE_CURVE ( 'NONE', #388, #388, #81, .T. ) ;
#3 = FACE_OUTER_BOUND ( 'NONE', #373, .T. ) ;
#4 = EDGE_LOOP ( 'NONE', ( #304 ) ) ;
#5 = DIRECTION ( 'NONE',  ( 1.000000000000000000, 0.000000000000000000, -3.491481338843132961E-15 ) ) ;
#6 = ORIENTED_EDGE ( 'NONE', *, *, #80, .F. ) ;
#7 = FACE_OUTER_BOUND ( 'NONE', #313, .T. ) ;
#8 = ORIENTED_EDGE ( 'NONE', *, *, #37, .T. ) ;
#9 = ORGANIZATION ( 'UNSPECIFIED', 'UNSPECIFIED', '' ) ;
#10 = CALENDAR_DATE ( 2023, 27, 9 ) ;
#11 = DIRECTION ( 'NONE',  ( -1.000000000000000000, 0.000000000000000000, 3.471349061028149303E-15 ) ) ;
#12 = EDGE_LOOP ( 'NONE', ( #306 ) ) ;
#13 = CARTESIAN_POINT ( 'NONE',  ( 9.981513347104761503E-15, 0.000000000000000000, 2.858819045102510614 ) ) ;
#14 = ADVANCED_FACE ( 'NONE', ( #164, #199 ), #315, .T. ) ;
#15 = AXIS2_PLACEMENT_3D ( 'NONE', #44, #133, #20 ) ;
#16 = DIRECTION ( 'NONE',  ( 1.000000000000000000, 0.000000000000000000, 0.000000000000000000 ) ) ;
#17 = PERSON_AND_ORGANIZATION ( #358, #9 ) ;
#18 = CYLINDRICAL_SURFACE ( 'NONE', #142, 0.2850000000000000866 ) ;
#19 = PERSON_AND_ORGANIZATION ( #358, #9 ) ;
#20 = DIRECTION ( 'NONE',  ( 1.000000000000000000, 0.000000000000000000, -3.469446951953614189E-15 ) ) ;
#21 = CC_DESIGN_PERSON_AND_ORGANIZATION_ASSIGNMENT ( #22, #387, ( #151 ) ) ;
#22 = PERSON_AND_ORGANIZATION ( #358, #9 ) ;
#23 = VERTEX_POINT ( 'NONE', #322 ) ;
#24 = AXIS2_PLACEMENT_3D ( 'NONE', #38, #192, #122 ) ;
#25 = MECHANICAL_CONTEXT ( 'NONE', #337, 'mechanical' ) ;
#26 = EDGE_CURVE ( 'NONE', #29, #29, #128, .T. ) ;
#27 = ADVANCED_FACE ( 'NONE', ( #181, #66 ), #42, .T. ) ;
#28 = PERSON_AND_ORGANIZATION_ROLE ( 'design_owner' ) ;
#29 = VERTEX_POINT ( 'NONE', #118 ) ;
#30 = DIRECTION ( 'NONE',  ( 1.000000000000000000, 0.000000000000000000, 0.000000000000000000 ) ) ;
#31 = DIRECTION ( 'NONE',  ( -3.491481338843133355E-15, 0.000000000000000000, -1.000000000000000000 ) ) ;
#32 = CARTESIAN_POINT ( 'NONE',  ( 1.018348723829256169E-15, 0.000000000000000000, 0.2916666666666692387 ) ) ;
#33 = CIRCLE ( 'NONE', #194, 0.2850000000000000866 ) ;
#34 = ORIENTED_EDGE ( 'NONE', *, *, #356, .T. ) ;
#35 = DIRECTION ( 'NONE',  ( 1.000000000000000000, 0.000000000000000000, -3.423796334164749744E-15 ) ) ;
#36 = ORIENTED_EDGE ( 'NONE', *, *, #149, .T. ) ;
#37 = EDGE_CURVE ( 'NONE', #55, #55, #33, .T. ) ;
#38 = CARTESIAN_POINT ( 'NONE',  ( 1.396592535537269119E-15, 0.000000000000000000, 0.4000000000000045186 ) ) ;
#39 = FACE_BOUND ( 'NONE', #123, .T. ) ;
#40 = AXIS2_PLACEMENT_3D ( 'NONE', #246, #190, #120 ) ;
#41 = EDGE_LOOP ( 'NONE', ( #347 ) ) ;
#42 = CONICAL_SURFACE ( 'NONE', #206, 0.2850000000000000866, 1.047197551196609178 ) ;
#43 = LOCAL_TIME ( 10, 26, 48.00000000000000000, #235 ) ;
#44 = CARTESIAN_POINT ( 'NONE',  ( 2.745429412611271504E-14, 0.000000000000000000, 7.863222357994733791 ) ) ;
#45 = DIRECTION ( 'NONE',  ( 3.491481338843133355E-15, -0.000000000000000000, 1.000000000000000000 ) ) ;
#46 = DIRECTION ( 'NONE',  ( 3.491481338843133355E-15, -0.000000000000000000, 1.000000000000000000 ) ) ;
#47 = DIRECTION ( 'NONE',  ( 3.491481338843133355E-15, -0.000000000000000000, 1.000000000000000000 ) ) ;
#48 = LOCAL_TIME ( 10, 26, 48.00000000000000000, #85 ) ;
#49 = CARTESIAN_POINT ( 'NONE',  ( 9.981513347104761503E-15, 0.000000000000000000, 2.858819045102510614 ) ) ;
#50 = CYLINDRICAL_SURFACE ( 'NONE', #390, 0.1249999999999998890 ) ;
#51 = APPLICATION_PROTOCOL_DEFINITION ( 'international standard', 'config_control_design', 1994, #337 ) ;
#52 = VERTEX_POINT ( 'NONE', #291 ) ;
#53 = AXIS2_PLACEMENT_3D ( 'NONE', #342, #289, #77 ) ;
#54 = VERTEX_POINT ( 'NONE', #323 ) ;
#55 = VERTEX_POINT ( 'NONE', #143 ) ;
#56 = APPROVAL_ROLE ( '' ) ;
#57 = APPROVAL_PERSON_ORGANIZATION ( #19, #239, #173 ) ;
#58 = AXIS2_PLACEMENT_3D ( 'NONE', #278, #60, #140 ) ;
#59 = PRODUCT_DEFINITION ( 'UNKNOWN', '', #335, #248 ) ;
#60 = DIRECTION ( 'NONE',  ( 3.491481338843133355E-15, -0.000000000000000000, 1.000000000000000000 ) ) ;
#61 = FACE_OUTER_BOUND ( 'NONE', #196, .T. ) ;
#62 = DIRECTION ( 'NONE',  ( 1.000000000000000000, 0.000000000000000000, -3.471349061028149303E-15 ) ) ;
#63 = CONICAL_SURFACE ( 'NONE', #53, 1.499999999999996669, 0.7853981633974389531 ) ;
#64 = ORIENTED_EDGE ( 'NONE', *, *, #80, .T. ) ;
#65 = ADVANCED_FACE ( 'NONE', ( #214, #241 ), #152, .F. ) ;
#66 = FACE_OUTER_BOUND ( 'NONE', #191, .T. ) ;
#67 = EDGE_LOOP ( 'NONE', ( #104 ) ) ;
#68 = EDGE_LOOP ( 'NONE', ( #100 ) ) ;
#69 = DIRECTION ( 'NONE',  ( 1.000000000000000000, 0.000000000000000000, -3.471349061028149303E-15 ) ) ;
#70 = UNCERTAINTY_MEASURE_WITH_UNIT (LENGTH_MEASURE( 1.000000000000000082E-05 ), #268, 'distance_accuracy_value', 'NONE');
#71 = EDGE_LOOP ( 'NONE', ( #303 ) ) ;
#72 = DIRECTION ( 'NONE',  ( 1.000000000000000000, 0.000000000000000000, -3.423796334164749744E-15 ) ) ;
#73 = ORIENTED_EDGE ( 'NONE', *, *, #316, .F. ) ;
#74 = DIRECTION ( 'NONE',  ( -1.000000000000000000, 0.000000000000000000, 3.423796334164749744E-15 ) ) ;
#75 = CC_DESIGN_PERSON_AND_ORGANIZATION_ASSIGNMENT ( #290, #79, ( #335 ) ) ;
#76 = CARTESIAN_POINT ( 'NONE',  ( 1.326762908760390423E-13, 0.000000000000000000, 38.00000000000000000 ) ) ;
#77 = DIRECTION ( 'NONE',  ( -1.000000000000000000, 0.000000000000000000, 4.625929269271495577E-15 ) ) ;
#78 = DIRECTION ( 'NONE',  ( 3.491481338843133355E-15, -0.000000000000000000, 1.000000000000000000 ) ) ;
#79 = PERSON_AND_ORGANIZATION_ROLE ( 'creator' ) ;
#80 = EDGE_CURVE ( 'NONE', #232, #232, #215, .T. ) ;
#81 = CIRCLE ( 'NONE', #296, 1.499999999999996669 ) ;
#82 = DIRECTION ( 'NONE',  ( 1.000000000000000000, 0.000000000000000000, -3.517438708421148200E-15 ) ) ;
#83 = PERSON_AND_ORGANIZATION ( #358, #9 ) ;
#84 = DIRECTION ( 'NONE',  ( 3.491481338843133355E-15, -0.000000000000000000, 1.000000000000000000 ) ) ;
#85 = COORDINATED_UNIVERSAL_TIME_OFFSET ( 1, 0, .AHEAD. ) ;
#86 = CARTESIAN_POINT ( 'NONE',  ( 0.1695299461620732306, 0.000000000000000000, 0.1750000000000009603 ) ) ;
#87 = ADVANCED_FACE ( 'NONE', ( #61, #364 ), #141, .T. ) ;
#88 = DATE_AND_TIME ( #116, #166 ) ;
#89 = SECURITY_CLASSIFICATION_LEVEL ( 'unclassified' ) ;
#90 = APPLICATION_PROTOCOL_DEFINITION ( 'international standard', 'config_control_design', 1994, #198 ) ;
#91 = EDGE_CURVE ( 'NONE', #267, #267, #240, .T. ) ;
#92 = AXIS2_PLACEMENT_3D ( 'NONE', #219, #341, #69 ) ;
#93 = CIRCLE ( 'NONE', #258, 0.2850000000000000866 ) ;
#94 = DIRECTION ( 'NONE',  ( -3.491481338843133355E-15, 0.000000000000000000, -1.000000000000000000 ) ) ;
#95 = DIRECTION ( 'NONE',  ( 3.491481338843133355E-15, -0.000000000000000000, 1.000000000000000000 ) ) ;
#96 = ADVANCED_FACE ( 'NONE', ( #7, #362 ), #292, .F. ) ;
#97 = DIRECTION ( 'NONE',  ( 1.000000000000000000, 0.000000000000000000, -4.625929269271495577E-15 ) ) ;
#98 = CARTESIAN_POINT ( 'NONE',  ( 1.326762908760390423E-13, 0.000000000000000000, 38.00000000000000000 ) ) ;
#99 = ORIENTED_EDGE ( 'NONE', *, *, #287, .F. ) ;
#100 = ORIENTED_EDGE ( 'NONE', *, *, #282, .T. ) ;
#101 = DIRECTION ( 'NONE',  ( -1.000000000000000000, 0.000000000000000000, 3.491481338843133355E-15 ) ) ;
#102 = ORIENTED_EDGE ( 'NONE', *, *, #91, .T. ) ;
#103 = DIRECTION ( 'NONE',  ( 1.000000000000000000, 0.000000000000000000, -5.782411586589354089E-15 ) ) ;
#104 = ORIENTED_EDGE ( 'NONE', *, *, #145, .F. ) ;
#105 = PRODUCT_RELATED_PRODUCT_CATEGORY ( 'detail', '', ( #351 ) ) ;
#106 = FACE_OUTER_BOUND ( 'NONE', #4, .T. ) ;
#107 = EDGE_LOOP ( 'NONE', ( #36 ) ) ;
#108 = CARTESIAN_POINT ( 'NONE',  ( 1.076540079476635283E-15, 0.000000000000000000, 0.3083333333333340698 ) ) ;
#109 = COORDINATED_UNIVERSAL_TIME_OFFSET ( 1, 0, .AHEAD. ) ;
#110 = FACE_OUTER_BOUND ( 'NONE', #71, .T. ) ;
#111 = FACE_OUTER_BOUND ( 'NONE', #107, .T. ) ;
#112 = APPROVAL_ROLE ( '' ) ;
#113 = CARTESIAN_POINT ( 'NONE',  ( 0.1695299461620743409, 0.000000000000000000, 0.3749999999999997224 ) ) ;
#114 = EDGE_CURVE ( 'NONE', #393, #393, #309, .T. ) ;
#115 = CARTESIAN_POINT ( 'NONE',  ( 0.1262286759728526997, 0.000000000000000000, -4.407250665860918374E-16 ) ) ;
#116 = CALENDAR_DATE ( 2023, 27, 9 ) ;
#117 = CIRCLE ( 'NONE', #24, 0.1250000000000001110 ) ;
#118 = CARTESIAN_POINT ( 'NONE',  ( 0.2850000000000004752, 0.000000000000000000, 0.1083333333333342946 ) ) ;
#119 = CARTESIAN_POINT ( 'NONE',  ( 0.2850000000000011968, 0.000000000000000000, 0.3083333333333330706 ) ) ;
#120 = DIRECTION ( 'NONE',  ( 1.000000000000000000, 0.000000000000000000, -3.517438708421148200E-15 ) ) ;
#121 = ADVANCED_FACE ( 'NONE', ( #276 ), #182, .F. ) ;
#122 = DIRECTION ( 'NONE',  ( 1.000000000000000000, 0.000000000000000000, -3.469446951953611033E-15 ) ) ;
#123 = EDGE_LOOP ( 'NONE', ( #102 ) ) ;
#124 = ADVANCED_FACE ( 'NONE', ( #302, #131 ), #366, .T. ) ;
#125 = DIRECTION ( 'NONE',  ( -3.491481338843133355E-15, 0.000000000000000000, -1.000000000000000000 ) ) ;
#126 = ORIENTED_EDGE ( 'NONE', *, *, #394, .T. ) ;
#127 = CARTESIAN_POINT ( 'NONE',  ( 3.782438117080129010E-16, 0.000000000000000000, 0.1083333333333352799 ) ) ;
#128 = CIRCLE ( 'NONE', #381, 0.2850000000000000866 ) ;
#129 = EDGE_LOOP ( 'NONE', ( #308 ) ) ;
#130 = PRODUCT_DEFINITION_SHAPE ( 'NONE', 'NONE',  #59 ) ;
#131 = FACE_OUTER_BOUND ( 'NONE', #153, .T. ) ;
#132 = ORIENTED_EDGE ( 'NONE', *, *, #218, .F. ) ;
#133 = DIRECTION ( 'NONE',  ( 3.491481338843133355E-15, -0.000000000000000000, 1.000000000000000000 ) ) ;
#134 = EDGE_LOOP ( 'NONE', ( #73 ) ) ;
#135 = DIRECTION ( 'NONE',  ( 3.491481338843133355E-15, -0.000000000000000000, 1.000000000000000000 ) ) ;
#136 = AXIS2_PLACEMENT_3D ( 'NONE', #49, #254, #169 ) ;
#137 = ADVANCED_FACE ( 'NONE', ( #271, #3 ), #216, .T. ) ;
#138 = DIRECTION ( 'NONE',  ( 1.000000000000000000, 0.000000000000000000, 0.000000000000000000 ) ) ;
#139 = PERSON_AND_ORGANIZATION_ROLE ( 'design_supplier' ) ;
#140 = DIRECTION ( 'NONE',  ( 1.000000000000000000, 0.000000000000000000, -3.491481338843133750E-15 ) ) ;
#141 = CONICAL_SURFACE ( 'NONE', #336, 0.1695299461620730364, 1.047197551196607623 ) ;
#142 = AXIS2_PLACEMENT_3D ( 'NONE', #255, #197, #16 ) ;
#143 = CARTESIAN_POINT ( 'NONE',  ( 0.2850000000000011413, 0.000000000000000000, 0.2916666666666682395 ) ) ;
#144 = CALENDAR_DATE ( 2023, 27, 9 ) ;
#145 = EDGE_CURVE ( 'NONE', #54, #54, #117, .T. ) ;
#146 = APPROVAL_STATUS ( 'not_yet_approved' ) ;
#147 = CC_DESIGN_APPROVAL ( #239, ( #335 ) ) ;
#148 = CONICAL_SURFACE ( 'NONE', #175, 0.1590741737109296894, 0.2617993877991426910 ) ;
#149 = EDGE_CURVE ( 'NONE', #326, #326, #297, .T. ) ;
#150 = CARTESIAN_POINT ( 'NONE',  ( 1.200000000000133182, 0.000000000000000000, 37.99999999999999289 ) ) ;
#151 = SECURITY_CLASSIFICATION ( '', '', #89 ) ;
#152 = PLANE ( 'NONE',  #330 ) ;
#153 = EDGE_LOOP ( 'NONE', ( #370 ) ) ;
#154 = DIRECTION ( 'NONE',  ( 1.000000000000000000, 0.000000000000000000, -3.491481338843133750E-15 ) ) ;
#155 = ORIENTED_EDGE ( 'NONE', *, *, #282, .F. ) ;
#156 = DIRECTION ( 'NONE',  ( 3.491481338843133355E-15, -0.000000000000000000, 1.000000000000000000 ) ) ;
#157 = EDGE_LOOP ( 'NONE', ( #184 ) ) ;
#158 = AXIS2_PLACEMENT_3D ( 'NONE', #227, #135, #138 ) ;
#159 = CARTESIAN_POINT ( 'NONE',  ( 7.855833012397154573E-16, 0.000000000000000000, 0.2250000000000029754 ) ) ;
#160 = AXIS2_PLACEMENT_3D ( 'NONE', #269, #395, #5 ) ;
#161 = EDGE_LOOP ( 'NONE', ( #8 ) ) ;
#162 = DIRECTION ( 'NONE',  ( 1.000000000000000000, 0.000000000000000000, -2.726280821563710505E-15 ) ) ;
#163 = PLANE ( 'NONE',  #286 ) ;
#164 = FACE_OUTER_BOUND ( 'NONE', #244, .T. ) ;
#165 = DIRECTION ( 'NONE',  ( 3.491481338843133355E-15, -0.000000000000000000, 1.000000000000000000 ) ) ;
#166 = LOCAL_TIME ( 10, 26, 48.00000000000000000, #377 ) ;
#167 = CIRCLE ( 'NONE', #329, 0.1695299461620730364 ) ;
#168 = FACE_OUTER_BOUND ( 'NONE', #339, .T. ) ;
#169 = DIRECTION ( 'NONE',  ( 1.000000000000000000, 0.000000000000000000, -2.726280821563710505E-15 ) ) ;
#170 = CALENDAR_DATE ( 2023, 27, 9 ) ;
#171 = VERTEX_POINT ( 'NONE', #205 ) ;
#172 = ADVANCED_FACE ( 'NONE', ( #307, #39 ), #380, .T. ) ;
#173 = APPROVAL_ROLE ( '' ) ;
#174 = CC_DESIGN_SECURITY_CLASSIFICATION ( #151, ( #335 ) ) ;
#175 = AXIS2_PLACEMENT_3D ( 'NONE', #13, #228, #162 ) ;
#176 = VERTEX_POINT ( 'NONE', #261 ) ;
#177 = ADVANCED_BREP_SHAPE_REPRESENTATION ( '961148', ( #189, #180 ), #245 ) ;
#178 = DIRECTION ( 'NONE',  ( 1.000000000000000000, 0.000000000000000000, -3.469446951953622866E-15 ) ) ;
#179 = VERTEX_POINT ( 'NONE', #119 ) ;
#180 = AXIS2_PLACEMENT_3D ( 'NONE', #325, #209, #30 ) ;
#181 = FACE_BOUND ( 'NONE', #129, .T. ) ;
#182 = PLANE ( 'NONE',  #260 ) ;
#183 = CC_DESIGN_DATE_AND_TIME_ASSIGNMENT ( #384, #379, ( #151 ) ) ;
#184 = ORIENTED_EDGE ( 'NONE', *, *, #145, .T. ) ;
#185 = ORIENTED_EDGE ( 'NONE', *, *, #2, .T. ) ;
#186 = CIRCLE ( 'NONE', #345, 0.1695299461620725923 ) ;
#187 = CARTESIAN_POINT ( 'NONE',  ( 0.000000000000000000, 0.000000000000000000, 0.000000000000000000 ) ) ;
#188 = EDGE_LOOP ( 'NONE', ( #275 ) ) ;
#189 = MANIFOLD_SOLID_BREP ( 'Corps-Déplacer/Copier1', #317 ) ;
#190 = DIRECTION ( 'NONE',  ( 3.491481338843133355E-15, -0.000000000000000000, 1.000000000000000000 ) ) ;
#191 = EDGE_LOOP ( 'NONE', ( #334 ) ) ;
#192 = DIRECTION ( 'NONE',  ( 3.491481338843133355E-15, -0.000000000000000000, 1.000000000000000000 ) ) ;
#193 = DIRECTION ( 'NONE',  ( 3.491481338843133355E-15, -0.000000000000000000, 1.000000000000000000 ) ) ;
#194 = AXIS2_PLACEMENT_3D ( 'NONE', #32, #95, #35 ) ;
#195 = AXIS2_PLACEMENT_3D ( 'NONE', #338, #372, #369 ) ;
#196 = EDGE_LOOP ( 'NONE', ( #365 ) ) ;
#197 = DIRECTION ( 'NONE',  ( 3.491481338843133355E-15, -0.000000000000000000, 1.000000000000000000 ) ) ;
#198 = APPLICATION_CONTEXT ( 'configuration controlled 3d designs of mechanical parts and assemblies' ) ;
#199 = FACE_OUTER_BOUND ( 'NONE', #391, .T. ) ;
#200 = CARTESIAN_POINT ( 'NONE',  ( -5.365563524093351783E-32, 0.000000000000000000, -1.536758471082413430E-17 ) ) ;
#201 = DIRECTION ( 'NONE',  ( 1.000000000000000000, 0.000000000000000000, -3.517438708421139128E-15 ) ) ;
#202 = DATE_TIME_ROLE ( 'creation_date' ) ;
#203 = DIRECTION ( 'NONE',  ( 3.491481338843133355E-15, -0.000000000000000000, 1.000000000000000000 ) ) ;
#204 = COORDINATED_UNIVERSAL_TIME_OFFSET ( 1, 0, .AHEAD. ) ;
#205 = CARTESIAN_POINT ( 'NONE',  ( 0.1590741737109396536, 0.000000000000000000, 2.858819045102510170 ) ) ;
#206 = AXIS2_PLACEMENT_3D ( 'NONE', #299, #94, #11 ) ;
#207 = PERSON_AND_ORGANIZATION ( #358, #9 ) ;
#208 = ADVANCED_FACE ( 'NONE', ( #280 ), #163, .F. ) ;
#209 = DIRECTION ( 'NONE',  ( 0.000000000000000000, 0.000000000000000000, 1.000000000000000000 ) ) ;
#210 = AXIS2_PLACEMENT_3D ( 'NONE', #242, #305, #247 ) ;
#211 = CC_DESIGN_APPROVAL ( #312, ( #59 ) ) ;
#212 = ADVANCED_FACE ( 'NONE', ( #318, #283 ), #50, .T. ) ;
#213 = DIRECTION ( 'NONE',  ( 3.491481338843133355E-15, -0.000000000000000000, 1.000000000000000000 ) ) ;
#214 = FACE_BOUND ( 'NONE', #67, .T. ) ;
#215 = CIRCLE ( 'NONE', #224, 1.200000000000000622 ) ;
#216 = CYLINDRICAL_SURFACE ( 'NONE', #195, 0.1695299461620728143 ) ;
#217 = EDGE_LOOP ( 'NONE', ( #301 ) ) ;
#218 = EDGE_CURVE ( 'NONE', #171, #171, #361, .T. ) ;
#219 = CARTESIAN_POINT ( 'NONE',  ( 3.200524560606095299E-16, 0.000000000000000000, 0.09166666666666350993 ) ) ;
#220 = EDGE_LOOP ( 'NONE', ( #185 ) ) ;
#221 = DIRECTION ( 'NONE',  ( 1.000000000000000000, 0.000000000000000000, -3.517438708421139128E-15 ) ) ;
#222 = ORIENTED_EDGE ( 'NONE', *, *, #385, .T. ) ;
#223 = CARTESIAN_POINT ( 'NONE',  ( 1.076540079476635283E-15, 0.000000000000000000, 0.3083333333333340698 ) ) ;
#224 = AXIS2_PLACEMENT_3D ( 'NONE', #98, #213, #103 ) ;
#225 = ORIENTED_EDGE ( 'NONE', *, *, #316, .T. ) ;
#226 = CARTESIAN_POINT ( 'NONE',  ( 1.326762908760390423E-13, 0.000000000000000000, 38.00000000000000000 ) ) ;
#227 = CARTESIAN_POINT ( 'NONE',  ( 1.326762908760390423E-13, 0.000000000000000000, 38.00000000000000000 ) ) ;
#228 = DIRECTION ( 'NONE',  ( 3.491481338843133355E-15, -0.000000000000000000, 1.000000000000000000 ) ) ;
#229 = APPROVAL_DATE_TIME ( #263, #312 ) ;
#230 = APPROVAL_PERSON_ORGANIZATION ( #328, #312, #56 ) ;
#231 = CC_DESIGN_PERSON_AND_ORGANIZATION_ASSIGNMENT ( #207, #28, ( #351 ) ) ;
#232 = VERTEX_POINT ( 'NONE', #150 ) ;
#233 = PERSON_AND_ORGANIZATION_ROLE ( 'creator' ) ;
#234 = ADVANCED_FACE ( 'NONE', ( #256, #111 ), #378, .T. ) ;
#235 = COORDINATED_UNIVERSAL_TIME_OFFSET ( 1, 0, .AHEAD. ) ;
#236 = AXIS2_PLACEMENT_3D ( 'NONE', #223, #346, #74 ) ;
#237 =( NAMED_UNIT ( * ) PLANE_ANGLE_UNIT ( ) SI_UNIT ( $, .RADIAN. ) );
#238 = APPROVAL_PERSON_ORGANIZATION ( #17, #389, #112 ) ;
#239 = APPROVAL ( #360, 'UNSPECIFIED' ) ;
#240 = CIRCLE ( 'NONE', #1, 0.1262286759728526997 ) ;
#241 = FACE_OUTER_BOUND ( 'NONE', #68, .T. ) ;
#242 = CARTESIAN_POINT ( 'NONE',  ( 1.326762908760390423E-13, 0.000000000000000000, 38.00000000000000000 ) ) ;
#243 = CARTESIAN_POINT ( 'NONE',  ( 1.396592535537255511E-15, 0.1695299461620725923, 0.4000000000000006328 ) ) ;
#244 = EDGE_LOOP ( 'NONE', ( #249 ) ) ;
#245 =( GEOMETRIC_REPRESENTATION_CONTEXT ( 3 ) GLOBAL_UNCERTAINTY_ASSIGNED_CONTEXT ( ( #70 ) ) GLOBAL_UNIT_ASSIGNED_CONTEXT ( ( #268, #237, #295 ) ) REPRESENTATION_CONTEXT ( 'NONE', 'WORKASPACE' ) );
#246 = CARTESIAN_POINT ( 'NONE',  ( 6.110092342975536620E-16, 0.000000000000000000, 0.1750000000000015432 ) ) ;
#247 = DIRECTION ( 'NONE',  ( 1.000000000000000000, 0.000000000000000000, 0.000000000000000000 ) ) ;
#248 = DESIGN_CONTEXT ( 'detailed design', #198, 'design' ) ;
#249 = ORIENTED_EDGE ( 'NONE', *, *, #2, .F. ) ;
#250 = FACE_BOUND ( 'NONE', #188, .T. ) ;
#251 = CARTESIAN_POINT ( 'NONE',  ( 1.316288464743861212E-13, 0.000000000000000000, 37.69999999999999574 ) ) ;
#252 = EDGE_LOOP ( 'NONE', ( #279 ) ) ;
#253 = ADVANCED_FACE ( 'NONE', ( #168, #375 ), #18, .T. ) ;
#254 = DIRECTION ( 'NONE',  ( 3.491481338843133355E-15, -0.000000000000000000, 1.000000000000000000 ) ) ;
#255 = CARTESIAN_POINT ( 'NONE',  ( 1.326762908760390423E-13, 0.000000000000000000, 38.00000000000000000 ) ) ;
#256 = FACE_OUTER_BOUND ( 'NONE', #252, .T. ) ;
#257 = CALENDAR_DATE ( 2023, 27, 9 ) ;
#258 = AXIS2_PLACEMENT_3D ( 'NONE', #108, #203, #72 ) ;
#259 = APPROVAL_STATUS ( 'not_yet_approved' ) ;
#260 = AXIS2_PLACEMENT_3D ( 'NONE', #300, #125, #274 ) ;
#261 = CARTESIAN_POINT ( 'NONE',  ( 1.500000000000027534, 0.000000000000000000, 7.863222357994729350 ) ) ;
#262 = CARTESIAN_POINT ( 'NONE',  ( 1.500000000000128120, 0.000000000000000000, 37.69999999999998863 ) ) ;
#263 = DATE_AND_TIME ( #10, #331 ) ;
#264 = CARTESIAN_POINT ( 'NONE',  ( 9.077851480992140413E-15, 0.000000000000000000, 2.599999999999998312 ) ) ;
#265 = CC_DESIGN_APPROVAL ( #389, ( #151 ) ) ;
#266 = AXIS2_PLACEMENT_3D ( 'NONE', #264, #84, #178 ) ;
#267 = VERTEX_POINT ( 'NONE', #115 ) ;
#268 =( LENGTH_UNIT ( ) NAMED_UNIT ( * ) SI_UNIT ( .MILLI., .METRE. ) );
#269 = CARTESIAN_POINT ( 'NONE',  ( 9.077851480992140413E-15, 0.000000000000000000, 2.599999999999998312 ) ) ;
#270 = CIRCLE ( 'NONE', #368, 0.1695299461620730364 ) ;
#271 = FACE_OUTER_BOUND ( 'NONE', #340, .T. ) ;
#272 = DIRECTION ( 'NONE',  ( 3.491481338843133355E-15, -0.000000000000000000, 1.000000000000000000 ) ) ;
#273 = ADVANCED_FACE ( 'NONE', ( #110, #376 ), #148, .T. ) ;
#274 = DIRECTION ( 'NONE',  ( -1.000000000000000000, 0.000000000000000000, 3.491481338843133355E-15 ) ) ;
#275 = ORIENTED_EDGE ( 'NONE', *, *, #385, .F. ) ;
#276 = FACE_OUTER_BOUND ( 'NONE', #281, .T. ) ;
#277 = EDGE_LOOP ( 'NONE', ( #343 ) ) ;
#278 = CARTESIAN_POINT ( 'NONE',  ( 0.000000000000000000, 0.000000000000000000, 0.000000000000000000 ) ) ;
#279 = ORIENTED_EDGE ( 'NONE', *, *, #26, .F. ) ;
#280 = FACE_OUTER_BOUND ( 'NONE', #217, .T. ) ;
#281 = EDGE_LOOP ( 'NONE', ( #64 ) ) ;
#282 = EDGE_CURVE ( 'NONE', #52, #52, #186, .T. ) ;
#283 = FACE_OUTER_BOUND ( 'NONE', #157, .T. ) ;
#284 = DIRECTION ( 'NONE',  ( 1.000000000000000000, 0.000000000000000000, -4.625929269271490844E-15 ) ) ;
#285 = CARTESIAN_POINT ( 'NONE',  ( 1.396592535537244862E-15, 0.000000000000000000, 0.3999999999999975797 ) ) ;
#286 = AXIS2_PLACEMENT_3D ( 'NONE', #200, #47, #382 ) ;
#287 = EDGE_CURVE ( 'NONE', #179, #179, #93, .T. ) ;
#288 = DATE_AND_TIME ( #170, #344 ) ;
#289 = DIRECTION ( 'NONE',  ( -3.491481338843133355E-15, 0.000000000000000000, -1.000000000000000000 ) ) ;
#290 = PERSON_AND_ORGANIZATION ( #358, #9 ) ;
#291 = CARTESIAN_POINT ( 'NONE',  ( 0.1695299461620740078, 0.000000000000000000, 0.3999999999999969691 ) ) ;
#292 = TOROIDAL_SURFACE ( 'NONE', #160, 1.125000000000000222, 0.9999999999999995559 ) ;
#293 = ADVANCED_FACE ( 'NONE', ( #350, #349 ), #63, .T. ) ;
#294 = VERTEX_POINT ( 'NONE', #355 ) ;
#295 =( NAMED_UNIT ( * ) SI_UNIT ( $, .STERADIAN. ) SOLID_ANGLE_UNIT ( ) );
#296 = AXIS2_PLACEMENT_3D ( 'NONE', #251, #272, #97 ) ;
#297 = CIRCLE ( 'NONE', #92, 0.2850000000000000866 ) ;
#298 = VERTEX_POINT ( 'NONE', #113 ) ;
#299 = CARTESIAN_POINT ( 'NONE',  ( 3.782438117080129010E-16, 0.000000000000000000, 0.1083333333333352799 ) ) ;
#300 = CARTESIAN_POINT ( 'NONE',  ( 1.326762908760390423E-13, 1.200000000000000622, 38.00000000000000000 ) ) ;
#301 = ORIENTED_EDGE ( 'NONE', *, *, #91, .F. ) ;
#302 = FACE_OUTER_BOUND ( 'NONE', #134, .T. ) ;
#303 = ORIENTED_EDGE ( 'NONE', *, *, #356, .F. ) ;
#304 = ORIENTED_EDGE ( 'NONE', *, *, #287, .T. ) ;
#305 = DIRECTION ( 'NONE',  ( 3.491481338843133355E-15, -0.000000000000000000, 1.000000000000000000 ) ) ;
#306 = ORIENTED_EDGE ( 'NONE', *, *, #394, .F. ) ;
#307 = FACE_OUTER_BOUND ( 'NONE', #41, .T. ) ;
#308 = ORIENTED_EDGE ( 'NONE', *, *, #114, .F. ) ;
#309 = CIRCLE ( 'NONE', #40, 0.1695299461620725923 ) ;
#310 = CONICAL_SURFACE ( 'NONE', #236, 0.2850000000000000866, 1.047197551196607623 ) ;
#311 = CARTESIAN_POINT ( 'NONE',  ( 7.855833012397154573E-16, 0.000000000000000000, 0.2250000000000029754 ) ) ;
#312 = APPROVAL ( #146, 'UNSPECIFIED' ) ;
#313 = EDGE_LOOP ( 'NONE', ( #132 ) ) ;
#314 = CARTESIAN_POINT ( 'NONE',  ( 1.309305502066176192E-15, 0.000000000000000000, 0.3750000000000003331 ) ) ;
#315 = CYLINDRICAL_SURFACE ( 'NONE', #353, 1.499999999999998224 ) ;
#316 = EDGE_CURVE ( 'NONE', #23, #23, #270, .T. ) ;
#317 = CLOSED_SHELL ( 'NONE', ( #208, #172, #234, #27, #124, #87, #253, #371, #137, #65, #212, #96, #273, #14, #293, #121 ) ) ;
#318 = FACE_OUTER_BOUND ( 'NONE', #12, .T. ) ;
#319 = APPROVAL_DATE_TIME ( #88, #389 ) ;
#320 = DIRECTION ( 'NONE',  ( 1.000000000000000000, 0.000000000000000000, 0.000000000000000000 ) ) ;
#321 = SHAPE_DEFINITION_REPRESENTATION ( #130, #177 ) ;
#322 = CARTESIAN_POINT ( 'NONE',  ( 0.1695299461620738135, 0.000000000000000000, 0.2250000000000023925 ) ) ;
#323 = CARTESIAN_POINT ( 'NONE',  ( 0.1250000000000015266, 0.000000000000000000, 0.4000000000000040745 ) ) ;
#324 = CC_DESIGN_DATE_AND_TIME_ASSIGNMENT ( #354, #202, ( #59 ) ) ;
#325 = CARTESIAN_POINT ( 'NONE',  ( 0.000000000000000000, 0.000000000000000000, 0.000000000000000000 ) ) ;
#326 = VERTEX_POINT ( 'NONE', #392 ) ;
#327 = CC_DESIGN_PERSON_AND_ORGANIZATION_ASSIGNMENT ( #83, #233, ( #59 ) ) ;
#328 = PERSON_AND_ORGANIZATION ( #358, #9 ) ;
#329 = AXIS2_PLACEMENT_3D ( 'NONE', #314, #45, #386 ) ;
#330 = AXIS2_PLACEMENT_3D ( 'NONE', #243, #31, #101 ) ;
#331 = LOCAL_TIME ( 10, 26, 48.00000000000000000, #109 ) ;
#332 = DIRECTION ( 'NONE',  ( 3.491481338843133355E-15, -0.000000000000000000, 1.000000000000000000 ) ) ;
#333 = DIRECTION ( 'NONE',  ( 3.491481338843133355E-15, -0.000000000000000000, 1.000000000000000000 ) ) ;
#334 = ORIENTED_EDGE ( 'NONE', *, *, #26, .T. ) ;
#335 = PRODUCT_DEFINITION_FORMATION_WITH_SPECIFIED_SOURCE ( 'ANY', '', #351, .NOT_KNOWN. ) ;
#336 = AXIS2_PLACEMENT_3D ( 'NONE', #159, #332, #221 ) ;
#337 = APPLICATION_CONTEXT ( 'configuration controlled 3d designs of mechanical parts and assemblies' ) ;
#338 = CARTESIAN_POINT ( 'NONE',  ( 1.326762908760390423E-13, 0.000000000000000000, 38.00000000000000000 ) ) ;
#339 = EDGE_LOOP ( 'NONE', ( #99 ) ) ;
#340 = EDGE_LOOP ( 'NONE', ( #155 ) ) ;
#341 = DIRECTION ( 'NONE',  ( 3.491481338843133355E-15, -0.000000000000000000, 1.000000000000000000 ) ) ;
#342 = CARTESIAN_POINT ( 'NONE',  ( 1.316288464743861212E-13, 0.000000000000000000, 37.69999999999999574 ) ) ;
#343 = ORIENTED_EDGE ( 'NONE', *, *, #218, .T. ) ;
#344 = LOCAL_TIME ( 10, 26, 48.00000000000000000, #204 ) ;
#345 = AXIS2_PLACEMENT_3D ( 'NONE', #285, #78, #82 ) ;
#346 = DIRECTION ( 'NONE',  ( -3.491481338843133355E-15, 0.000000000000000000, -1.000000000000000000 ) ) ;
#347 = ORIENTED_EDGE ( 'NONE', *, *, #149, .F. ) ;
#348 = EDGE_LOOP ( 'NONE', ( #126 ) ) ;
#349 = FACE_OUTER_BOUND ( 'NONE', #220, .T. ) ;
#350 = FACE_BOUND ( 'NONE', #367, .T. ) ;
#351 = PRODUCT ( '961148', '961148', '', ( #25 ) ) ;
#352 = APPROVAL_DATE_TIME ( #288, #239 ) ;
#353 = AXIS2_PLACEMENT_3D ( 'NONE', #76, #46, #284 ) ;
#354 = DATE_AND_TIME ( #144, #43 ) ;
#355 = CARTESIAN_POINT ( 'NONE',  ( 0.1250000000000087708, 0.000000000000000000, 2.599999999999997868 ) ) ;
#356 = EDGE_CURVE ( 'NONE', #176, #176, #359, .T. ) ;
#357 = PERSON_AND_ORGANIZATION ( #358, #9 ) ;
#358 = PERSON ( 'UNSPECIFIED', 'UNSPECIFIED', 'UNSPECIFIED', ('UNSPECIFIED'), ('UNSPECIFIED'), ('UNSPECIFIED') ) ;
#359 = CIRCLE ( 'NONE', #15, 1.500000000000000000 ) ;
#360 = APPROVAL_STATUS ( 'not_yet_approved' ) ;
#361 = CIRCLE ( 'NONE', #136, 0.1590741737109296894 ) ;
#362 = FACE_OUTER_BOUND ( 'NONE', #348, .T. ) ;
#363 = CC_DESIGN_PERSON_AND_ORGANIZATION_ASSIGNMENT ( #357, #139, ( #335 ) ) ;
#364 = FACE_BOUND ( 'NONE', #374, .T. ) ;
#365 = ORIENTED_EDGE ( 'NONE', *, *, #37, .F. ) ;
#366 = CYLINDRICAL_SURFACE ( 'NONE', #210, 0.1695299461620728143 ) ;
#367 = EDGE_LOOP ( 'NONE', ( #6 ) ) ;
#368 = AXIS2_PLACEMENT_3D ( 'NONE', #311, #193, #201 ) ;
#369 = DIRECTION ( 'NONE',  ( 1.000000000000000000, 0.000000000000000000, 0.000000000000000000 ) ) ;
#370 = ORIENTED_EDGE ( 'NONE', *, *, #114, .T. ) ;
#371 = ADVANCED_FACE ( 'NONE', ( #250, #106 ), #310, .T. ) ;
#372 = DIRECTION ( 'NONE',  ( 3.491481338843133355E-15, -0.000000000000000000, 1.000000000000000000 ) ) ;
#373 = EDGE_LOOP ( 'NONE', ( #222 ) ) ;
#374 = EDGE_LOOP ( 'NONE', ( #225 ) ) ;
#375 = FACE_OUTER_BOUND ( 'NONE', #161, .T. ) ;
#376 = FACE_BOUND ( 'NONE', #277, .T. ) ;
#377 = COORDINATED_UNIVERSAL_TIME_OFFSET ( 1, 0, .AHEAD. ) ;
#378 = CYLINDRICAL_SURFACE ( 'NONE', #158, 0.2850000000000000866 ) ;
#379 = DATE_TIME_ROLE ( 'classification_date' ) ;
#380 = CONICAL_SURFACE ( 'NONE', #58, 0.1262286759728526997, 1.047197551196613396 ) ;
#381 = AXIS2_PLACEMENT_3D ( 'NONE', #127, #156, #62 ) ;
#382 = DIRECTION ( 'NONE',  ( 1.000000000000000000, 0.000000000000000000, -3.491481338843133355E-15 ) ) ;
#383 = CIRCLE ( 'NONE', #266, 0.1249999999999996808 ) ;
#384 = DATE_AND_TIME ( #257, #48 ) ;
#385 = EDGE_CURVE ( 'NONE', #298, #298, #167, .T. ) ;
#386 = DIRECTION ( 'NONE',  ( 1.000000000000000000, 0.000000000000000000, -3.517438708421139128E-15 ) ) ;
#387 = PERSON_AND_ORGANIZATION_ROLE ( 'classification_officer' ) ;
#388 = VERTEX_POINT ( 'NONE', #262 ) ;
#389 = APPROVAL ( #259, 'UNSPECIFIED' ) ;
#390 = AXIS2_PLACEMENT_3D ( 'NONE', #226, #165, #320 ) ;
#391 = EDGE_LOOP ( 'NONE', ( #34 ) ) ;
#392 = CARTESIAN_POINT ( 'NONE',  ( 0.2850000000000004197, 0.000000000000000000, 0.09166666666666252461 ) ) ;
#393 = VERTEX_POINT ( 'NONE', #86 ) ;
#394 = EDGE_CURVE ( 'NONE', #294, #294, #383, .T. ) ;
#395 = DIRECTION ( 'NONE',  ( 3.491481338843133355E-15, -0.000000000000000000, 1.000000000000000000 ) ) ;
ENDSEC;
END-ISO-10303-21;
