ISO-10303-21;
HEADER;
FILE_DESCRIPTION (( 'STEP AP203' ),
    '1' );
FILE_NAME ('961132.step',
    '2023-09-27T08:29:58',
    ( '' ),
    ( '' ),
    'SwSTEP 2.0',
    'SolidWorks 2022',
    '' );
FILE_SCHEMA (( 'CONFIG_CONTROL_DESIGN' ));
ENDSEC;

DATA;
#1 = DIRECTION ( 'NONE',  ( 0.000000000000000000, 0.000000000000000000, 1.000000000000000000 ) ) ;
#2 = EDGE_LOOP ( 'NONE', ( #354 ) ) ;
#3 = APPROVAL_STATUS ( 'not_yet_approved' ) ;
#4 = EDGE_CURVE ( 'NONE', #46, #46, #22, .T. ) ;
#5 = PRODUCT_RELATED_PRODUCT_CATEGORY ( 'detail', '', ( #108 ) ) ;
#6 = DIRECTION ( 'NONE',  ( 3.491481338843133355E-15, -0.000000000000000000, 1.000000000000000000 ) ) ;
#7 = FACE_OUTER_BOUND ( 'NONE', #343, .T. ) ;
#8 = CARTESIAN_POINT ( 'NONE',  ( 7.855833012397154573E-16, 0.000000000000000000, 0.2250000000000029754 ) ) ;
#9 = CYLINDRICAL_SURFACE ( 'NONE', #274, 0.9699999999999999734 ) ;
#10 = AXIS2_PLACEMENT_3D ( 'NONE', #292, #360, #197 ) ;
#11 = CARTESIAN_POINT ( 'NONE',  ( 1.396592535537244862E-15, 0.000000000000000000, 0.3999999999999975797 ) ) ;
#12 = ADVANCED_FACE ( 'NONE', ( #321 ), #32, .F. ) ;
#13 = ORIENTED_EDGE ( 'NONE', *, *, #267, .T. ) ;
#14 = APPROVAL_DATE_TIME ( #293, #289 ) ;
#15 = DIRECTION ( 'NONE',  ( 3.491481338843133355E-15, -0.000000000000000000, 1.000000000000000000 ) ) ;
#16 = EDGE_LOOP ( 'NONE', ( #68 ) ) ;
#17 = AXIS2_PLACEMENT_3D ( 'NONE', #126, #287, #285 ) ;
#18 = TOROIDAL_SURFACE ( 'NONE', #177, 1.814999999999999281, 1.000000000000000000 ) ;
#19 = CC_DESIGN_DATE_AND_TIME_ASSIGNMENT ( #193, #255, ( #129 ) ) ;
#20 = EDGE_CURVE ( 'NONE', #328, #328, #50, .T. ) ;
#21 = VERTEX_POINT ( 'NONE', #136 ) ;
#22 = CIRCLE ( 'NONE', #240, 0.8545299461620744497 ) ;
#23 = AXIS2_PLACEMENT_3D ( 'NONE', #29, #91, #256 ) ;
#24 =( NAMED_UNIT ( * ) PLANE_ANGLE_UNIT ( ) SI_UNIT ( $, .RADIAN. ) );
#25 = EDGE_LOOP ( 'NONE', ( #205 ) ) ;
#26 = ORIENTED_EDGE ( 'NONE', *, *, #208, .T. ) ;
#27 = CC_DESIGN_PERSON_AND_ORGANIZATION_ASSIGNMENT ( #70, #333, ( #129 ) ) ;
#28 = ORIENTED_EDGE ( 'NONE', *, *, #260, .F. ) ;
#29 = CARTESIAN_POINT ( 'NONE',  ( 1.780655482809998011E-14, 0.000000000000000000, 5.100000000000000533 ) ) ;
#30 = FACE_OUTER_BOUND ( 'NONE', #16, .T. ) ;
#31 = PERSON_AND_ORGANIZATION ( #389, #241 ) ;
#32 = PLANE ( 'NONE',  #226 ) ;
#33 = DIRECTION ( 'NONE',  ( 3.491481338843133355E-15, -0.000000000000000000, 1.000000000000000000 ) ) ;
#34 = AXIS2_PLACEMENT_3D ( 'NONE', #349, #159, #351 ) ;
#35 = CIRCLE ( 'NONE', #147, 0.8545299461620744497 ) ;
#36 = DIRECTION ( 'NONE',  ( 1.000000000000000000, 0.000000000000000000, -4.625929269271498733E-15 ) ) ;
#37 = CARTESIAN_POINT ( 'NONE',  ( 1.326762908760390423E-13, 1.199999999999999734, 38.00000000000000000 ) ) ;
#38 = ORIENTED_EDGE ( 'NONE', *, *, #4, .F. ) ;
#39 = DIRECTION ( 'NONE',  ( -1.000000000000000000, 0.000000000000000000, 3.492919370120826356E-15 ) ) ;
#40 = EDGE_LOOP ( 'NONE', ( #13 ) ) ;
#41 = ADVANCED_FACE ( 'NONE', ( #245, #191 ), #307, .T. ) ;
#42 = CYLINDRICAL_SURFACE ( 'NONE', #17, 0.9699999999999999734 ) ;
#43 = AXIS2_PLACEMENT_3D ( 'NONE', #150, #310, #162 ) ;
#44 = EDGE_CURVE ( 'NONE', #141, #141, #198, .T. ) ;
#45 = DIRECTION ( 'NONE',  ( 3.491481338843133355E-15, -0.000000000000000000, 1.000000000000000000 ) ) ;
#46 = VERTEX_POINT ( 'NONE', #195 ) ;
#47 = APPROVAL_STATUS ( 'not_yet_approved' ) ;
#48 = CARTESIAN_POINT ( 'NONE',  ( 0.8112286759728535301, 0.000000000000000000, -2.832389783693641114E-15 ) ) ;
#49 = CARTESIAN_POINT ( 'NONE',  ( 1.076540079476635283E-15, 0.000000000000000000, 0.3083333333333340698 ) ) ;
#50 = CIRCLE ( 'NONE', #155, 0.8112286759728535301 ) ;
#51 = AXIS2_PLACEMENT_3D ( 'NONE', #213, #318, #39 ) ;
#52 = CARTESIAN_POINT ( 'NONE',  ( 3.782438117080129010E-16, 0.000000000000000000, 0.1083333333333352799 ) ) ;
#53 = LOCAL_TIME ( 10, 29, 58.00000000000000000, #315 ) ;
#54 = VERTEX_POINT ( 'NONE', #85 ) ;
#55 = EDGE_CURVE ( 'NONE', #390, #390, #114, .T. ) ;
#56 = ORIENTED_EDGE ( 'NONE', *, *, #20, .T. ) ;
#57 = DIRECTION ( 'NONE',  ( 1.000000000000000000, 0.000000000000000000, -5.782411586589358033E-15 ) ) ;
#58 = AXIS2_PLACEMENT_3D ( 'NONE', #311, #373, #121 ) ;
#59 = CIRCLE ( 'NONE', #134, 0.9699999999999999734 ) ;
#60 = FACE_BOUND ( 'NONE', #183, .T. ) ;
#61 = CALENDAR_DATE ( 2023, 27, 9 ) ;
#62 = CARTESIAN_POINT ( 'NONE',  ( 0.000000000000000000, 0.000000000000000000, 0.000000000000000000 ) ) ;
#63 = ORIENTED_EDGE ( 'NONE', *, *, #204, .F. ) ;
#64 = FACE_OUTER_BOUND ( 'NONE', #273, .T. ) ;
#65 = AXIS2_PLACEMENT_3D ( 'NONE', #95, #257, #219 ) ;
#66 = FACE_OUTER_BOUND ( 'NONE', #288, .T. ) ;
#67 = FACE_OUTER_BOUND ( 'NONE', #165, .T. ) ;
#68 = ORIENTED_EDGE ( 'NONE', *, *, #267, .F. ) ;
#69 = PRODUCT_DEFINITION_FORMATION_WITH_SPECIFIED_SOURCE ( 'ANY', '', #108, .NOT_KNOWN. ) ;
#70 = PERSON_AND_ORGANIZATION ( #389, #241 ) ;
#71 = DIRECTION ( 'NONE',  ( 1.000000000000000000, 0.000000000000000000, -3.491481338843133355E-15 ) ) ;
#72 = COORDINATED_UNIVERSAL_TIME_OFFSET ( 1, 0, .AHEAD. ) ;
#73 = FACE_OUTER_BOUND ( 'NONE', #140, .T. ) ;
#74 = COORDINATED_UNIVERSAL_TIME_OFFSET ( 1, 0, .AHEAD. ) ;
#75 = CYLINDRICAL_SURFACE ( 'NONE', #268, 0.8149999999999995026 ) ;
#76 = CALENDAR_DATE ( 2023, 27, 9 ) ;
#77 = CIRCLE ( 'NONE', #263, 0.9699999999999999734 ) ;
#78 = APPROVAL ( #3, 'UNSPECIFIED' ) ;
#79 = ADVANCED_FACE ( 'NONE', ( #92, #161 ), #42, .T. ) ;
#80 = CARTESIAN_POINT ( 'NONE',  ( 1.200000000000132294, 0.000000000000000000, 37.99999999999999289 ) ) ;
#81 = CC_DESIGN_PERSON_AND_ORGANIZATION_ASSIGNMENT ( #207, #302, ( #108 ) ) ;
#82 = AXIS2_PLACEMENT_3D ( 'NONE', #175, #1, #209 ) ;
#83 = MECHANICAL_CONTEXT ( 'NONE', #306, 'mechanical' ) ;
#84 = ORIENTED_EDGE ( 'NONE', *, *, #149, .F. ) ;
#85 = CARTESIAN_POINT ( 'NONE',  ( 0.8545299461620751158, 0.000000000000000000, 0.1749999999999985734 ) ) ;
#86 = DIRECTION ( 'NONE',  ( 3.491481338843133355E-15, -0.000000000000000000, 1.000000000000000000 ) ) ;
#87 = EDGE_LOOP ( 'NONE', ( #84 ) ) ;
#88 = LOCAL_TIME ( 10, 29, 58.00000000000000000, #72 ) ;
#89 = LOCAL_TIME ( 10, 29, 58.00000000000000000, #156 ) ;
#90 = ORIENTED_EDGE ( 'NONE', *, *, #149, .T. ) ;
#91 = DIRECTION ( 'NONE',  ( 3.491481338843133355E-15, -0.000000000000000000, 1.000000000000000000 ) ) ;
#92 = FACE_OUTER_BOUND ( 'NONE', #87, .T. ) ;
#93 = DIRECTION ( 'NONE',  ( 1.000000000000000000, 0.000000000000000000, -3.489118184478043197E-15 ) ) ;
#94 = CARTESIAN_POINT ( 'NONE',  ( 1.396592535537244862E-15, 0.000000000000000000, 0.3999999999999975797 ) ) ;
#95 = CARTESIAN_POINT ( 'NONE',  ( 1.326762908760390423E-13, 0.000000000000000000, 38.00000000000000000 ) ) ;
#96 = FACE_OUTER_BOUND ( 'NONE', #392, .T. ) ;
#97 = CONICAL_SURFACE ( 'NONE', #51, 0.9699999999999999734, 1.047197551196601406 ) ;
#98 = ORIENTED_EDGE ( 'NONE', *, *, #55, .F. ) ;
#99 = PERSON_AND_ORGANIZATION ( #389, #241 ) ;
#100 = CARTESIAN_POINT ( 'NONE',  ( 1.326762908760390423E-13, 0.000000000000000000, 38.00000000000000000 ) ) ;
#101 = DIRECTION ( 'NONE',  ( 1.000000000000000000, 0.000000000000000000, -3.491481338843133355E-15 ) ) ;
#102 = FACE_OUTER_BOUND ( 'NONE', #305, .T. ) ;
#103 = CC_DESIGN_PERSON_AND_ORGANIZATION_ASSIGNMENT ( #99, #167, ( #69 ) ) ;
#104 = CONICAL_SURFACE ( 'NONE', #211, 0.8545299461620744497, 1.047197551196601406 ) ;
#105 = FACE_OUTER_BOUND ( 'NONE', #368, .T. ) ;
#106 = DIRECTION ( 'NONE',  ( 3.491481338843133355E-15, -0.000000000000000000, 1.000000000000000000 ) ) ;
#107 = CC_DESIGN_DATE_AND_TIME_ASSIGNMENT ( #212, #278, ( #266 ) ) ;
#108 = PRODUCT ( '961132', '961132', '', ( #83 ) ) ;
#109 = ADVANCED_FACE ( 'NONE', ( #7, #246 ), #375, .T. ) ;
#110 = ADVANCED_FACE ( 'NONE', ( #66, #163 ), #9, .T. ) ;
#111 = CIRCLE ( 'NONE', #347, 0.8545299461620744497 ) ;
#112 = PERSON_AND_ORGANIZATION ( #389, #241 ) ;
#113 = CARTESIAN_POINT ( 'NONE',  ( 0.9700000000000003064, 0.000000000000000000, 0.1083333333333318937 ) ) ;
#114 = CIRCLE ( 'NONE', #34, 1.500000000000000000 ) ;
#115 = LOCAL_TIME ( 10, 29, 58.00000000000000000, #74 ) ;
#116 = CARTESIAN_POINT ( 'NONE',  ( 0.9700000000000009726, 0.000000000000000000, 0.3083333333333306836 ) ) ;
#117 = VERTEX_POINT ( 'NONE', #113 ) ;
#118 = ORIENTED_EDGE ( 'NONE', *, *, #143, .T. ) ;
#119 = FACE_OUTER_BOUND ( 'NONE', #144, .T. ) ;
#120 = AXIS2_PLACEMENT_3D ( 'NONE', #190, #45, #168 ) ;
#121 = DIRECTION ( 'NONE',  ( 1.000000000000000000, 0.000000000000000000, -3.064614723343477545E-15 ) ) ;
#122 = PLANE ( 'NONE',  #199 ) ;
#123 = FACE_OUTER_BOUND ( 'NONE', #172, .T. ) ;
#124 = DIRECTION ( 'NONE',  ( 1.000000000000000000, 0.000000000000000000, -3.489118184478043197E-15 ) ) ;
#125 = ADVANCED_FACE ( 'NONE', ( #119, #123 ), #243, .T. ) ;
#126 = CARTESIAN_POINT ( 'NONE',  ( 1.326762908760390423E-13, 0.000000000000000000, 38.00000000000000000 ) ) ;
#127 = CARTESIAN_POINT ( 'NONE',  ( 1.326762908760390423E-13, 0.000000000000000000, 38.00000000000000000 ) ) ;
#128 = FACE_BOUND ( 'NONE', #142, .T. ) ;
#129 = SECURITY_CLASSIFICATION ( '', '', #357 ) ;
#130 = DIRECTION ( 'NONE',  ( 3.491481338843133355E-15, -0.000000000000000000, 1.000000000000000000 ) ) ;
#131 = DIRECTION ( 'NONE',  ( 3.491481338843133355E-15, -0.000000000000000000, 1.000000000000000000 ) ) ;
#132 = DIRECTION ( 'NONE',  ( 1.000000000000000000, 0.000000000000000000, -3.464976015159859584E-15 ) ) ;
#133 = CARTESIAN_POINT ( 'NONE',  ( 3.200524560606095299E-16, 0.000000000000000000, 0.09166666666666350993 ) ) ;
#134 = AXIS2_PLACEMENT_3D ( 'NONE', #133, #350, #327 ) ;
#135 = DIRECTION ( 'NONE',  ( -3.491481338843133355E-15, 0.000000000000000000, -1.000000000000000000 ) ) ;
#136 = CARTESIAN_POINT ( 'NONE',  ( 0.9700000000000009726, 0.000000000000000000, 0.2916666666666658525 ) ) ;
#137 = AXIS2_PLACEMENT_3D ( 'NONE', #194, #281, #36 ) ;
#138 = ADVANCED_FACE ( 'NONE', ( #30, #180 ), #239, .T. ) ;
#139 = APPROVAL_STATUS ( 'not_yet_approved' ) ;
#140 = EDGE_LOOP ( 'NONE', ( #242 ) ) ;
#141 = VERTEX_POINT ( 'NONE', #342 ) ;
#142 = EDGE_LOOP ( 'NONE', ( #361 ) ) ;
#143 = EDGE_CURVE ( 'NONE', #393, #393, #290, .T. ) ;
#144 = EDGE_LOOP ( 'NONE', ( #210 ) ) ;
#145 = CARTESIAN_POINT ( 'NONE',  ( 0.8545299461620758930, 0.000000000000000000, 0.3999999999999945821 ) ) ;
#146 = ORIENTED_EDGE ( 'NONE', *, *, #204, .T. ) ;
#147 = AXIS2_PLACEMENT_3D ( 'NONE', #11, #131, #380 ) ;
#148 = CARTESIAN_POINT ( 'NONE',  ( 0.9700000000000003064, 0.000000000000000000, 0.09166666666666012375 ) ) ;
#149 = EDGE_CURVE ( 'NONE', #117, #117, #227, .T. ) ;
#150 = CARTESIAN_POINT ( 'NONE',  ( 1.316288464743861212E-13, 0.000000000000000000, 37.69999999999999574 ) ) ;
#151 = CALENDAR_DATE ( 2023, 27, 9 ) ;
#152 = EDGE_CURVE ( 'NONE', #229, #229, #206, .T. ) ;
#153 = CARTESIAN_POINT ( 'NONE',  ( 0.000000000000000000, 0.000000000000000000, 0.000000000000000000 ) ) ;
#154 = FACE_BOUND ( 'NONE', #326, .T. ) ;
#155 = AXIS2_PLACEMENT_3D ( 'NONE', #62, #379, #101 ) ;
#156 = COORDINATED_UNIVERSAL_TIME_OFFSET ( 1, 0, .AHEAD. ) ;
#157 = APPROVAL_ROLE ( '' ) ;
#158 = CIRCLE ( 'NONE', #322, 0.8545299461620744497 ) ;
#159 = DIRECTION ( 'NONE',  ( 3.491481338843133355E-15, -0.000000000000000000, 1.000000000000000000 ) ) ;
#160 = DIRECTION ( 'NONE',  ( -3.491481338843133355E-15, 0.000000000000000000, -1.000000000000000000 ) ) ;
#161 = FACE_OUTER_BOUND ( 'NONE', #25, .T. ) ;
#162 = DIRECTION ( 'NONE',  ( -1.000000000000000000, 0.000000000000000000, 4.625929269271498733E-15 ) ) ;
#163 = FACE_OUTER_BOUND ( 'NONE', #309, .T. ) ;
#164 = FACE_OUTER_BOUND ( 'NONE', #335, .T. ) ;
#165 = EDGE_LOOP ( 'NONE', ( #202 ) ) ;
#166 = CONICAL_SURFACE ( 'NONE', #232, 0.8490741737109290810, 0.2617993877991425244 ) ;
#167 = PERSON_AND_ORGANIZATION_ROLE ( 'creator' ) ;
#168 = DIRECTION ( 'NONE',  ( 1.000000000000000000, 0.000000000000000000, -3.464976015159859584E-15 ) ) ;
#169 = CARTESIAN_POINT ( 'NONE',  ( 7.855833012397154573E-16, 0.000000000000000000, 0.2250000000000029754 ) ) ;
#170 = ORIENTED_EDGE ( 'NONE', *, *, #215, .F. ) ;
#171 = EDGE_LOOP ( 'NONE', ( #176 ) ) ;
#172 = EDGE_LOOP ( 'NONE', ( #248 ) ) ;
#173 = CC_DESIGN_PERSON_AND_ORGANIZATION_ASSIGNMENT ( #356, #265, ( #266 ) ) ;
#174 = APPLICATION_PROTOCOL_DEFINITION ( 'international standard', 'config_control_design', 1994, #332 ) ;
#175 = CARTESIAN_POINT ( 'NONE',  ( 0.000000000000000000, 0.000000000000000000, 0.000000000000000000 ) ) ;
#176 = ORIENTED_EDGE ( 'NONE', *, *, #44, .F. ) ;
#177 = AXIS2_PLACEMENT_3D ( 'NONE', #383, #358, #71 ) ;
#178 = SHAPE_DEFINITION_REPRESENTATION ( #320, #233 ) ;
#179 = EDGE_LOOP ( 'NONE', ( #341 ) ) ;
#180 = FACE_OUTER_BOUND ( 'NONE', #223, .T. ) ;
#181 = EDGE_CURVE ( 'NONE', #300, #300, #35, .T. ) ;
#182 = ADVANCED_FACE ( 'NONE', ( #73, #105 ), #75, .T. ) ;
#183 = EDGE_LOOP ( 'NONE', ( #331 ) ) ;
#184 = CARTESIAN_POINT ( 'NONE',  ( 1.326762908760390423E-13, 0.000000000000000000, 38.00000000000000000 ) ) ;
#185 = CONICAL_SURFACE ( 'NONE', #43, 1.499999999999995781, 0.7853981633974389531 ) ;
#186 = ORIENTED_EDGE ( 'NONE', *, *, #251, .T. ) ;
#187 = FACE_BOUND ( 'NONE', #372, .T. ) ;
#188 = DIRECTION ( 'NONE',  ( 3.491481338843133355E-15, -0.000000000000000000, 1.000000000000000000 ) ) ;
#189 = MANIFOLD_SOLID_BREP ( 'Corps-Déplacer/Copier1', #261 ) ;
#190 = CARTESIAN_POINT ( 'NONE',  ( 1.018348723829256169E-15, 0.000000000000000000, 0.2916666666666692387 ) ) ;
#191 = FACE_BOUND ( 'NONE', #348, .T. ) ;
#192 = AXIS2_PLACEMENT_3D ( 'NONE', #49, #135, #386 ) ;
#193 = DATE_AND_TIME ( #362, #282 ) ;
#194 = CARTESIAN_POINT ( 'NONE',  ( 1.316288464743861212E-13, 0.000000000000000000, 37.69999999999999574 ) ) ;
#195 = CARTESIAN_POINT ( 'NONE',  ( 0.8545299461620757819, 0.000000000000000000, 0.3749999999999973355 ) ) ;
#196 = CALENDAR_DATE ( 2023, 27, 9 ) ;
#197 = DIRECTION ( 'NONE',  ( 1.000000000000000000, 0.000000000000000000, -3.491481338843133355E-15 ) ) ;
#198 = CIRCLE ( 'NONE', #58, 0.8490741737109290810 ) ;
#199 = AXIS2_PLACEMENT_3D ( 'NONE', #283, #160, #217 ) ;
#200 = DESIGN_CONTEXT ( 'detailed design', #332, 'design' ) ;
#201 = VERTEX_POINT ( 'NONE', #203 ) ;
#202 = ORIENTED_EDGE ( 'NONE', *, *, #260, .T. ) ;
#203 = CARTESIAN_POINT ( 'NONE',  ( 1.500000000000127232, 0.000000000000000000, 37.69999999999998863 ) ) ;
#204 = EDGE_CURVE ( 'NONE', #54, #54, #158, .T. ) ;
#205 = ORIENTED_EDGE ( 'NONE', *, *, #215, .T. ) ;
#206 = CIRCLE ( 'NONE', #304, 1.199999999999999734 ) ;
#207 = PERSON_AND_ORGANIZATION ( #389, #241 ) ;
#208 = EDGE_CURVE ( 'NONE', #201, #201, #218, .T. ) ;
#209 = DIRECTION ( 'NONE',  ( 1.000000000000000000, 0.000000000000000000, 0.000000000000000000 ) ) ;
#210 = ORIENTED_EDGE ( 'NONE', *, *, #181, .F. ) ;
#211 = AXIS2_PLACEMENT_3D ( 'NONE', #8, #247, #253 ) ;
#212 = DATE_AND_TIME ( #151, #88 ) ;
#213 = CARTESIAN_POINT ( 'NONE',  ( 3.782438117080129010E-16, 0.000000000000000000, 0.1083333333333352799 ) ) ;
#214 = FACE_OUTER_BOUND ( 'NONE', #377, .T. ) ;
#215 = EDGE_CURVE ( 'NONE', #364, #364, #59, .T. ) ;
#216 = DIRECTION ( 'NONE',  ( -3.491481338843133355E-15, 0.000000000000000000, -1.000000000000000000 ) ) ;
#217 = DIRECTION ( 'NONE',  ( -1.000000000000000000, 0.000000000000000000, 3.491481338843133355E-15 ) ) ;
#218 = CIRCLE ( 'NONE', #137, 1.499999999999995781 ) ;
#219 = DIRECTION ( 'NONE',  ( 1.000000000000000000, 0.000000000000000000, -4.625929269271492422E-15 ) ) ;
#220 = CARTESIAN_POINT ( 'NONE',  ( 1.871021669421260278E-14, 0.000000000000000000, 5.358819045102512391 ) ) ;
#221 = PERSON_AND_ORGANIZATION_ROLE ( 'design_supplier' ) ;
#222 = APPROVAL_PERSON_ORGANIZATION ( #31, #78, #157 ) ;
#223 = EDGE_LOOP ( 'NONE', ( #146 ) ) ;
#224 = PERSON_AND_ORGANIZATION ( #389, #241 ) ;
#225 = DATE_AND_TIME ( #61, #53 ) ;
#226 = AXIS2_PLACEMENT_3D ( 'NONE', #37, #216, #317 ) ;
#227 = CIRCLE ( 'NONE', #313, 0.9699999999999999734 ) ;
#228 = CARTESIAN_POINT ( 'NONE',  ( 0.8150000000000013900, 0.000000000000000000, 0.3999999999999947486 ) ) ;
#229 = VERTEX_POINT ( 'NONE', #80 ) ;
#230 = ADVANCED_FACE ( 'NONE', ( #214 ), #262, .F. ) ;
#231 = VERTEX_POINT ( 'NONE', #116 ) ;
#232 = AXIS2_PLACEMENT_3D ( 'NONE', #220, #106, #325 ) ;
#233 = ADVANCED_BREP_SHAPE_REPRESENTATION ( '961132', ( #189, #82 ), #381 ) ;
#234 = CARTESIAN_POINT ( 'NONE',  ( 0.8150000000000169331, 0.000000000000000000, 5.099999999999997868 ) ) ;
#235 = ORIENTED_EDGE ( 'NONE', *, *, #55, .T. ) ;
#236 = DIRECTION ( 'NONE',  ( 1.000000000000000000, 0.000000000000000000, -3.492919370120826356E-15 ) ) ;
#237 = ADVANCED_FACE ( 'NONE', ( #330, #67 ), #291, .T. ) ;
#238 = EDGE_LOOP ( 'NONE', ( #90 ) ) ;
#239 = CYLINDRICAL_SURFACE ( 'NONE', #388, 0.8545299461620744497 ) ;
#240 = AXIS2_PLACEMENT_3D ( 'NONE', #316, #188, #124 ) ;
#241 = ORGANIZATION ( 'UNSPECIFIED', 'UNSPECIFIED', '' ) ;
#242 = ORIENTED_EDGE ( 'NONE', *, *, #251, .F. ) ;
#243 = CYLINDRICAL_SURFACE ( 'NONE', #346, 0.8545299461620744497 ) ;
#244 = APPROVAL ( #47, 'UNSPECIFIED' ) ;
#245 = FACE_OUTER_BOUND ( 'NONE', #319, .T. ) ;
#246 = FACE_OUTER_BOUND ( 'NONE', #366, .T. ) ;
#247 = DIRECTION ( 'NONE',  ( 3.491481338843133355E-15, -0.000000000000000000, 1.000000000000000000 ) ) ;
#248 = ORIENTED_EDGE ( 'NONE', *, *, #4, .T. ) ;
#249 = ADVANCED_FACE ( 'NONE', ( #164, #154 ), #166, .T. ) ;
#250 = CIRCLE ( 'NONE', #23, 0.8149999999999990585 ) ;
#251 = EDGE_CURVE ( 'NONE', #391, #391, #250, .T. ) ;
#252 = DIRECTION ( 'NONE',  ( 3.491481338843133355E-15, -0.000000000000000000, 1.000000000000000000 ) ) ;
#253 = DIRECTION ( 'NONE',  ( 1.000000000000000000, 0.000000000000000000, -3.489118184478043197E-15 ) ) ;
#254 = ORIENTED_EDGE ( 'NONE', *, *, #258, .F. ) ;
#255 = DATE_TIME_ROLE ( 'classification_date' ) ;
#256 = DIRECTION ( 'NONE',  ( 1.000000000000000000, 0.000000000000000000, -3.192742593822348026E-15 ) ) ;
#257 = DIRECTION ( 'NONE',  ( 3.491481338843133355E-15, -0.000000000000000000, 1.000000000000000000 ) ) ;
#258 = EDGE_CURVE ( 'NONE', #21, #21, #269, .T. ) ;
#259 = DIRECTION ( 'NONE',  ( 1.000000000000000000, 0.000000000000000000, -3.489118184478043197E-15 ) ) ;
#260 = EDGE_CURVE ( 'NONE', #231, #231, #77, .T. ) ;
#261 = CLOSED_SHELL ( 'NONE', ( #230, #41, #79, #271, #138, #370, #110, #237, #125, #359, #182, #384, #249, #109, #301, #12 ) ) ;
#262 = PLANE ( 'NONE',  #10 ) ;
#263 = AXIS2_PLACEMENT_3D ( 'NONE', #294, #15, #132 ) ;
#264 = DIRECTION ( 'NONE',  ( 1.000000000000000000, 0.000000000000000000, 0.000000000000000000 ) ) ;
#265 = PERSON_AND_ORGANIZATION_ROLE ( 'creator' ) ;
#266 = PRODUCT_DEFINITION ( 'UNKNOWN', '', #69, #200 ) ;
#267 = EDGE_CURVE ( 'NONE', #338, #338, #111, .T. ) ;
#268 = AXIS2_PLACEMENT_3D ( 'NONE', #100, #324, #264 ) ;
#269 = CIRCLE ( 'NONE', #120, 0.9699999999999999734 ) ;
#270 = DIRECTION ( 'NONE',  ( 3.491481338843133355E-15, -0.000000000000000000, 1.000000000000000000 ) ) ;
#271 = ADVANCED_FACE ( 'NONE', ( #187, #376 ), #97, .T. ) ;
#272 = ORIENTED_EDGE ( 'NONE', *, *, #258, .T. ) ;
#273 = EDGE_LOOP ( 'NONE', ( #254 ) ) ;
#274 = AXIS2_PLACEMENT_3D ( 'NONE', #127, #252, #337 ) ;
#275 = CC_DESIGN_APPROVAL ( #244, ( #129 ) ) ;
#276 = CARTESIAN_POINT ( 'NONE',  ( 0.8545299461620752268, 0.000000000000000000, 0.2250000000000000056 ) ) ;
#277 = APPROVAL_ROLE ( '' ) ;
#278 = DATE_TIME_ROLE ( 'creation_date' ) ;
#279 = DIRECTION ( 'NONE',  ( 1.000000000000000000, 0.000000000000000000, -3.491481338843133355E-15 ) ) ;
#280 = FACE_OUTER_BOUND ( 'NONE', #2, .T. ) ;
#281 = DIRECTION ( 'NONE',  ( 3.491481338843133355E-15, -0.000000000000000000, 1.000000000000000000 ) ) ;
#282 = LOCAL_TIME ( 10, 29, 58.00000000000000000, #387 ) ;
#283 = CARTESIAN_POINT ( 'NONE',  ( 1.396592535537255511E-15, 0.8545299461620744497, 0.4000000000000006328 ) ) ;
#284 = DIRECTION ( 'NONE',  ( 1.000000000000000000, 0.000000000000000000, 0.000000000000000000 ) ) ;
#285 = DIRECTION ( 'NONE',  ( 1.000000000000000000, 0.000000000000000000, 0.000000000000000000 ) ) ;
#286 = FACE_BOUND ( 'NONE', #40, .T. ) ;
#287 = DIRECTION ( 'NONE',  ( 3.491481338843133355E-15, -0.000000000000000000, 1.000000000000000000 ) ) ;
#288 = EDGE_LOOP ( 'NONE', ( #28 ) ) ;
#289 = APPROVAL ( #139, 'UNSPECIFIED' ) ;
#290 = CIRCLE ( 'NONE', #352, 0.8149999999999999467 ) ;
#291 = CONICAL_SURFACE ( 'NONE', #192, 0.9699999999999999734, 1.047197551196601406 ) ;
#292 = CARTESIAN_POINT ( 'NONE',  ( -3.799754070933198886E-33, 0.000000000000000000, -1.088292819629449417E-18 ) ) ;
#293 = DATE_AND_TIME ( #76, #89 ) ;
#294 = CARTESIAN_POINT ( 'NONE',  ( 1.076540079476635283E-15, 0.000000000000000000, 0.3083333333333340698 ) ) ;
#295 = ORIENTED_EDGE ( 'NONE', *, *, #44, .T. ) ;
#296 = APPROVAL_ROLE ( '' ) ;
#297 = APPROVAL_PERSON_ORGANIZATION ( #382, #244, #296 ) ;
#298 = EDGE_LOOP ( 'NONE', ( #38 ) ) ;
#299 = FACE_OUTER_BOUND ( 'NONE', #171, .T. ) ;
#300 = VERTEX_POINT ( 'NONE', #145 ) ;
#301 = ADVANCED_FACE ( 'NONE', ( #60, #96 ), #185, .T. ) ;
#302 = PERSON_AND_ORGANIZATION_ROLE ( 'design_owner' ) ;
#303 = AXIS2_PLACEMENT_3D ( 'NONE', #153, #353, #279 ) ;
#304 = AXIS2_PLACEMENT_3D ( 'NONE', #308, #86, #57 ) ;
#305 = EDGE_LOOP ( 'NONE', ( #186 ) ) ;
#306 = APPLICATION_CONTEXT ( 'configuration controlled 3d designs of mechanical parts and assemblies' ) ;
#307 = CONICAL_SURFACE ( 'NONE', #303, 0.8112286759728535301, 1.047197551196610732 ) ;
#308 = CARTESIAN_POINT ( 'NONE',  ( 1.326762908760390423E-13, 0.000000000000000000, 38.00000000000000000 ) ) ;
#309 = EDGE_LOOP ( 'NONE', ( #272 ) ) ;
#310 = DIRECTION ( 'NONE',  ( -3.491481338843133355E-15, 0.000000000000000000, -1.000000000000000000 ) ) ;
#311 = CARTESIAN_POINT ( 'NONE',  ( 1.871021669421260278E-14, 0.000000000000000000, 5.358819045102512391 ) ) ;
#312 = CARTESIAN_POINT ( 'NONE',  ( 6.110092342975536620E-16, 0.000000000000000000, 0.1750000000000015432 ) ) ;
#313 = AXIS2_PLACEMENT_3D ( 'NONE', #52, #369, #236 ) ;
#314 = DIRECTION ( 'NONE',  ( 3.491481338843133355E-15, -0.000000000000000000, 1.000000000000000000 ) ) ;
#315 = COORDINATED_UNIVERSAL_TIME_OFFSET ( 1, 0, .AHEAD. ) ;
#316 = CARTESIAN_POINT ( 'NONE',  ( 1.309305502066176192E-15, 0.000000000000000000, 0.3750000000000003331 ) ) ;
#317 = DIRECTION ( 'NONE',  ( -1.000000000000000000, 0.000000000000000000, 3.491481338843133355E-15 ) ) ;
#318 = DIRECTION ( 'NONE',  ( -3.491481338843133355E-15, 0.000000000000000000, -1.000000000000000000 ) ) ;
#319 = EDGE_LOOP ( 'NONE', ( #170 ) ) ;
#320 = PRODUCT_DEFINITION_SHAPE ( 'NONE', 'NONE',  #266 ) ;
#321 = FACE_OUTER_BOUND ( 'NONE', #179, .T. ) ;
#322 = AXIS2_PLACEMENT_3D ( 'NONE', #312, #130, #259 ) ;
#323 = APPROVAL_DATE_TIME ( #225, #78 ) ;
#324 = DIRECTION ( 'NONE',  ( 3.491481338843133355E-15, -0.000000000000000000, 1.000000000000000000 ) ) ;
#325 = DIRECTION ( 'NONE',  ( 1.000000000000000000, 0.000000000000000000, -3.064614723343477545E-15 ) ) ;
#326 = EDGE_LOOP ( 'NONE', ( #295 ) ) ;
#327 = DIRECTION ( 'NONE',  ( 1.000000000000000000, 0.000000000000000000, -3.492919370120826356E-15 ) ) ;
#328 = VERTEX_POINT ( 'NONE', #48 ) ;
#329 = DATE_AND_TIME ( #196, #115 ) ;
#330 = FACE_BOUND ( 'NONE', #298, .T. ) ;
#331 = ORIENTED_EDGE ( 'NONE', *, *, #152, .F. ) ;
#332 = APPLICATION_CONTEXT ( 'configuration controlled 3d designs of mechanical parts and assemblies' ) ;
#333 = PERSON_AND_ORGANIZATION_ROLE ( 'classification_officer' ) ;
#334 = CC_DESIGN_SECURITY_CLASSIFICATION ( #129, ( #69 ) ) ;
#335 = EDGE_LOOP ( 'NONE', ( #98 ) ) ;
#336 = UNCERTAINTY_MEASURE_WITH_UNIT (LENGTH_MEASURE( 1.000000000000000082E-05 ), #344, 'distance_accuracy_value', 'NONE');
#337 = DIRECTION ( 'NONE',  ( 1.000000000000000000, 0.000000000000000000, 0.000000000000000000 ) ) ;
#338 = VERTEX_POINT ( 'NONE', #276 ) ;
#339 = DIRECTION ( 'NONE',  ( 1.000000000000000000, 0.000000000000000000, -3.458804476640873380E-15 ) ) ;
#340 =( NAMED_UNIT ( * ) SI_UNIT ( $, .STERADIAN. ) SOLID_ANGLE_UNIT ( ) );
#341 = ORIENTED_EDGE ( 'NONE', *, *, #152, .T. ) ;
#342 = CARTESIAN_POINT ( 'NONE',  ( 0.8490741737109478438, 0.000000000000000000, 5.358819045102510614 ) ) ;
#343 = EDGE_LOOP ( 'NONE', ( #365 ) ) ;
#344 =( LENGTH_UNIT ( ) NAMED_UNIT ( * ) SI_UNIT ( .MILLI., .METRE. ) );
#345 = CARTESIAN_POINT ( 'NONE',  ( 1.326762908760390423E-13, 0.000000000000000000, 38.00000000000000000 ) ) ;
#346 = AXIS2_PLACEMENT_3D ( 'NONE', #184, #314, #284 ) ;
#347 = AXIS2_PLACEMENT_3D ( 'NONE', #169, #33, #93 ) ;
#348 = EDGE_LOOP ( 'NONE', ( #56 ) ) ;
#349 = CARTESIAN_POINT ( 'NONE',  ( 2.719203130555391444E-14, 0.000000000000000000, 7.788107300772145969 ) ) ;
#350 = DIRECTION ( 'NONE',  ( 3.491481338843133355E-15, -0.000000000000000000, 1.000000000000000000 ) ) ;
#351 = DIRECTION ( 'NONE',  ( 1.000000000000000000, 0.000000000000000000, -3.469446951953614189E-15 ) ) ;
#352 = AXIS2_PLACEMENT_3D ( 'NONE', #94, #270, #339 ) ;
#353 = DIRECTION ( 'NONE',  ( 3.491481338843133355E-15, -0.000000000000000000, 1.000000000000000000 ) ) ;
#354 = ORIENTED_EDGE ( 'NONE', *, *, #181, .T. ) ;
#355 = APPROVAL_PERSON_ORGANIZATION ( #112, #289, #277 ) ;
#356 = PERSON_AND_ORGANIZATION ( #389, #241 ) ;
#357 = SECURITY_CLASSIFICATION_LEVEL ( 'unclassified' ) ;
#358 = DIRECTION ( 'NONE',  ( 3.491481338843133355E-15, -0.000000000000000000, 1.000000000000000000 ) ) ;
#359 = ADVANCED_FACE ( 'NONE', ( #128, #280 ), #122, .F. ) ;
#360 = DIRECTION ( 'NONE',  ( 3.491481338843133355E-15, -0.000000000000000000, 1.000000000000000000 ) ) ;
#361 = ORIENTED_EDGE ( 'NONE', *, *, #143, .F. ) ;
#362 = CALENDAR_DATE ( 2023, 27, 9 ) ;
#363 = CC_DESIGN_APPROVAL ( #78, ( #69 ) ) ;
#364 = VERTEX_POINT ( 'NONE', #148 ) ;
#365 = ORIENTED_EDGE ( 'NONE', *, *, #208, .F. ) ;
#366 = EDGE_LOOP ( 'NONE', ( #235 ) ) ;
#367 = CARTESIAN_POINT ( 'NONE',  ( 1.500000000000027089, 0.000000000000000000, 7.788107300772140640 ) ) ;
#368 = EDGE_LOOP ( 'NONE', ( #118 ) ) ;
#369 = DIRECTION ( 'NONE',  ( 3.491481338843133355E-15, -0.000000000000000000, 1.000000000000000000 ) ) ;
#370 = ADVANCED_FACE ( 'NONE', ( #64, #286 ), #104, .T. ) ;
#371 = APPLICATION_PROTOCOL_DEFINITION ( 'international standard', 'config_control_design', 1994, #306 ) ;
#372 = EDGE_LOOP ( 'NONE', ( #63 ) ) ;
#373 = DIRECTION ( 'NONE',  ( 3.491481338843133355E-15, -0.000000000000000000, 1.000000000000000000 ) ) ;
#374 = DIRECTION ( 'NONE',  ( 1.000000000000000000, 0.000000000000000000, 0.000000000000000000 ) ) ;
#375 = CYLINDRICAL_SURFACE ( 'NONE', #65, 1.499999999999997780 ) ;
#376 = FACE_OUTER_BOUND ( 'NONE', #238, .T. ) ;
#377 = EDGE_LOOP ( 'NONE', ( #395 ) ) ;
#378 = CC_DESIGN_PERSON_AND_ORGANIZATION_ASSIGNMENT ( #224, #221, ( #69 ) ) ;
#379 = DIRECTION ( 'NONE',  ( 3.491481338843133355E-15, -0.000000000000000000, 1.000000000000000000 ) ) ;
#380 = DIRECTION ( 'NONE',  ( 1.000000000000000000, 0.000000000000000000, -3.489118184478043197E-15 ) ) ;
#381 =( GEOMETRIC_REPRESENTATION_CONTEXT ( 3 ) GLOBAL_UNCERTAINTY_ASSIGNED_CONTEXT ( ( #336 ) ) GLOBAL_UNIT_ASSIGNED_CONTEXT ( ( #344, #24, #340 ) ) REPRESENTATION_CONTEXT ( 'NONE', 'WORKASPACE' ) );
#382 = PERSON_AND_ORGANIZATION ( #389, #241 ) ;
#383 = CARTESIAN_POINT ( 'NONE',  ( 1.780655482809997696E-14, 0.000000000000000000, 5.099999999999999645 ) ) ;
#384 = ADVANCED_FACE ( 'NONE', ( #299, #102 ), #18, .F. ) ;
#385 = APPROVAL_DATE_TIME ( #329, #244 ) ;
#386 = DIRECTION ( 'NONE',  ( -1.000000000000000000, 0.000000000000000000, 3.464976015159859584E-15 ) ) ;
#387 = COORDINATED_UNIVERSAL_TIME_OFFSET ( 1, 0, .AHEAD. ) ;
#388 = AXIS2_PLACEMENT_3D ( 'NONE', #345, #6, #374 ) ;
#389 = PERSON ( 'UNSPECIFIED', 'UNSPECIFIED', 'UNSPECIFIED', ('UNSPECIFIED'), ('UNSPECIFIED'), ('UNSPECIFIED') ) ;
#390 = VERTEX_POINT ( 'NONE', #367 ) ;
#391 = VERTEX_POINT ( 'NONE', #234 ) ;
#392 = EDGE_LOOP ( 'NONE', ( #26 ) ) ;
#393 = VERTEX_POINT ( 'NONE', #228 ) ;
#394 = CC_DESIGN_APPROVAL ( #289, ( #266 ) ) ;
#395 = ORIENTED_EDGE ( 'NONE', *, *, #20, .F. ) ;
ENDSEC;
END-ISO-10303-21;
