ISO-10303-21;
HEADER;
FILE_DESCRIPTION (( 'STEP AP203' ),
    '1' );
FILE_NAME ('961130.step',
    '2023-09-27T08:29:57',
    ( '' ),
    ( '' ),
    'SwSTEP 2.0',
    'SolidWorks 2022',
    '' );
FILE_SCHEMA (( 'CONFIG_CONTROL_DESIGN' ));
ENDSEC;

DATA;
#1 = FACE_BOUND ( 'NONE', #388, .T. ) ;
#2 = DIRECTION ( 'NONE',  ( 3.491481338843133355E-15, -0.000000000000000000, 1.000000000000000000 ) ) ;
#3 = CARTESIAN_POINT ( 'NONE',  ( 0.6162286759728513585, 0.000000000000000000, -2.151550922619222774E-15 ) ) ;
#4 = DATE_AND_TIME ( #197, #311 ) ;
#5 = FACE_OUTER_BOUND ( 'NONE', #386, .T. ) ;
#6 = PRODUCT_DEFINITION ( 'UNKNOWN', '', #351, #79 ) ;
#7 = APPROVAL_PERSON_ORGANIZATION ( #62, #86, #281 ) ;
#8 = PERSON_AND_ORGANIZATION ( #327, #51 ) ;
#9 = DIRECTION ( 'NONE',  ( 1.000000000000000000, 0.000000000000000000, -3.491481338843133750E-15 ) ) ;
#10 = ADVANCED_FACE ( 'NONE', ( #333, #344 ), #147, .F. ) ;
#11 = COORDINATED_UNIVERSAL_TIME_OFFSET ( 1, 0, .AHEAD. ) ;
#12 = CARTESIAN_POINT ( 'NONE',  ( 1.396592535537244862E-15, 0.000000000000000000, 0.3999999999999975797 ) ) ;
#13 = APPROVAL_STATUS ( 'not_yet_approved' ) ;
#14 = DIRECTION ( 'NONE',  ( 3.491481338843133355E-15, -0.000000000000000000, 1.000000000000000000 ) ) ;
#15 = DIRECTION ( 'NONE',  ( 1.000000000000000000, 0.000000000000000000, -3.497426362856465318E-15 ) ) ;
#16 = CC_DESIGN_APPROVAL ( #126, ( #124 ) ) ;
#17 = SHAPE_DEFINITION_REPRESENTATION ( #324, #361 ) ;
#18 = ADVANCED_FACE ( 'NONE', ( #33, #1 ), #45, .T. ) ;
#19 = EDGE_LOOP ( 'NONE', ( #266 ) ) ;
#20 = CIRCLE ( 'NONE', #245, 0.6595299461620730552 ) ;
#21 = ORIENTED_EDGE ( 'NONE', *, *, #175, .T. ) ;
#22 = EDGE_LOOP ( 'NONE', ( #173 ) ) ;
#23 = PERSON_AND_ORGANIZATION ( #327, #51 ) ;
#24 = EDGE_LOOP ( 'NONE', ( #393 ) ) ;
#25 = AXIS2_PLACEMENT_3D ( 'NONE', #273, #178, #163 ) ;
#26 = EDGE_LOOP ( 'NONE', ( #77 ) ) ;
#27 = LOCAL_TIME ( 10, 29, 57.00000000000000000, #230 ) ;
#28 = FACE_OUTER_BOUND ( 'NONE', #143, .T. ) ;
#29 = PLANE ( 'NONE',  #87 ) ;
#30 = VERTEX_POINT ( 'NONE', #146 ) ;
#31 = FACE_OUTER_BOUND ( 'NONE', #19, .T. ) ;
#32 = AXIS2_PLACEMENT_3D ( 'NONE', #224, #383, #286 ) ;
#33 = FACE_OUTER_BOUND ( 'NONE', #82, .T. ) ;
#34 = DIRECTION ( 'NONE',  ( -1.000000000000000000, 0.000000000000000000, 3.497426362856465318E-15 ) ) ;
#35 = CYLINDRICAL_SURFACE ( 'NONE', #240, 0.6595299461620726111 ) ;
#36 = CALENDAR_DATE ( 2023, 27, 9 ) ;
#37 = CARTESIAN_POINT ( 'NONE',  ( 1.326762908760390423E-13, 0.000000000000000000, 38.00000000000000000 ) ) ;
#38 = CIRCLE ( 'NONE', #318, 1.499999999999995781 ) ;
#39 = CALENDAR_DATE ( 2023, 27, 9 ) ;
#40 = DIRECTION ( 'NONE',  ( 3.491481338843133355E-15, -0.000000000000000000, 1.000000000000000000 ) ) ;
#41 = CARTESIAN_POINT ( 'NONE',  ( 0.6150000000000015454, 0.000000000000000000, 0.3999999999999954148 ) ) ;
#42 = DIRECTION ( 'NONE',  ( 1.000000000000000000, 0.000000000000000000, -5.782411586589358033E-15 ) ) ;
#43 = DIRECTION ( 'NONE',  ( 1.000000000000000000, 0.000000000000000000, -3.525860723530095294E-15 ) ) ;
#44 = AXIS2_PLACEMENT_3D ( 'NONE', #287, #40, #43 ) ;
#45 = CONICAL_SURFACE ( 'NONE', #335, 0.6490741737109292364, 0.2617993877991425800 ) ;
#46 = CALENDAR_DATE ( 2023, 27, 9 ) ;
#47 = CARTESIAN_POINT ( 'NONE',  ( 0.6150000000000139799, 0.000000000000000000, 4.099999999999997868 ) ) ;
#48 = EDGE_LOOP ( 'NONE', ( #80 ) ) ;
#49 = ORIENTED_EDGE ( 'NONE', *, *, #384, .T. ) ;
#50 = AXIS2_PLACEMENT_3D ( 'NONE', #213, #151, #272 ) ;
#51 = ORGANIZATION ( 'UNSPECIFIED', 'UNSPECIFIED', '' ) ;
#52 = ORIENTED_EDGE ( 'NONE', *, *, #297, .F. ) ;
#53 = DATE_TIME_ROLE ( 'classification_date' ) ;
#54 = EDGE_LOOP ( 'NONE', ( #52 ) ) ;
#55 = EDGE_LOOP ( 'NONE', ( #362 ) ) ;
#56 = FACE_OUTER_BOUND ( 'NONE', #138, .T. ) ;
#57 = CARTESIAN_POINT ( 'NONE',  ( 1.326762908760390423E-13, 0.000000000000000000, 38.00000000000000000 ) ) ;
#58 = EDGE_CURVE ( 'NONE', #89, #89, #155, .T. ) ;
#59 = DIRECTION ( 'NONE',  ( 1.000000000000000000, 0.000000000000000000, -3.491481338843133355E-15 ) ) ;
#60 = CIRCLE ( 'NONE', #67, 0.6595299461620730552 ) ;
#61 = DIRECTION ( 'NONE',  ( 3.491481338843133355E-15, -0.000000000000000000, 1.000000000000000000 ) ) ;
#62 = PERSON_AND_ORGANIZATION ( #327, #51 ) ;
#63 = DIRECTION ( 'NONE',  ( 1.000000000000000000, 0.000000000000000000, -3.493290380427288030E-15 ) ) ;
#64 = SECURITY_CLASSIFICATION_LEVEL ( 'unclassified' ) ;
#65 = CARTESIAN_POINT ( 'NONE',  ( 0.7750000000000003553, 0.000000000000000000, 0.09166666666666080376 ) ) ;
#66 = DIRECTION ( 'NONE',  ( 1.000000000000000000, 0.000000000000000000, -3.491481338843133750E-15 ) ) ;
#67 = AXIS2_PLACEMENT_3D ( 'NONE', #228, #323, #346 ) ;
#68 = COORDINATED_UNIVERSAL_TIME_OFFSET ( 1, 0, .AHEAD. ) ;
#69 = CARTESIAN_POINT ( 'NONE',  ( 2.630662711675908033E-14, 0.000000000000000000, 7.534517462285939438 ) ) ;
#70 = CARTESIAN_POINT ( 'NONE',  ( 0.7750000000000010214, 0.000000000000000000, 0.2916666666666665186 ) ) ;
#71 = CARTESIAN_POINT ( 'NONE',  ( 6.110092342975536620E-16, 0.000000000000000000, 0.1750000000000015432 ) ) ;
#72 = MANIFOLD_SOLID_BREP ( 'Corps-Déplacer/Copier1', #181 ) ;
#73 = AXIS2_PLACEMENT_3D ( 'NONE', #364, #120, #123 ) ;
#74 = LOCAL_TIME ( 10, 29, 57.00000000000000000, #205 ) ;
#75 = EDGE_LOOP ( 'NONE', ( #391 ) ) ;
#76 = PERSON_AND_ORGANIZATION ( #327, #51 ) ;
#77 = ORIENTED_EDGE ( 'NONE', *, *, #191, .F. ) ;
#78 = ORIENTED_EDGE ( 'NONE', *, *, #190, .T. ) ;
#79 = DESIGN_CONTEXT ( 'detailed design', #94, 'design' ) ;
#80 = ORIENTED_EDGE ( 'NONE', *, *, #190, .F. ) ;
#81 = ADVANCED_FACE ( 'NONE', ( #176, #28 ), #392, .T. ) ;
#82 = EDGE_LOOP ( 'NONE', ( #204 ) ) ;
#83 = FACE_OUTER_BOUND ( 'NONE', #112, .T. ) ;
#84 = ADVANCED_FACE ( 'NONE', ( #149 ), #29, .F. ) ;
#85 = ADVANCED_FACE ( 'NONE', ( #279, #315 ), #35, .T. ) ;
#86 = APPROVAL ( #127, 'UNSPECIFIED' ) ;
#87 = AXIS2_PLACEMENT_3D ( 'NONE', #88, #61, #187 ) ;
#88 = CARTESIAN_POINT ( 'NONE',  ( -4.187477792647561556E-32, 0.000000000000000000, -1.199341307101197166E-17 ) ) ;
#89 = VERTEX_POINT ( 'NONE', #338 ) ;
#90 = VERTEX_POINT ( 'NONE', #284 ) ;
#91 = DIRECTION ( 'NONE',  ( 3.491481338843133355E-15, -0.000000000000000000, 1.000000000000000000 ) ) ;
#92 = APPLICATION_PROTOCOL_DEFINITION ( 'international standard', 'config_control_design', 1994, #94 ) ;
#93 = FACE_OUTER_BOUND ( 'NONE', #54, .T. ) ;
#94 = APPLICATION_CONTEXT ( 'configuration controlled 3d designs of mechanical parts and assemblies' ) ;
#95 = CARTESIAN_POINT ( 'NONE',  ( 3.782438117080129010E-16, 0.000000000000000000, 0.1083333333333352799 ) ) ;
#96 = LOCAL_TIME ( 10, 29, 57.00000000000000000, #11 ) ;
#97 = VERTEX_POINT ( 'NONE', #41 ) ;
#98 = CARTESIAN_POINT ( 'NONE',  ( 0.000000000000000000, 0.000000000000000000, 0.000000000000000000 ) ) ;
#99 = DIRECTION ( 'NONE',  ( 3.491481338843133355E-15, -0.000000000000000000, 1.000000000000000000 ) ) ;
#100 = DIRECTION ( 'NONE',  ( 3.491481338843133355E-15, -0.000000000000000000, 1.000000000000000000 ) ) ;
#101 = AXIS2_PLACEMENT_3D ( 'NONE', #71, #14, #321 ) ;
#102 = ADVANCED_FACE ( 'NONE', ( #56, #312 ), #144, .T. ) ;
#103 = DIRECTION ( 'NONE',  ( -3.491481338843133355E-15, 0.000000000000000000, -1.000000000000000000 ) ) ;
#104 = VERTEX_POINT ( 'NONE', #161 ) ;
#105 = ADVANCED_FACE ( 'NONE', ( #244, #83 ), #118, .T. ) ;
#106 = AXIS2_PLACEMENT_3D ( 'NONE', #394, #277, #217 ) ;
#107 = ORIENTED_EDGE ( 'NONE', *, *, #154, .F. ) ;
#108 = ORIENTED_EDGE ( 'NONE', *, *, #212, .F. ) ;
#109 = ADVANCED_FACE ( 'NONE', ( #145, #371 ), #369, .T. ) ;
#110 = ADVANCED_FACE ( 'NONE', ( #177, #215 ), #310, .F. ) ;
#111 = AXIS2_PLACEMENT_3D ( 'NONE', #302, #113, #307 ) ;
#112 = EDGE_LOOP ( 'NONE', ( #139 ) ) ;
#113 = DIRECTION ( 'NONE',  ( 3.491481338843133355E-15, -0.000000000000000000, 1.000000000000000000 ) ) ;
#114 = ORIENTED_EDGE ( 'NONE', *, *, #294, .F. ) ;
#115 = CYLINDRICAL_SURFACE ( 'NONE', #111, 1.499999999999997780 ) ;
#116 = DIRECTION ( 'NONE',  ( 1.000000000000000000, 0.000000000000000000, -4.008918116535741014E-15 ) ) ;
#117 = AXIS2_PLACEMENT_3D ( 'NONE', #57, #91, #283 ) ;
#118 = CYLINDRICAL_SURFACE ( 'NONE', #117, 0.6595299461620726111 ) ;
#119 = DIRECTION ( 'NONE',  ( 3.491481338843133355E-15, -0.000000000000000000, 1.000000000000000000 ) ) ;
#120 = DIRECTION ( 'NONE',  ( 3.491481338843133355E-15, -0.000000000000000000, 1.000000000000000000 ) ) ;
#121 = PERSON_AND_ORGANIZATION ( #327, #51 ) ;
#122 = FACE_BOUND ( 'NONE', #332, .T. ) ;
#123 = DIRECTION ( 'NONE',  ( 1.000000000000000000, 0.000000000000000000, 0.000000000000000000 ) ) ;
#124 = SECURITY_CLASSIFICATION ( '', '', #64 ) ;
#125 = CARTESIAN_POINT ( 'NONE',  ( 7.855833012397154573E-16, 0.000000000000000000, 0.2250000000000029754 ) ) ;
#126 = APPROVAL ( #268, 'UNSPECIFIED' ) ;
#127 = APPROVAL_STATUS ( 'not_yet_approved' ) ;
#128 = DIRECTION ( 'NONE',  ( 3.491481338843133355E-15, -0.000000000000000000, 1.000000000000000000 ) ) ;
#129 = CARTESIAN_POINT ( 'NONE',  ( 0.000000000000000000, 0.000000000000000000, 0.000000000000000000 ) ) ;
#130 = CARTESIAN_POINT ( 'NONE',  ( 0.000000000000000000, 0.000000000000000000, 0.000000000000000000 ) ) ;
#131 = CIRCLE ( 'NONE', #164, 0.7750000000000001332 ) ;
#132 = ADVANCED_FACE ( 'NONE', ( #179, #373 ), #382, .T. ) ;
#133 = VERTEX_POINT ( 'NONE', #260 ) ;
#134 = EDGE_LOOP ( 'NONE', ( #172 ) ) ;
#135 = CIRCLE ( 'NONE', #195, 0.6162286759728513585 ) ;
#136 = CONICAL_SURFACE ( 'NONE', #196, 0.7750000000000001332, 1.047197551196607623 ) ;
#137 = EDGE_LOOP ( 'NONE', ( #78 ) ) ;
#138 = EDGE_LOOP ( 'NONE', ( #298 ) ) ;
#139 = ORIENTED_EDGE ( 'NONE', *, *, #304, .T. ) ;
#140 = AXIS2_PLACEMENT_3D ( 'NONE', #12, #100, #289 ) ;
#141 = AXIS2_PLACEMENT_3D ( 'NONE', #98, #99, #66 ) ;
#142 = ADVANCED_FACE ( 'NONE', ( #309, #31 ), #115, .T. ) ;
#143 = EDGE_LOOP ( 'NONE', ( #326 ) ) ;
#144 = CYLINDRICAL_SURFACE ( 'NONE', #50, 0.7750000000000001332 ) ;
#145 = FACE_OUTER_BOUND ( 'NONE', #301, .T. ) ;
#146 = CARTESIAN_POINT ( 'NONE',  ( 0.7750000000000011324, 0.000000000000000000, 0.3083333333333313497 ) ) ;
#147 = PLANE ( 'NONE',  #106 ) ;
#148 = VERTEX_POINT ( 'NONE', #278 ) ;
#149 = FACE_OUTER_BOUND ( 'NONE', #236, .T. ) ;
#150 = CARTESIAN_POINT ( 'NONE',  ( 1.076540079476635283E-15, 0.000000000000000000, 0.3083333333333340698 ) ) ;
#151 = DIRECTION ( 'NONE',  ( 3.491481338843133355E-15, -0.000000000000000000, 1.000000000000000000 ) ) ;
#152 = PRODUCT_RELATED_PRODUCT_CATEGORY ( 'detail', '', ( #267 ) ) ;
#153 = DATE_AND_TIME ( #36, #27 ) ;
#154 = EDGE_CURVE ( 'NONE', #30, #30, #385, .T. ) ;
#155 = CIRCLE ( 'NONE', #263, 0.6490741737109292364 ) ;
#156 = CC_DESIGN_SECURITY_CLASSIFICATION ( #124, ( #351 ) ) ;
#157 = PERSON_AND_ORGANIZATION_ROLE ( 'classification_officer' ) ;
#158 = DIRECTION ( 'NONE',  ( 3.491481338843133355E-15, -0.000000000000000000, 1.000000000000000000 ) ) ;
#159 = DATE_TIME_ROLE ( 'creation_date' ) ;
#160 = DIRECTION ( 'NONE',  ( 3.491481338843133355E-15, -0.000000000000000000, 1.000000000000000000 ) ) ;
#161 = CARTESIAN_POINT ( 'NONE',  ( 0.7750000000000003553, 0.000000000000000000, 0.1083333333333325738 ) ) ;
#162 = VERTEX_POINT ( 'NONE', #70 ) ;
#163 = DIRECTION ( 'NONE',  ( 1.000000000000000000, 0.000000000000000000, -3.497426362856465318E-15 ) ) ;
#164 = AXIS2_PLACEMENT_3D ( 'NONE', #189, #380, #226 ) ;
#165 = APPROVAL_PERSON_ORGANIZATION ( #121, #290, #188 ) ;
#166 = DATE_AND_TIME ( #46, #299 ) ;
#167 = ORIENTED_EDGE ( 'NONE', *, *, #340, .F. ) ;
#168 = PERSON_AND_ORGANIZATION_ROLE ( 'design_supplier' ) ;
#169 = EDGE_LOOP ( 'NONE', ( #49 ) ) ;
#170 = EDGE_LOOP ( 'NONE', ( #108 ) ) ;
#171 = CC_DESIGN_DATE_AND_TIME_ASSIGNMENT ( #4, #159, ( #6 ) ) ;
#172 = ORIENTED_EDGE ( 'NONE', *, *, #191, .T. ) ;
#173 = ORIENTED_EDGE ( 'NONE', *, *, #58, .F. ) ;
#174 = CIRCLE ( 'NONE', #221, 1.199999999999999734 ) ;
#175 = EDGE_CURVE ( 'NONE', #104, #104, #210, .T. ) ;
#176 = FACE_BOUND ( 'NONE', #170, .T. ) ;
#177 = FACE_OUTER_BOUND ( 'NONE', #22, .T. ) ;
#178 = DIRECTION ( 'NONE',  ( 3.491481338843133355E-15, -0.000000000000000000, 1.000000000000000000 ) ) ;
#179 = FACE_BOUND ( 'NONE', #75, .T. ) ;
#180 = APPLICATION_CONTEXT ( 'configuration controlled 3d designs of mechanical parts and assemblies' ) ;
#181 = CLOSED_SHELL ( 'NONE', ( #84, #379, #102, #132, #85, #357, #109, #377, #105, #10, #329, #110, #18, #142, #81, #390 ) ) ;
#182 = DIRECTION ( 'NONE',  ( 1.000000000000000000, 0.000000000000000000, 0.000000000000000000 ) ) ;
#183 =( GEOMETRIC_REPRESENTATION_CONTEXT ( 3 ) GLOBAL_UNCERTAINTY_ASSIGNED_CONTEXT ( ( #238 ) ) GLOBAL_UNIT_ASSIGNED_CONTEXT ( ( #322, #193, #316 ) ) REPRESENTATION_CONTEXT ( 'NONE', 'WORKASPACE' ) );
#184 = VERTEX_POINT ( 'NONE', #280 ) ;
#185 = VERTEX_POINT ( 'NONE', #65 ) ;
#186 = DIRECTION ( 'NONE',  ( 1.000000000000000000, 0.000000000000000000, -3.469446951953614189E-15 ) ) ;
#187 = DIRECTION ( 'NONE',  ( 1.000000000000000000, 0.000000000000000000, -3.491481338843133355E-15 ) ) ;
#188 = APPROVAL_ROLE ( '' ) ;
#189 = CARTESIAN_POINT ( 'NONE',  ( 1.018348723829256169E-15, 0.000000000000000000, 0.2916666666666692387 ) ) ;
#190 = EDGE_CURVE ( 'NONE', #232, #232, #367, .T. ) ;
#191 = EDGE_CURVE ( 'NONE', #133, #133, #275, .T. ) ;
#192 = PERSON_AND_ORGANIZATION ( #327, #51 ) ;
#193 =( NAMED_UNIT ( * ) PLANE_ANGLE_UNIT ( ) SI_UNIT ( $, .RADIAN. ) );
#194 = CARTESIAN_POINT ( 'NONE',  ( 3.200524560606095299E-16, 0.000000000000000000, 0.09166666666666350993 ) ) ;
#195 = AXIS2_PLACEMENT_3D ( 'NONE', #130, #128, #9 ) ;
#196 = AXIS2_PLACEMENT_3D ( 'NONE', #150, #103, #34 ) ;
#197 = CALENDAR_DATE ( 2023, 27, 9 ) ;
#198 = FACE_OUTER_BOUND ( 'NONE', #208, .T. ) ;
#199 = DIRECTION ( 'NONE',  ( 3.491481338843133355E-15, -0.000000000000000000, 1.000000000000000000 ) ) ;
#200 = CIRCLE ( 'NONE', #101, 0.6595299461620721670 ) ;
#201 = APPROVAL_ROLE ( '' ) ;
#202 = EDGE_LOOP ( 'NONE', ( #389 ) ) ;
#203 = DATE_AND_TIME ( #207, #74 ) ;
#204 = ORIENTED_EDGE ( 'NONE', *, *, #359, .F. ) ;
#205 = COORDINATED_UNIVERSAL_TIME_OFFSET ( 1, 0, .AHEAD. ) ;
#206 = ORIENTED_EDGE ( 'NONE', *, *, #297, .T. ) ;
#207 = CALENDAR_DATE ( 2023, 27, 9 ) ;
#208 = EDGE_LOOP ( 'NONE', ( #363 ) ) ;
#209 = DIRECTION ( 'NONE',  ( -3.491481338843133355E-15, 0.000000000000000000, -1.000000000000000000 ) ) ;
#210 = CIRCLE ( 'NONE', #303, 0.7750000000000001332 ) ;
#211 = AXIS2_PLACEMENT_3D ( 'NONE', #129, #375, #342 ) ;
#212 = EDGE_CURVE ( 'NONE', #184, #184, #174, .T. ) ;
#213 = CARTESIAN_POINT ( 'NONE',  ( 1.326762908760390423E-13, 0.000000000000000000, 38.00000000000000000 ) ) ;
#214 = CC_DESIGN_PERSON_AND_ORGANIZATION_ASSIGNMENT ( #192, #157, ( #124 ) ) ;
#215 = FACE_OUTER_BOUND ( 'NONE', #137, .T. ) ;
#216 = EDGE_CURVE ( 'NONE', #148, #148, #38, .T. ) ;
#217 = DIRECTION ( 'NONE',  ( -1.000000000000000000, 0.000000000000000000, 3.491481338843133355E-15 ) ) ;
#218 = PERSON_AND_ORGANIZATION_ROLE ( 'design_owner' ) ;
#219 = CIRCLE ( 'NONE', #44, 0.6150000000000001021 ) ;
#220 = DIRECTION ( 'NONE',  ( 3.491481338843133355E-15, -0.000000000000000000, 1.000000000000000000 ) ) ;
#221 = AXIS2_PLACEMENT_3D ( 'NONE', #37, #282, #42 ) ;
#222 = DIRECTION ( 'NONE',  ( -1.000000000000000000, 0.000000000000000000, 3.497426362856465318E-15 ) ) ;
#223 = CC_DESIGN_APPROVAL ( #86, ( #6 ) ) ;
#224 = CARTESIAN_POINT ( 'NONE',  ( 1.431507348925684360E-14, 0.000000000000000000, 4.099999999999999645 ) ) ;
#225 = PERSON_AND_ORGANIZATION_ROLE ( 'creator' ) ;
#226 = DIRECTION ( 'NONE',  ( 1.000000000000000000, 0.000000000000000000, -3.497426362856465318E-15 ) ) ;
#227 = CARTESIAN_POINT ( 'NONE',  ( 1.500000000000026201, 0.000000000000000000, 7.534517462285934108 ) ) ;
#228 = CARTESIAN_POINT ( 'NONE',  ( 1.309305502066176192E-15, 0.000000000000000000, 0.3750000000000003331 ) ) ;
#229 = CIRCLE ( 'NONE', #331, 0.7750000000000001332 ) ;
#230 = COORDINATED_UNIVERSAL_TIME_OFFSET ( 1, 0, .AHEAD. ) ;
#231 = DIRECTION ( 'NONE',  ( 3.491481338843133355E-15, -0.000000000000000000, 1.000000000000000000 ) ) ;
#232 = VERTEX_POINT ( 'NONE', #47 ) ;
#233 = AXIS2_PLACEMENT_3D ( 'NONE', #95, #209, #222 ) ;
#234 = CC_DESIGN_APPROVAL ( #290, ( #351 ) ) ;
#235 = EDGE_LOOP ( 'NONE', ( #241 ) ) ;
#236 = EDGE_LOOP ( 'NONE', ( #243 ) ) ;
#237 = DIRECTION ( 'NONE',  ( 1.000000000000000000, 0.000000000000000000, -3.497426362856465318E-15 ) ) ;
#238 = UNCERTAINTY_MEASURE_WITH_UNIT (LENGTH_MEASURE( 1.000000000000000082E-05 ), #322, 'distance_accuracy_value', 'NONE');
#239 = EDGE_LOOP ( 'NONE', ( #206 ) ) ;
#240 = AXIS2_PLACEMENT_3D ( 'NONE', #337, #2, #182 ) ;
#241 = ORIENTED_EDGE ( 'NONE', *, *, #212, .T. ) ;
#242 = CC_DESIGN_PERSON_AND_ORGANIZATION_ASSIGNMENT ( #255, #218, ( #267 ) ) ;
#243 = ORIENTED_EDGE ( 'NONE', *, *, #261, .F. ) ;
#244 = FACE_OUTER_BOUND ( 'NONE', #26, .T. ) ;
#245 = AXIS2_PLACEMENT_3D ( 'NONE', #125, #199, #256 ) ;
#246 = DIRECTION ( 'NONE',  ( -1.000000000000000000, 0.000000000000000000, 4.625929269271498733E-15 ) ) ;
#247 = CARTESIAN_POINT ( 'NONE',  ( 1.316288464743861212E-13, 0.000000000000000000, 37.69999999999999574 ) ) ;
#248 = CARTESIAN_POINT ( 'NONE',  ( 3.782438117080129010E-16, 0.000000000000000000, 0.1083333333333352799 ) ) ;
#249 = CARTESIAN_POINT ( 'NONE',  ( 1.521873535536946627E-14, 0.000000000000000000, 4.358819045102511502 ) ) ;
#250 = VERTEX_POINT ( 'NONE', #3 ) ;
#251 = CARTESIAN_POINT ( 'NONE',  ( 1.316288464743861212E-13, 0.000000000000000000, 37.69999999999999574 ) ) ;
#252 = MECHANICAL_CONTEXT ( 'NONE', #180, 'mechanical' ) ;
#253 = FACE_OUTER_BOUND ( 'NONE', #262, .T. ) ;
#254 = CARTESIAN_POINT ( 'NONE',  ( 0.6595299461620742765, 0.000000000000000000, 0.3749999999999980571 ) ) ;
#255 = PERSON_AND_ORGANIZATION ( #327, #51 ) ;
#256 = DIRECTION ( 'NONE',  ( 1.000000000000000000, 0.000000000000000000, -3.493290380427288030E-15 ) ) ;
#257 = CC_DESIGN_DATE_AND_TIME_ASSIGNMENT ( #203, #53, ( #124 ) ) ;
#258 = AXIS2_PLACEMENT_3D ( 'NONE', #339, #334, #59 ) ;
#259 = APPLICATION_PROTOCOL_DEFINITION ( 'international standard', 'config_control_design', 1994, #180 ) ;
#260 = CARTESIAN_POINT ( 'NONE',  ( 0.6595299461620736103, 0.000000000000000000, 0.3999999999999953038 ) ) ;
#261 = EDGE_CURVE ( 'NONE', #250, #250, #135, .T. ) ;
#262 = EDGE_LOOP ( 'NONE', ( #358 ) ) ;
#263 = AXIS2_PLACEMENT_3D ( 'NONE', #249, #119, #395 ) ;
#264 = EDGE_LOOP ( 'NONE', ( #21 ) ) ;
#265 = CC_DESIGN_PERSON_AND_ORGANIZATION_ASSIGNMENT ( #348, #285, ( #6 ) ) ;
#266 = ORIENTED_EDGE ( 'NONE', *, *, #359, .T. ) ;
#267 = PRODUCT ( '961130', '961130', '', ( #252 ) ) ;
#268 = APPROVAL_STATUS ( 'not_yet_approved' ) ;
#269 = ORIENTED_EDGE ( 'NONE', *, *, #261, .T. ) ;
#270 = CONICAL_SURFACE ( 'NONE', #325, 0.6595299461620730552, 1.047197551196607623 ) ;
#271 = EDGE_LOOP ( 'NONE', ( #167 ) ) ;
#272 = DIRECTION ( 'NONE',  ( 1.000000000000000000, 0.000000000000000000, 0.000000000000000000 ) ) ;
#273 = CARTESIAN_POINT ( 'NONE',  ( 1.076540079476635283E-15, 0.000000000000000000, 0.3083333333333340698 ) ) ;
#274 = DIRECTION ( 'NONE',  ( -3.491481338843133355E-15, 0.000000000000000000, -1.000000000000000000 ) ) ;
#275 = CIRCLE ( 'NONE', #140, 0.6595299461620721670 ) ;
#276 = AXIS2_PLACEMENT_3D ( 'NONE', #308, #368, #365 ) ;
#277 = DIRECTION ( 'NONE',  ( -3.491481338843133355E-15, 0.000000000000000000, -1.000000000000000000 ) ) ;
#278 = CARTESIAN_POINT ( 'NONE',  ( 1.500000000000127232, 0.000000000000000000, 37.69999999999998863 ) ) ;
#279 = FACE_OUTER_BOUND ( 'NONE', #360, .T. ) ;
#280 = CARTESIAN_POINT ( 'NONE',  ( 1.200000000000132294, 0.000000000000000000, 37.99999999999999289 ) ) ;
#281 = APPROVAL_ROLE ( '' ) ;
#282 = DIRECTION ( 'NONE',  ( 3.491481338843133355E-15, -0.000000000000000000, 1.000000000000000000 ) ) ;
#283 = DIRECTION ( 'NONE',  ( 1.000000000000000000, 0.000000000000000000, 0.000000000000000000 ) ) ;
#284 = CARTESIAN_POINT ( 'NONE',  ( 0.6595299461620737214, 0.000000000000000000, 0.2250000000000006717 ) ) ;
#285 = PERSON_AND_ORGANIZATION_ROLE ( 'creator' ) ;
#286 = DIRECTION ( 'NONE',  ( 1.000000000000000000, 0.000000000000000000, -2.820688578824078128E-15 ) ) ;
#287 = CARTESIAN_POINT ( 'NONE',  ( 1.396592535537244862E-15, 0.000000000000000000, 0.3999999999999975797 ) ) ;
#288 = VERTEX_POINT ( 'NONE', #354 ) ;
#289 = DIRECTION ( 'NONE',  ( 1.000000000000000000, 0.000000000000000000, -3.452192846539912570E-15 ) ) ;
#290 = APPROVAL ( #13, 'UNSPECIFIED' ) ;
#291 = AXIS2_PLACEMENT_3D ( 'NONE', #247, #274, #246 ) ;
#292 = EDGE_CURVE ( 'NONE', #288, #288, #200, .T. ) ;
#293 = APPROVAL_DATE_TIME ( #166, #126 ) ;
#294 = EDGE_CURVE ( 'NONE', #90, #90, #20, .T. ) ;
#295 = ORIENTED_EDGE ( 'NONE', *, *, #294, .T. ) ;
#296 = FACE_OUTER_BOUND ( 'NONE', #235, .T. ) ;
#297 = EDGE_CURVE ( 'NONE', #162, #162, #131, .T. ) ;
#298 = ORIENTED_EDGE ( 'NONE', *, *, #175, .F. ) ;
#299 = LOCAL_TIME ( 10, 29, 57.00000000000000000, #355 ) ;
#300 = ORIENTED_EDGE ( 'NONE', *, *, #58, .T. ) ;
#301 = EDGE_LOOP ( 'NONE', ( #107 ) ) ;
#302 = CARTESIAN_POINT ( 'NONE',  ( 1.326762908760390423E-13, 0.000000000000000000, 38.00000000000000000 ) ) ;
#303 = AXIS2_PLACEMENT_3D ( 'NONE', #248, #160, #15 ) ;
#304 = EDGE_CURVE ( 'NONE', #313, #313, #60, .T. ) ;
#305 = DIRECTION ( 'NONE',  ( 3.491481338843133355E-15, -0.000000000000000000, 1.000000000000000000 ) ) ;
#306 = PLANE ( 'NONE',  #276 ) ;
#307 = DIRECTION ( 'NONE',  ( 1.000000000000000000, 0.000000000000000000, -4.625929269271492422E-15 ) ) ;
#308 = CARTESIAN_POINT ( 'NONE',  ( 1.326762908760390423E-13, 1.199999999999999734, 38.00000000000000000 ) ) ;
#309 = FACE_OUTER_BOUND ( 'NONE', #24, .T. ) ;
#310 = TOROIDAL_SURFACE ( 'NONE', #258, 1.614999999999999769, 1.000000000000000666 ) ;
#311 = LOCAL_TIME ( 10, 29, 57.00000000000000000, #68 ) ;
#312 = FACE_OUTER_BOUND ( 'NONE', #169, .T. ) ;
#313 = VERTEX_POINT ( 'NONE', #254 ) ;
#314 = FACE_BOUND ( 'NONE', #55, .T. ) ;
#315 = FACE_OUTER_BOUND ( 'NONE', #202, .T. ) ;
#316 =( NAMED_UNIT ( * ) SI_UNIT ( $, .STERADIAN. ) SOLID_ANGLE_UNIT ( ) );
#317 = FACE_OUTER_BOUND ( 'NONE', #48, .T. ) ;
#318 = AXIS2_PLACEMENT_3D ( 'NONE', #251, #231, #353 ) ;
#319 = DIRECTION ( 'NONE',  ( 3.491481338843133355E-15, -0.000000000000000000, 1.000000000000000000 ) ) ;
#320 = APPROVAL_DATE_TIME ( #381, #86 ) ;
#321 = DIRECTION ( 'NONE',  ( 1.000000000000000000, 0.000000000000000000, -3.493290380427292763E-15 ) ) ;
#322 =( LENGTH_UNIT ( ) NAMED_UNIT ( * ) SI_UNIT ( .MILLI., .METRE. ) );
#323 = DIRECTION ( 'NONE',  ( 3.491481338843133355E-15, -0.000000000000000000, 1.000000000000000000 ) ) ;
#324 = PRODUCT_DEFINITION_SHAPE ( 'NONE', 'NONE',  #6 ) ;
#325 = AXIS2_PLACEMENT_3D ( 'NONE', #376, #220, #63 ) ;
#326 = ORIENTED_EDGE ( 'NONE', *, *, #216, .T. ) ;
#327 = PERSON ( 'UNSPECIFIED', 'UNSPECIFIED', 'UNSPECIFIED', ('UNSPECIFIED'), ('UNSPECIFIED'), ('UNSPECIFIED') ) ;
#328 = EDGE_LOOP ( 'NONE', ( #295 ) ) ;
#329 = ADVANCED_FACE ( 'NONE', ( #317, #253 ), #350, .T. ) ;
#330 = ORIENTED_EDGE ( 'NONE', *, *, #384, .F. ) ;
#331 = AXIS2_PLACEMENT_3D ( 'NONE', #194, #319, #237 ) ;
#332 = EDGE_LOOP ( 'NONE', ( #269 ) ) ;
#333 = FACE_BOUND ( 'NONE', #271, .T. ) ;
#334 = DIRECTION ( 'NONE',  ( 3.491481338843133355E-15, -0.000000000000000000, 1.000000000000000000 ) ) ;
#335 = AXIS2_PLACEMENT_3D ( 'NONE', #366, #305, #116 ) ;
#336 = APPROVAL_PERSON_ORGANIZATION ( #23, #126, #201 ) ;
#337 = CARTESIAN_POINT ( 'NONE',  ( 1.326762908760390423E-13, 0.000000000000000000, 38.00000000000000000 ) ) ;
#338 = CARTESIAN_POINT ( 'NONE',  ( 0.6490741737109444465, 0.000000000000000000, 4.358819045102509726 ) ) ;
#339 = CARTESIAN_POINT ( 'NONE',  ( 1.431507348925684360E-14, 0.000000000000000000, 4.099999999999999645 ) ) ;
#340 = EDGE_CURVE ( 'NONE', #97, #97, #219, .T. ) ;
#341 = AXIS2_PLACEMENT_3D ( 'NONE', #347, #158, #372 ) ;
#342 = DIRECTION ( 'NONE',  ( 1.000000000000000000, 0.000000000000000000, 0.000000000000000000 ) ) ;
#343 = DIRECTION ( 'NONE',  ( 3.491481338843133355E-15, -0.000000000000000000, 1.000000000000000000 ) ) ;
#344 = FACE_OUTER_BOUND ( 'NONE', #134, .T. ) ;
#345 = VERTEX_POINT ( 'NONE', #227 ) ;
#346 = DIRECTION ( 'NONE',  ( 1.000000000000000000, 0.000000000000000000, -3.452192846539908231E-15 ) ) ;
#347 = CARTESIAN_POINT ( 'NONE',  ( 1.326762908760390423E-13, 0.000000000000000000, 38.00000000000000000 ) ) ;
#348 = PERSON_AND_ORGANIZATION ( #327, #51 ) ;
#349 = CIRCLE ( 'NONE', #374, 1.500000000000000000 ) ;
#350 = CYLINDRICAL_SURFACE ( 'NONE', #341, 0.6149999999999998801 ) ;
#351 = PRODUCT_DEFINITION_FORMATION_WITH_SPECIFIED_SOURCE ( 'ANY', '', #267, .NOT_KNOWN. ) ;
#352 = APPROVAL_DATE_TIME ( #153, #290 ) ;
#353 = DIRECTION ( 'NONE',  ( 1.000000000000000000, 0.000000000000000000, -4.625929269271498733E-15 ) ) ;
#354 = CARTESIAN_POINT ( 'NONE',  ( 0.6595299461620728332, 0.000000000000000000, 0.1749999999999992395 ) ) ;
#355 = COORDINATED_UNIVERSAL_TIME_OFFSET ( 1, 0, .AHEAD. ) ;
#356 = CONICAL_SURFACE ( 'NONE', #141, 0.6162286759728513585, 1.047197551196616949 ) ;
#357 = ADVANCED_FACE ( 'NONE', ( #93, #378 ), #270, .T. ) ;
#358 = ORIENTED_EDGE ( 'NONE', *, *, #340, .T. ) ;
#359 = EDGE_CURVE ( 'NONE', #345, #345, #349, .T. ) ;
#360 = EDGE_LOOP ( 'NONE', ( #114 ) ) ;
#361 = ADVANCED_BREP_SHAPE_REPRESENTATION ( '961130', ( #72, #211 ), #183 ) ;
#362 = ORIENTED_EDGE ( 'NONE', *, *, #304, .F. ) ;
#363 = ORIENTED_EDGE ( 'NONE', *, *, #154, .T. ) ;
#364 = CARTESIAN_POINT ( 'NONE',  ( 1.326762908760390423E-13, 0.000000000000000000, 38.00000000000000000 ) ) ;
#365 = DIRECTION ( 'NONE',  ( -1.000000000000000000, 0.000000000000000000, 3.491481338843133355E-15 ) ) ;
#366 = CARTESIAN_POINT ( 'NONE',  ( 1.521873535536946627E-14, 0.000000000000000000, 4.358819045102511502 ) ) ;
#367 = CIRCLE ( 'NONE', #32, 0.6149999999999996581 ) ;
#368 = DIRECTION ( 'NONE',  ( -3.491481338843133355E-15, 0.000000000000000000, -1.000000000000000000 ) ) ;
#369 = CYLINDRICAL_SURFACE ( 'NONE', #73, 0.7750000000000001332 ) ;
#370 = CC_DESIGN_PERSON_AND_ORGANIZATION_ASSIGNMENT ( #76, #168, ( #351 ) ) ;
#371 = FACE_OUTER_BOUND ( 'NONE', #239, .T. ) ;
#372 = DIRECTION ( 'NONE',  ( 1.000000000000000000, 0.000000000000000000, 0.000000000000000000 ) ) ;
#373 = FACE_OUTER_BOUND ( 'NONE', #264, .T. ) ;
#374 = AXIS2_PLACEMENT_3D ( 'NONE', #69, #343, #186 ) ;
#375 = DIRECTION ( 'NONE',  ( 0.000000000000000000, 0.000000000000000000, 1.000000000000000000 ) ) ;
#376 = CARTESIAN_POINT ( 'NONE',  ( 7.855833012397154573E-16, 0.000000000000000000, 0.2250000000000029754 ) ) ;
#377 = ADVANCED_FACE ( 'NONE', ( #314, #198 ), #136, .T. ) ;
#378 = FACE_BOUND ( 'NONE', #328, .T. ) ;
#379 = ADVANCED_FACE ( 'NONE', ( #5, #122 ), #356, .T. ) ;
#380 = DIRECTION ( 'NONE',  ( 3.491481338843133355E-15, -0.000000000000000000, 1.000000000000000000 ) ) ;
#381 = DATE_AND_TIME ( #39, #96 ) ;
#382 = CONICAL_SURFACE ( 'NONE', #233, 0.7750000000000001332, 1.047197551196610732 ) ;
#383 = DIRECTION ( 'NONE',  ( 3.491481338843133355E-15, -0.000000000000000000, 1.000000000000000000 ) ) ;
#384 = EDGE_CURVE ( 'NONE', #185, #185, #229, .T. ) ;
#385 = CIRCLE ( 'NONE', #25, 0.7750000000000001332 ) ;
#386 = EDGE_LOOP ( 'NONE', ( #330 ) ) ;
#387 = CC_DESIGN_PERSON_AND_ORGANIZATION_ASSIGNMENT ( #8, #225, ( #351 ) ) ;
#388 = EDGE_LOOP ( 'NONE', ( #300 ) ) ;
#389 = ORIENTED_EDGE ( 'NONE', *, *, #292, .T. ) ;
#390 = ADVANCED_FACE ( 'NONE', ( #296 ), #306, .F. ) ;
#391 = ORIENTED_EDGE ( 'NONE', *, *, #292, .F. ) ;
#392 = CONICAL_SURFACE ( 'NONE', #291, 1.499999999999995781, 0.7853981633974389531 ) ;
#393 = ORIENTED_EDGE ( 'NONE', *, *, #216, .F. ) ;
#394 = CARTESIAN_POINT ( 'NONE',  ( 1.396592535537254723E-15, 0.6595299461620721670, 0.4000000000000004108 ) ) ;
#395 = DIRECTION ( 'NONE',  ( 1.000000000000000000, 0.000000000000000000, -4.008918116535741014E-15 ) ) ;
ENDSEC;
END-ISO-10303-21;
