ISO-10303-21;
HEADER;
FILE_DESCRIPTION (( 'STEP AP203' ),
    '1' );
FILE_NAME ('961128.step',
    '2023-09-27T05:49:13',
    ( '' ),
    ( '' ),
    'SwSTEP 2.0',
    'SolidWorks 2022',
    '' );
FILE_SCHEMA (( 'CONFIG_CONTROL_DESIGN' ));
ENDSEC;

DATA;
#1 = LOCAL_TIME ( 7, 49, 13.00000000000000000, #36 ) ;
#2 = AXIS2_PLACEMENT_3D ( 'NONE', #288, #320, #356 ) ;
#3 = DIRECTION ( 'NONE',  ( 3.491481338843133355E-15, -0.000000000000000000, 1.000000000000000000 ) ) ;
#4 = CARTESIAN_POINT ( 'NONE',  ( 1.431507348925684360E-14, 0.000000000000000000, 4.099999999999999645 ) ) ;
#5 = AXIS2_PLACEMENT_3D ( 'NONE', #137, #388, #265 ) ;
#6 = AXIS2_PLACEMENT_3D ( 'NONE', #47, #393, #54 ) ;
#7 = ADVANCED_FACE ( 'NONE', ( #260, #134 ), #106, .T. ) ;
#8 = APPROVAL_DATE_TIME ( #34, #336 ) ;
#9 = DIRECTION ( 'NONE',  ( 3.491481338843133355E-15, -0.000000000000000000, 1.000000000000000000 ) ) ;
#10 = ORIENTED_EDGE ( 'NONE', *, *, #355, .F. ) ;
#11 = CARTESIAN_POINT ( 'NONE',  ( 0.6150000000000014344, 0.000000000000000000, 0.3999999999999954148 ) ) ;
#12 = APPROVAL_PERSON_ORGANIZATION ( #97, #336, #66 ) ;
#13 = ORIENTED_EDGE ( 'NONE', *, *, #107, .T. ) ;
#14 = EDGE_LOOP ( 'NONE', ( #379 ) ) ;
#15 = ORIENTED_EDGE ( 'NONE', *, *, #76, .F. ) ;
#16 = CARTESIAN_POINT ( 'NONE',  ( 1.396592535537244862E-15, 0.000000000000000000, 0.3999999999999975797 ) ) ;
#17 =( GEOMETRIC_REPRESENTATION_CONTEXT ( 3 ) GLOBAL_UNCERTAINTY_ASSIGNED_CONTEXT ( ( #199 ) ) GLOBAL_UNIT_ASSIGNED_CONTEXT ( ( #285, #350, #258 ) ) REPRESENTATION_CONTEXT ( 'NONE', 'WORKASPACE' ) );
#18 = EDGE_LOOP ( 'NONE', ( #220 ) ) ;
#19 = FACE_BOUND ( 'NONE', #37, .T. ) ;
#20 = PRODUCT_RELATED_PRODUCT_CATEGORY ( 'detail', '', ( #335 ) ) ;
#21 = FACE_OUTER_BOUND ( 'NONE', #74, .T. ) ;
#22 = CARTESIAN_POINT ( 'NONE',  ( 3.200524560606095299E-16, 0.000000000000000000, 0.09166666666666350993 ) ) ;
#23 = CIRCLE ( 'NONE', #154, 0.7749999999999999112 ) ;
#24 = CYLINDRICAL_SURFACE ( 'NONE', #247, 0.6595299461620741654 ) ;
#25 = ADVANCED_FACE ( 'NONE', ( #80, #118 ), #48, .F. ) ;
#26 = FACE_BOUND ( 'NONE', #167, .T. ) ;
#27 = PERSON_AND_ORGANIZATION ( #65, #239 ) ;
#28 = DIRECTION ( 'NONE',  ( 3.491481338843133355E-15, -0.000000000000000000, 1.000000000000000000 ) ) ;
#29 = CIRCLE ( 'NONE', #353, 0.7749999999999999112 ) ;
#30 = DIRECTION ( 'NONE',  ( 3.491481338843133355E-15, -0.000000000000000000, 1.000000000000000000 ) ) ;
#31 = ADVANCED_FACE ( 'NONE', ( #241, #190 ), #321, .T. ) ;
#32 = CARTESIAN_POINT ( 'NONE',  ( 1.200000000000132294, 0.000000000000000000, 37.99999999999999289 ) ) ;
#33 = EDGE_CURVE ( 'NONE', #308, #308, #343, .T. ) ;
#34 = DATE_AND_TIME ( #101, #1 ) ;
#35 = DIRECTION ( 'NONE',  ( 3.491481338843133355E-15, -0.000000000000000000, 1.000000000000000000 ) ) ;
#36 = COORDINATED_UNIVERSAL_TIME_OFFSET ( 1, 0, .AHEAD. ) ;
#37 = EDGE_LOOP ( 'NONE', ( #15 ) ) ;
#38 = ORIENTED_EDGE ( 'NONE', *, *, #107, .F. ) ;
#39 = ORIENTED_EDGE ( 'NONE', *, *, #390, .T. ) ;
#40 = APPLICATION_PROTOCOL_DEFINITION ( 'international standard', 'config_control_design', 1994, #163 ) ;
#41 = DIRECTION ( 'NONE',  ( 3.491481338843133355E-15, -0.000000000000000000, 1.000000000000000000 ) ) ;
#42 = EDGE_LOOP ( 'NONE', ( #253 ) ) ;
#43 = DIRECTION ( 'NONE',  ( 3.491481338843133355E-15, -0.000000000000000000, 1.000000000000000000 ) ) ;
#44 = ADVANCED_FACE ( 'NONE', ( #251, #347 ), #372, .T. ) ;
#45 = EDGE_LOOP ( 'NONE', ( #77 ) ) ;
#46 = AXIS2_PLACEMENT_3D ( 'NONE', #357, #83, #142 ) ;
#47 = CARTESIAN_POINT ( 'NONE',  ( 1.326762908760390423E-13, 1.199999999999999734, 38.00000000000000000 ) ) ;
#48 = PLANE ( 'NONE',  #194 ) ;
#49 = PLANE ( 'NONE',  #6 ) ;
#50 = CC_DESIGN_PERSON_AND_ORGANIZATION_ASSIGNMENT ( #376, #219, ( #232 ) ) ;
#51 = FACE_BOUND ( 'NONE', #67, .T. ) ;
#52 = AXIS2_PLACEMENT_3D ( 'NONE', #138, #234, #111 ) ;
#53 = AXIS2_PLACEMENT_3D ( 'NONE', #294, #43, #112 ) ;
#54 = DIRECTION ( 'NONE',  ( -1.000000000000000000, 0.000000000000000000, 3.491481338843133355E-15 ) ) ;
#55 = CARTESIAN_POINT ( 'NONE',  ( 6.110092342975536620E-16, 0.000000000000000000, 0.1750000000000015432 ) ) ;
#56 = LOCAL_TIME ( 7, 49, 13.00000000000000000, #240 ) ;
#57 = CALENDAR_DATE ( 2023, 27, 9 ) ;
#58 = FACE_OUTER_BOUND ( 'NONE', #165, .T. ) ;
#59 = DIRECTION ( 'NONE',  ( -1.000000000000000000, 0.000000000000000000, 3.491481338843133355E-15 ) ) ;
#60 = PERSON_AND_ORGANIZATION_ROLE ( 'design_supplier' ) ;
#61 = EDGE_CURVE ( 'NONE', #147, #147, #269, .T. ) ;
#62 = PERSON_AND_ORGANIZATION ( #65, #239 ) ;
#63 = CONICAL_SURFACE ( 'NONE', #135, 1.499999999999995781, 0.7853981633974389531 ) ;
#64 = DIRECTION ( 'NONE',  ( 1.000000000000000000, 0.000000000000000000, -3.469446951953614189E-15 ) ) ;
#65 = PERSON ( 'UNSPECIFIED', 'UNSPECIFIED', 'UNSPECIFIED', ('UNSPECIFIED'), ('UNSPECIFIED'), ('UNSPECIFIED') ) ;
#66 = APPROVAL_ROLE ( '' ) ;
#67 = EDGE_LOOP ( 'NONE', ( #217 ) ) ;
#68 = CARTESIAN_POINT ( 'NONE',  ( 0.6595299461620754977, 0.000000000000000000, 0.3749999999999980571 ) ) ;
#69 = VERTEX_POINT ( 'NONE', #196 ) ;
#70 = ORIENTED_EDGE ( 'NONE', *, *, #394, .T. ) ;
#71 = CIRCLE ( 'NONE', #311, 1.500000000000000000 ) ;
#72 = AXIS2_PLACEMENT_3D ( 'NONE', #82, #205, #271 ) ;
#73 = ORIENTED_EDGE ( 'NONE', *, *, #264, .F. ) ;
#74 = EDGE_LOOP ( 'NONE', ( #284 ) ) ;
#75 = DIRECTION ( 'NONE',  ( 1.000000000000000000, 0.000000000000000000, -3.493290380427282113E-15 ) ) ;
#76 = EDGE_CURVE ( 'NONE', #275, #275, #117, .T. ) ;
#77 = ORIENTED_EDGE ( 'NONE', *, *, #145, .F. ) ;
#78 = CARTESIAN_POINT ( 'NONE',  ( 1.431507348925684360E-14, 0.000000000000000000, 4.099999999999999645 ) ) ;
#79 = CIRCLE ( 'NONE', #192, 0.6595299461620741654 ) ;
#80 = FACE_BOUND ( 'NONE', #319, .T. ) ;
#81 = DIRECTION ( 'NONE',  ( 3.491481338843133355E-15, -0.000000000000000000, 1.000000000000000000 ) ) ;
#82 = CARTESIAN_POINT ( 'NONE',  ( 0.000000000000000000, 0.000000000000000000, 0.000000000000000000 ) ) ;
#83 = DIRECTION ( 'NONE',  ( 3.491481338843133355E-15, -0.000000000000000000, 1.000000000000000000 ) ) ;
#84 = DIRECTION ( 'NONE',  ( -3.491481338843133355E-15, 0.000000000000000000, -1.000000000000000000 ) ) ;
#85 = AXIS2_PLACEMENT_3D ( 'NONE', #113, #268, #75 ) ;
#86 = COORDINATED_UNIVERSAL_TIME_OFFSET ( 1, 0, .AHEAD. ) ;
#87 = DIRECTION ( 'NONE',  ( 3.491481338843133355E-15, -0.000000000000000000, 1.000000000000000000 ) ) ;
#88 = APPROVAL_STATUS ( 'not_yet_approved' ) ;
#89 = FACE_OUTER_BOUND ( 'NONE', #348, .T. ) ;
#90 = APPROVAL ( #88, 'UNSPECIFIED' ) ;
#91 = DIRECTION ( 'NONE',  ( 3.491481338843133355E-15, -0.000000000000000000, 1.000000000000000000 ) ) ;
#92 = CARTESIAN_POINT ( 'NONE',  ( 0.6595299461620749426, 0.000000000000000000, 0.2250000000000006717 ) ) ;
#93 = AXIS2_PLACEMENT_3D ( 'NONE', #204, #81, #266 ) ;
#94 = EDGE_CURVE ( 'NONE', #152, #152, #203, .T. ) ;
#95 = CARTESIAN_POINT ( 'NONE',  ( 1.396592535537244862E-15, 0.000000000000000000, 0.3999999999999975797 ) ) ;
#96 = PRODUCT_DEFINITION_FORMATION_WITH_SPECIFIED_SOURCE ( 'ANY', '', #335, .NOT_KNOWN. ) ;
#97 = PERSON_AND_ORGANIZATION ( #65, #239 ) ;
#98 = CLOSED_SHELL ( 'NONE', ( #177, #367, #279, #215, #206, #244, #286, #193, #31, #25, #7, #249, #44, #120, #185, #124 ) ) ;
#99 = ORIENTED_EDGE ( 'NONE', *, *, #291, .T. ) ;
#100 = DIRECTION ( 'NONE',  ( 1.000000000000000000, 0.000000000000000000, 0.000000000000000000 ) ) ;
#101 = CALENDAR_DATE ( 2023, 27, 9 ) ;
#102 = CC_DESIGN_PERSON_AND_ORGANIZATION_ASSIGNMENT ( #373, #122, ( #96 ) ) ;
#103 = EDGE_LOOP ( 'NONE', ( #39 ) ) ;
#104 = VERTEX_POINT ( 'NONE', #162 ) ;
#105 = EDGE_LOOP ( 'NONE', ( #322 ) ) ;
#106 = CYLINDRICAL_SURFACE ( 'NONE', #46, 0.6149999999999998801 ) ;
#107 = EDGE_CURVE ( 'NONE', #277, #277, #300, .T. ) ;
#108 = DATE_TIME_ROLE ( 'creation_date' ) ;
#109 = CARTESIAN_POINT ( 'NONE',  ( 7.855833012397154573E-16, 0.000000000000000000, 0.2250000000000029754 ) ) ;
#110 = ORIENTED_EDGE ( 'NONE', *, *, #390, .F. ) ;
#111 = DIRECTION ( 'NONE',  ( -1.000000000000000000, 0.000000000000000000, 3.497426362856466501E-15 ) ) ;
#112 = DIRECTION ( 'NONE',  ( 1.000000000000000000, 0.000000000000000000, -4.625929269271492422E-15 ) ) ;
#113 = CARTESIAN_POINT ( 'NONE',  ( 7.855833012397154573E-16, 0.000000000000000000, 0.2250000000000029754 ) ) ;
#114 = FACE_OUTER_BOUND ( 'NONE', #160, .T. ) ;
#115 = DATE_TIME_ROLE ( 'classification_date' ) ;
#116 = DIRECTION ( 'NONE',  ( 1.000000000000000000, 0.000000000000000000, 0.000000000000000000 ) ) ;
#117 = CIRCLE ( 'NONE', #93, 1.199999999999999734 ) ;
#118 = FACE_OUTER_BOUND ( 'NONE', #14, .T. ) ;
#119 = AXIS2_PLACEMENT_3D ( 'NONE', #156, #87, #144 ) ;
#120 = ADVANCED_FACE ( 'NONE', ( #262, #114 ), #296, .T. ) ;
#121 = CARTESIAN_POINT ( 'NONE',  ( 1.521873535536946627E-14, 0.000000000000000000, 4.358819045102511502 ) ) ;
#122 = PERSON_AND_ORGANIZATION_ROLE ( 'creator' ) ;
#123 = CYLINDRICAL_SURFACE ( 'NONE', #180, 0.7750000000000000222 ) ;
#124 = ADVANCED_FACE ( 'NONE', ( #386 ), #49, .F. ) ;
#125 = AXIS2_PLACEMENT_3D ( 'NONE', #22, #299, #326 ) ;
#126 = DIRECTION ( 'NONE',  ( 1.000000000000000000, 0.000000000000000000, -3.452192846539902314E-15 ) ) ;
#127 = EDGE_LOOP ( 'NONE', ( #259 ) ) ;
#128 = VERTEX_POINT ( 'NONE', #216 ) ;
#129 = AXIS2_PLACEMENT_3D ( 'NONE', #121, #35, #221 ) ;
#130 = ORIENTED_EDGE ( 'NONE', *, *, #394, .F. ) ;
#131 = CARTESIAN_POINT ( 'NONE',  ( 0.7750000000000007994, 0.000000000000000000, 0.2916666666666665186 ) ) ;
#132 = ORIENTED_EDGE ( 'NONE', *, *, #362, .F. ) ;
#133 = VERTEX_POINT ( 'NONE', #314 ) ;
#134 = FACE_OUTER_BOUND ( 'NONE', #195, .T. ) ;
#135 = AXIS2_PLACEMENT_3D ( 'NONE', #364, #84, #174 ) ;
#136 = ORIENTED_EDGE ( 'NONE', *, *, #317, .T. ) ;
#137 = CARTESIAN_POINT ( 'NONE',  ( 1.316288464743861212E-13, 0.000000000000000000, 37.69999999999999574 ) ) ;
#138 = CARTESIAN_POINT ( 'NONE',  ( 1.076540079476635283E-15, 0.000000000000000000, 0.3083333333333340698 ) ) ;
#139 = FACE_OUTER_BOUND ( 'NONE', #351, .T. ) ;
#140 = AXIS2_PLACEMENT_3D ( 'NONE', #141, #175, #329 ) ;
#141 = CARTESIAN_POINT ( 'NONE',  ( 3.782438117080129010E-16, 0.000000000000000000, 0.1083333333333352799 ) ) ;
#142 = DIRECTION ( 'NONE',  ( 1.000000000000000000, 0.000000000000000000, 0.000000000000000000 ) ) ;
#143 = SECURITY_CLASSIFICATION_LEVEL ( 'unclassified' ) ;
#144 = DIRECTION ( 'NONE',  ( 1.000000000000000000, 0.000000000000000000, -3.491481338843133750E-15 ) ) ;
#145 = EDGE_CURVE ( 'NONE', #371, #371, #280, .T. ) ;
#146 = APPROVAL_DATE_TIME ( #365, #90 ) ;
#147 = VERTEX_POINT ( 'NONE', #11 ) ;
#148 = AXIS2_PLACEMENT_3D ( 'NONE', #55, #338, #313 ) ;
#149 = AXIS2_PLACEMENT_3D ( 'NONE', #186, #9, #126 ) ;
#150 = DIRECTION ( 'NONE',  ( 3.491481338843133355E-15, -0.000000000000000000, 1.000000000000000000 ) ) ;
#151 = DIRECTION ( 'NONE',  ( -3.491481338843133355E-15, 0.000000000000000000, -1.000000000000000000 ) ) ;
#152 = VERTEX_POINT ( 'NONE', #273 ) ;
#153 = DIRECTION ( 'NONE',  ( 3.491481338843133355E-15, -0.000000000000000000, 1.000000000000000000 ) ) ;
#154 = AXIS2_PLACEMENT_3D ( 'NONE', #340, #28, #179 ) ;
#155 = DIRECTION ( 'NONE',  ( 3.491481338843133355E-15, -0.000000000000000000, 1.000000000000000000 ) ) ;
#156 = CARTESIAN_POINT ( 'NONE',  ( 0.000000000000000000, 0.000000000000000000, 0.000000000000000000 ) ) ;
#157 = CC_DESIGN_DATE_AND_TIME_ASSIGNMENT ( #369, #115, ( #283 ) ) ;
#158 = MANIFOLD_SOLID_BREP ( 'Corps-Déplacer/Copier1', #98 ) ;
#159 = COORDINATED_UNIVERSAL_TIME_OFFSET ( 1, 0, .AHEAD. ) ;
#160 = EDGE_LOOP ( 'NONE', ( #99 ) ) ;
#161 = LOCAL_TIME ( 7, 49, 13.00000000000000000, #86 ) ;
#162 = CARTESIAN_POINT ( 'NONE',  ( 0.7750000000000002442, 0.000000000000000000, 0.1083333333333325738 ) ) ;
#163 = APPLICATION_CONTEXT ( 'configuration controlled 3d designs of mechanical parts and assemblies' ) ;
#164 = EDGE_LOOP ( 'NONE', ( #384 ) ) ;
#165 = EDGE_LOOP ( 'NONE', ( #110 ) ) ;
#166 = CARTESIAN_POINT ( 'NONE',  ( 1.326762908760390423E-13, 0.000000000000000000, 38.00000000000000000 ) ) ;
#167 = EDGE_LOOP ( 'NONE', ( #200 ) ) ;
#168 = CC_DESIGN_APPROVAL ( #336, ( #232 ) ) ;
#169 = DIRECTION ( 'NONE',  ( 1.000000000000000000, 0.000000000000000000, -3.491481338843133355E-15 ) ) ;
#170 = AXIS2_PLACEMENT_3D ( 'NONE', #4, #305, #282 ) ;
#171 = ORIENTED_EDGE ( 'NONE', *, *, #94, .F. ) ;
#172 = CARTESIAN_POINT ( 'NONE',  ( -3.795263407882509449E-33, 0.000000000000000000, -1.087006642613198372E-18 ) ) ;
#173 = EDGE_CURVE ( 'NONE', #128, #128, #298, .T. ) ;
#174 = DIRECTION ( 'NONE',  ( -1.000000000000000000, 0.000000000000000000, 4.625929269271498733E-15 ) ) ;
#175 = DIRECTION ( 'NONE',  ( -3.491481338843133355E-15, 0.000000000000000000, -1.000000000000000000 ) ) ;
#176 = FACE_OUTER_BOUND ( 'NONE', #45, .T. ) ;
#177 = ADVANCED_FACE ( 'NONE', ( #202 ), #358, .F. ) ;
#178 = DIRECTION ( 'NONE',  ( 1.000000000000000000, 0.000000000000000000, -3.497426362856465713E-15 ) ) ;
#179 = DIRECTION ( 'NONE',  ( 1.000000000000000000, 0.000000000000000000, -3.497426362856466501E-15 ) ) ;
#180 = AXIS2_PLACEMENT_3D ( 'NONE', #370, #187, #116 ) ;
#181 = PERSON_AND_ORGANIZATION ( #65, #239 ) ;
#182 = DIRECTION ( 'NONE',  ( 1.000000000000000000, 0.000000000000000000, -3.497426362856466501E-15 ) ) ;
#183 = TOROIDAL_SURFACE ( 'NONE', #208, 1.614999999999999769, 1.000000000000000000 ) ;
#184 = APPROVAL_STATUS ( 'not_yet_approved' ) ;
#185 = ADVANCED_FACE ( 'NONE', ( #19, #392 ), #63, .T. ) ;
#186 = CARTESIAN_POINT ( 'NONE',  ( 1.309305502066176192E-15, 0.000000000000000000, 0.3750000000000003331 ) ) ;
#187 = DIRECTION ( 'NONE',  ( 3.491481338843133355E-15, -0.000000000000000000, 1.000000000000000000 ) ) ;
#188 = CALENDAR_DATE ( 2023, 27, 9 ) ;
#189 = EDGE_LOOP ( 'NONE', ( #223 ) ) ;
#190 = FACE_OUTER_BOUND ( 'NONE', #164, .T. ) ;
#191 = ORIENTED_EDGE ( 'NONE', *, *, #76, .T. ) ;
#192 = AXIS2_PLACEMENT_3D ( 'NONE', #16, #30, #213 ) ;
#193 = ADVANCED_FACE ( 'NONE', ( #51, #297 ), #261, .T. ) ;
#194 = AXIS2_PLACEMENT_3D ( 'NONE', #375, #151, #59 ) ;
#195 = EDGE_LOOP ( 'NONE', ( #289 ) ) ;
#196 = CARTESIAN_POINT ( 'NONE',  ( 0.6150000000000139799, 0.000000000000000000, 4.099999999999997868 ) ) ;
#197 = ORIENTED_EDGE ( 'NONE', *, *, #61, .F. ) ;
#198 = DIRECTION ( 'NONE',  ( 3.491481338843133355E-15, -0.000000000000000000, 1.000000000000000000 ) ) ;
#199 = UNCERTAINTY_MEASURE_WITH_UNIT (LENGTH_MEASURE( 1.000000000000000082E-05 ), #285, 'distance_accuracy_value', 'NONE');
#200 = ORIENTED_EDGE ( 'NONE', *, *, #94, .T. ) ;
#201 = CONICAL_SURFACE ( 'NONE', #140, 0.7750000000000000222, 1.047197551196602738 ) ;
#202 = FACE_OUTER_BOUND ( 'NONE', #359, .T. ) ;
#203 = CIRCLE ( 'NONE', #72, 0.6162286759728522467 ) ;
#204 = CARTESIAN_POINT ( 'NONE',  ( 1.326762908760390423E-13, 0.000000000000000000, 38.00000000000000000 ) ) ;
#205 = DIRECTION ( 'NONE',  ( 3.491481338843133355E-15, -0.000000000000000000, 1.000000000000000000 ) ) ;
#206 = ADVANCED_FACE ( 'NONE', ( #176, #21 ), #24, .T. ) ;
#207 = CARTESIAN_POINT ( 'NONE',  ( 1.326762908760390423E-13, 0.000000000000000000, 38.00000000000000000 ) ) ;
#208 = AXIS2_PLACEMENT_3D ( 'NONE', #78, #334, #301 ) ;
#209 = AXIS2_PLACEMENT_3D ( 'NONE', #109, #331, #236 ) ;
#210 = PERSON_AND_ORGANIZATION ( #65, #239 ) ;
#211 = FACE_OUTER_BOUND ( 'NONE', #18, .T. ) ;
#212 = CYLINDRICAL_SURFACE ( 'NONE', #293, 0.7749999999999999112 ) ;
#213 = DIRECTION ( 'NONE',  ( 1.000000000000000000, 0.000000000000000000, -3.452192846539902314E-15 ) ) ;
#214 = CC_DESIGN_SECURITY_CLASSIFICATION ( #283, ( #96 ) ) ;
#215 = ADVANCED_FACE ( 'NONE', ( #360, #139 ), #201, .T. ) ;
#216 = CARTESIAN_POINT ( 'NONE',  ( 1.500000000000127232, 0.000000000000000000, 37.69999999999998863 ) ) ;
#217 = ORIENTED_EDGE ( 'NONE', *, *, #33, .F. ) ;
#218 = CC_DESIGN_PERSON_AND_ORGANIZATION_ASSIGNMENT ( #62, #381, ( #335 ) ) ;
#219 = PERSON_AND_ORGANIZATION_ROLE ( 'creator' ) ;
#220 = ORIENTED_EDGE ( 'NONE', *, *, #355, .T. ) ;
#221 = DIRECTION ( 'NONE',  ( 1.000000000000000000, 0.000000000000000000, -4.008918116535739436E-15 ) ) ;
#222 = DATE_AND_TIME ( #188, #274 ) ;
#223 = ORIENTED_EDGE ( 'NONE', *, *, #317, .F. ) ;
#224 = VERTEX_POINT ( 'NONE', #318 ) ;
#225 = ORIENTED_EDGE ( 'NONE', *, *, #362, .T. ) ;
#226 = AXIS2_PLACEMENT_3D ( 'NONE', #238, #91, #178 ) ;
#227 = CARTESIAN_POINT ( 'NONE',  ( 0.6595299461620756087, 0.000000000000000000, 0.3999999999999953038 ) ) ;
#228 = EDGE_LOOP ( 'NONE', ( #132 ) ) ;
#229 = FACE_OUTER_BOUND ( 'NONE', #292, .T. ) ;
#230 = ORIENTED_EDGE ( 'NONE', *, *, #173, .F. ) ;
#231 = DIRECTION ( 'NONE',  ( 3.491481338843133355E-15, -0.000000000000000000, 1.000000000000000000 ) ) ;
#232 = PRODUCT_DEFINITION ( 'UNKNOWN', '', #96, #295 ) ;
#233 = APPROVAL_PERSON_ORGANIZATION ( #361, #377, #342 ) ;
#234 = DIRECTION ( 'NONE',  ( -3.491481338843133355E-15, 0.000000000000000000, -1.000000000000000000 ) ) ;
#235 = FACE_OUTER_BOUND ( 'NONE', #228, .T. ) ;
#236 = DIRECTION ( 'NONE',  ( 1.000000000000000000, 0.000000000000000000, -3.493290380427282113E-15 ) ) ;
#237 = CALENDAR_DATE ( 2023, 27, 9 ) ;
#238 = CARTESIAN_POINT ( 'NONE',  ( 3.782438117080129010E-16, 0.000000000000000000, 0.1083333333333352799 ) ) ;
#239 = ORGANIZATION ( 'UNSPECIFIED', 'UNSPECIFIED', '' ) ;
#240 = COORDINATED_UNIVERSAL_TIME_OFFSET ( 1, 0, .AHEAD. ) ;
#241 = FACE_OUTER_BOUND ( 'NONE', #382, .T. ) ;
#242 = DATE_AND_TIME ( #57, #56 ) ;
#243 = CARTESIAN_POINT ( 'NONE',  ( 1.076540079476635283E-15, 0.000000000000000000, 0.3083333333333340698 ) ) ;
#244 = ADVANCED_FACE ( 'NONE', ( #229, #363 ), #252, .T. ) ;
#245 = COORDINATED_UNIVERSAL_TIME_OFFSET ( 1, 0, .AHEAD. ) ;
#246 = CARTESIAN_POINT ( 'NONE',  ( 0.7750000000000002442, 0.000000000000000000, 0.09166666666666080376 ) ) ;
#247 = AXIS2_PLACEMENT_3D ( 'NONE', #207, #231, #389 ) ;
#248 = AXIS2_PLACEMENT_3D ( 'NONE', #95, #41, #385 ) ;
#249 = ADVANCED_FACE ( 'NONE', ( #235, #333 ), #183, .F. ) ;
#250 = VERTEX_POINT ( 'NONE', #352 ) ;
#251 = FACE_OUTER_BOUND ( 'NONE', #127, .T. ) ;
#252 = CONICAL_SURFACE ( 'NONE', #85, 0.6595299461620741654, 1.047197551196602294 ) ;
#253 = ORIENTED_EDGE ( 'NONE', *, *, #173, .T. ) ;
#254 = VERTEX_POINT ( 'NONE', #227 ) ;
#255 = VERTEX_POINT ( 'NONE', #131 ) ;
#256 = AXIS2_PLACEMENT_3D ( 'NONE', #315, #153, #374 ) ;
#257 = ORIENTED_EDGE ( 'NONE', *, *, #145, .T. ) ;
#258 =( NAMED_UNIT ( * ) SI_UNIT ( $, .STERADIAN. ) SOLID_ANGLE_UNIT ( ) );
#259 = ORIENTED_EDGE ( 'NONE', *, *, #291, .F. ) ;
#260 = FACE_OUTER_BOUND ( 'NONE', #316, .T. ) ;
#261 = CONICAL_SURFACE ( 'NONE', #52, 0.7749999999999999112, 1.047197551196602294 ) ;
#262 = FACE_OUTER_BOUND ( 'NONE', #263, .T. ) ;
#263 = EDGE_LOOP ( 'NONE', ( #230 ) ) ;
#264 = EDGE_CURVE ( 'NONE', #254, #254, #79, .T. ) ;
#265 = DIRECTION ( 'NONE',  ( 1.000000000000000000, 0.000000000000000000, -4.625929269271498733E-15 ) ) ;
#266 = DIRECTION ( 'NONE',  ( 1.000000000000000000, 0.000000000000000000, -5.782411586589358033E-15 ) ) ;
#267 = LOCAL_TIME ( 7, 49, 13.00000000000000000, #245 ) ;
#268 = DIRECTION ( 'NONE',  ( 3.491481338843133355E-15, -0.000000000000000000, 1.000000000000000000 ) ) ;
#269 = CIRCLE ( 'NONE', #248, 0.6149999999999999911 ) ;
#270 = APPLICATION_CONTEXT ( 'configuration controlled 3d designs of mechanical parts and assemblies' ) ;
#271 = DIRECTION ( 'NONE',  ( 1.000000000000000000, 0.000000000000000000, -3.491481338843133750E-15 ) ) ;
#272 = SHAPE_DEFINITION_REPRESENTATION ( #368, #276 ) ;
#273 = CARTESIAN_POINT ( 'NONE',  ( 0.6162286759728522467, 0.000000000000000000, -2.151550922619225929E-15 ) ) ;
#274 = LOCAL_TIME ( 7, 49, 13.00000000000000000, #159 ) ;
#275 = VERTEX_POINT ( 'NONE', #32 ) ;
#276 = ADVANCED_BREP_SHAPE_REPRESENTATION ( '961128', ( #158, #2 ), #17 ) ;
#277 = VERTEX_POINT ( 'NONE', #246 ) ;
#278 = CIRCLE ( 'NONE', #148, 0.6595299461620741654 ) ;
#279 = ADVANCED_FACE ( 'NONE', ( #349, #89 ), #123, .T. ) ;
#280 = CIRCLE ( 'NONE', #209, 0.6595299461620741654 ) ;
#281 = DIRECTION ( 'NONE',  ( 1.000000000000000000, 0.000000000000000000, 0.000000000000000000 ) ) ;
#282 = DIRECTION ( 'NONE',  ( 1.000000000000000000, 0.000000000000000000, -2.820688578824078128E-15 ) ) ;
#283 = SECURITY_CLASSIFICATION ( '', '', #143 ) ;
#284 = ORIENTED_EDGE ( 'NONE', *, *, #324, .T. ) ;
#285 =( LENGTH_UNIT ( ) NAMED_UNIT ( * ) SI_UNIT ( .MILLI., .METRE. ) );
#286 = ADVANCED_FACE ( 'NONE', ( #58, #211 ), #212, .T. ) ;
#287 = EDGE_LOOP ( 'NONE', ( #38 ) ) ;
#288 = CARTESIAN_POINT ( 'NONE',  ( 0.000000000000000000, 0.000000000000000000, 0.000000000000000000 ) ) ;
#289 = ORIENTED_EDGE ( 'NONE', *, *, #61, .T. ) ;
#290 = CARTESIAN_POINT ( 'NONE',  ( 0.7750000000000009104, 0.000000000000000000, 0.3083333333333313497 ) ) ;
#291 = EDGE_CURVE ( 'NONE', #133, #133, #71, .T. ) ;
#292 = EDGE_LOOP ( 'NONE', ( #10 ) ) ;
#293 = AXIS2_PLACEMENT_3D ( 'NONE', #380, #150, #100 ) ;
#294 = CARTESIAN_POINT ( 'NONE',  ( 1.326762908760390423E-13, 0.000000000000000000, 38.00000000000000000 ) ) ;
#295 = DESIGN_CONTEXT ( 'detailed design', #163, 'design' ) ;
#296 = CYLINDRICAL_SURFACE ( 'NONE', #53, 1.499999999999997780 ) ;
#297 = FACE_OUTER_BOUND ( 'NONE', #103, .T. ) ;
#298 = CIRCLE ( 'NONE', #5, 1.499999999999995781 ) ;
#299 = DIRECTION ( 'NONE',  ( 3.491481338843133355E-15, -0.000000000000000000, 1.000000000000000000 ) ) ;
#300 = CIRCLE ( 'NONE', #125, 0.7750000000000000222 ) ;
#301 = DIRECTION ( 'NONE',  ( 1.000000000000000000, 0.000000000000000000, -3.491481338843133355E-15 ) ) ;
#302 = PERSON_AND_ORGANIZATION_ROLE ( 'classification_officer' ) ;
#303 = FACE_OUTER_BOUND ( 'NONE', #287, .T. ) ;
#304 = CC_DESIGN_PERSON_AND_ORGANIZATION_ASSIGNMENT ( #210, #302, ( #283 ) ) ;
#305 = DIRECTION ( 'NONE',  ( 3.491481338843133355E-15, -0.000000000000000000, 1.000000000000000000 ) ) ;
#306 = CIRCLE ( 'NONE', #129, 0.6490741737109294585 ) ;
#307 = APPROVAL_ROLE ( '' ) ;
#308 = VERTEX_POINT ( 'NONE', #68 ) ;
#309 = APPROVAL_DATE_TIME ( #242, #377 ) ;
#310 = CC_DESIGN_PERSON_AND_ORGANIZATION_ASSIGNMENT ( #27, #60, ( #96 ) ) ;
#311 = AXIS2_PLACEMENT_3D ( 'NONE', #345, #3, #64 ) ;
#312 = MECHANICAL_CONTEXT ( 'NONE', #270, 'mechanical' ) ;
#313 = DIRECTION ( 'NONE',  ( 1.000000000000000000, 0.000000000000000000, -3.493290380427282113E-15 ) ) ;
#314 = CARTESIAN_POINT ( 'NONE',  ( 1.500000000000026201, 0.000000000000000000, 7.534517462285931444 ) ) ;
#315 = CARTESIAN_POINT ( 'NONE',  ( 1.521873535536946627E-14, 0.000000000000000000, 4.358819045102511502 ) ) ;
#316 = EDGE_LOOP ( 'NONE', ( #130 ) ) ;
#317 = EDGE_CURVE ( 'NONE', #104, #104, #366, .T. ) ;
#318 = CARTESIAN_POINT ( 'NONE',  ( 0.6595299461620748316, 0.000000000000000000, 0.1749999999999992395 ) ) ;
#319 = EDGE_LOOP ( 'NONE', ( #197 ) ) ;
#320 = DIRECTION ( 'NONE',  ( 0.000000000000000000, 0.000000000000000000, 1.000000000000000000 ) ) ;
#321 = CYLINDRICAL_SURFACE ( 'NONE', #330, 0.6595299461620741654 ) ;
#322 = ORIENTED_EDGE ( 'NONE', *, *, #324, .F. ) ;
#323 = APPLICATION_PROTOCOL_DEFINITION ( 'international standard', 'config_control_design', 1994, #270 ) ;
#324 = EDGE_CURVE ( 'NONE', #224, #224, #278, .T. ) ;
#325 = EDGE_LOOP ( 'NONE', ( #225 ) ) ;
#326 = DIRECTION ( 'NONE',  ( 1.000000000000000000, 0.000000000000000000, -3.497426362856465713E-15 ) ) ;
#327 = EDGE_LOOP ( 'NONE', ( #191 ) ) ;
#328 = CC_DESIGN_APPROVAL ( #377, ( #96 ) ) ;
#329 = DIRECTION ( 'NONE',  ( -1.000000000000000000, 0.000000000000000000, 3.497426362856465713E-15 ) ) ;
#330 = AXIS2_PLACEMENT_3D ( 'NONE', #166, #155, #281 ) ;
#331 = DIRECTION ( 'NONE',  ( 3.491481338843133355E-15, -0.000000000000000000, 1.000000000000000000 ) ) ;
#332 = CONICAL_SURFACE ( 'NONE', #119, 0.6162286759728522467, 1.047197551196614285 ) ;
#333 = FACE_OUTER_BOUND ( 'NONE', #387, .T. ) ;
#334 = DIRECTION ( 'NONE',  ( 3.491481338843133355E-15, -0.000000000000000000, 1.000000000000000000 ) ) ;
#335 = PRODUCT ( '961128', '961128', '', ( #312 ) ) ;
#336 = APPROVAL ( #184, 'UNSPECIFIED' ) ;
#337 = CALENDAR_DATE ( 2023, 27, 9 ) ;
#338 = DIRECTION ( 'NONE',  ( 3.491481338843133355E-15, -0.000000000000000000, 1.000000000000000000 ) ) ;
#339 = APPROVAL_STATUS ( 'not_yet_approved' ) ;
#340 = CARTESIAN_POINT ( 'NONE',  ( 1.018348723829256169E-15, 0.000000000000000000, 0.2916666666666692387 ) ) ;
#341 = APPROVAL_PERSON_ORGANIZATION ( #181, #90, #307 ) ;
#342 = APPROVAL_ROLE ( '' ) ;
#343 = CIRCLE ( 'NONE', #149, 0.6595299461620741654 ) ;
#344 = CIRCLE ( 'NONE', #170, 0.6149999999999996581 ) ;
#345 = CARTESIAN_POINT ( 'NONE',  ( 2.630662711675906771E-14, 0.000000000000000000, 7.534517462285935885 ) ) ;
#346 = VERTEX_POINT ( 'NONE', #290 ) ;
#347 = FACE_BOUND ( 'NONE', #325, .T. ) ;
#348 = EDGE_LOOP ( 'NONE', ( #13 ) ) ;
#349 = FACE_OUTER_BOUND ( 'NONE', #189, .T. ) ;
#350 =( NAMED_UNIT ( * ) PLANE_ANGLE_UNIT ( ) SI_UNIT ( $, .RADIAN. ) );
#351 = EDGE_LOOP ( 'NONE', ( #136 ) ) ;
#352 = CARTESIAN_POINT ( 'NONE',  ( 0.6490741737109446685, 0.000000000000000000, 4.358819045102509726 ) ) ;
#353 = AXIS2_PLACEMENT_3D ( 'NONE', #243, #395, #182 ) ;
#354 = EDGE_LOOP ( 'NONE', ( #257 ) ) ;
#355 = EDGE_CURVE ( 'NONE', #255, #255, #23, .T. ) ;
#356 = DIRECTION ( 'NONE',  ( 1.000000000000000000, 0.000000000000000000, 0.000000000000000000 ) ) ;
#357 = CARTESIAN_POINT ( 'NONE',  ( 1.326762908760390423E-13, 0.000000000000000000, 38.00000000000000000 ) ) ;
#358 = PLANE ( 'NONE',  #378 ) ;
#359 = EDGE_LOOP ( 'NONE', ( #171 ) ) ;
#360 = FACE_BOUND ( 'NONE', #105, .T. ) ;
#361 = PERSON_AND_ORGANIZATION ( #65, #239 ) ;
#362 = EDGE_CURVE ( 'NONE', #250, #250, #306, .T. ) ;
#363 = FACE_BOUND ( 'NONE', #354, .T. ) ;
#364 = CARTESIAN_POINT ( 'NONE',  ( 1.316288464743861212E-13, 0.000000000000000000, 37.69999999999999574 ) ) ;
#365 = DATE_AND_TIME ( #237, #161 ) ;
#366 = CIRCLE ( 'NONE', #226, 0.7750000000000000222 ) ;
#367 = ADVANCED_FACE ( 'NONE', ( #303, #26 ), #332, .T. ) ;
#368 = PRODUCT_DEFINITION_SHAPE ( 'NONE', 'NONE',  #232 ) ;
#369 = DATE_AND_TIME ( #337, #267 ) ;
#370 = CARTESIAN_POINT ( 'NONE',  ( 1.326762908760390423E-13, 0.000000000000000000, 38.00000000000000000 ) ) ;
#371 = VERTEX_POINT ( 'NONE', #92 ) ;
#372 = CONICAL_SURFACE ( 'NONE', #256, 0.6490741737109294585, 0.2617993877991428020 ) ;
#373 = PERSON_AND_ORGANIZATION ( #65, #239 ) ;
#374 = DIRECTION ( 'NONE',  ( 1.000000000000000000, 0.000000000000000000, -4.008918116535739436E-15 ) ) ;
#375 = CARTESIAN_POINT ( 'NONE',  ( 1.396592535537253342E-15, 0.6595299461620741654, 0.3999999999999999667 ) ) ;
#376 = PERSON_AND_ORGANIZATION ( #65, #239 ) ;
#377 = APPROVAL ( #339, 'UNSPECIFIED' ) ;
#378 = AXIS2_PLACEMENT_3D ( 'NONE', #172, #198, #169 ) ;
#379 = ORIENTED_EDGE ( 'NONE', *, *, #264, .T. ) ;
#380 = CARTESIAN_POINT ( 'NONE',  ( 1.326762908760390423E-13, 0.000000000000000000, 38.00000000000000000 ) ) ;
#381 = PERSON_AND_ORGANIZATION_ROLE ( 'design_owner' ) ;
#382 = EDGE_LOOP ( 'NONE', ( #73 ) ) ;
#383 = CC_DESIGN_DATE_AND_TIME_ASSIGNMENT ( #222, #108, ( #232 ) ) ;
#384 = ORIENTED_EDGE ( 'NONE', *, *, #33, .T. ) ;
#385 = DIRECTION ( 'NONE',  ( 1.000000000000000000, 0.000000000000000000, -3.525860723530095688E-15 ) ) ;
#386 = FACE_OUTER_BOUND ( 'NONE', #327, .T. ) ;
#387 = EDGE_LOOP ( 'NONE', ( #70 ) ) ;
#388 = DIRECTION ( 'NONE',  ( 3.491481338843133355E-15, -0.000000000000000000, 1.000000000000000000 ) ) ;
#389 = DIRECTION ( 'NONE',  ( 1.000000000000000000, 0.000000000000000000, 0.000000000000000000 ) ) ;
#390 = EDGE_CURVE ( 'NONE', #346, #346, #29, .T. ) ;
#391 = CC_DESIGN_APPROVAL ( #90, ( #283 ) ) ;
#392 = FACE_OUTER_BOUND ( 'NONE', #42, .T. ) ;
#393 = DIRECTION ( 'NONE',  ( -3.491481338843133355E-15, 0.000000000000000000, -1.000000000000000000 ) ) ;
#394 = EDGE_CURVE ( 'NONE', #69, #69, #344, .T. ) ;
#395 = DIRECTION ( 'NONE',  ( 3.491481338843133355E-15, -0.000000000000000000, 1.000000000000000000 ) ) ;
ENDSEC;
END-ISO-10303-21;
