ISO-10303-21;
HEADER;
FILE_DESCRIPTION (( 'STEP AP203' ),
    '1' );
FILE_NAME ('961087.step',
    '2023-09-28T06:25:30',
    ( '' ),
    ( '' ),
    'SwSTEP 2.0',
    'SolidWorks 2022',
    '' );
FILE_SCHEMA (( 'CONFIG_CONTROL_DESIGN' ));
ENDSEC;

DATA;
#1 = ORIENTED_EDGE ( 'NONE', *, *, #328, .T. ) ;
#2 = EDGE_LOOP ( 'NONE', ( #53 ) ) ;
#3 = PRODUCT ( '961087', '961087', '', ( #30 ) ) ;
#4 =( GEOMETRIC_REPRESENTATION_CONTEXT ( 3 ) GLOBAL_UNCERTAINTY_ASSIGNED_CONTEXT ( ( #129 ) ) GLOBAL_UNIT_ASSIGNED_CONTEXT ( ( #265, #176, #233 ) ) REPRESENTATION_CONTEXT ( 'NONE', 'WORKASPACE' ) );
#5 = EDGE_LOOP ( 'NONE', ( #299 ) ) ;
#6 = PERSON_AND_ORGANIZATION ( #268, #310 ) ;
#7 = DIRECTION ( 'NONE',  ( 3.491481338843133355E-15, -0.000000000000000000, 1.000000000000000000 ) ) ;
#8 = PERSON_AND_ORGANIZATION_ROLE ( 'classification_officer' ) ;
#9 = DIRECTION ( 'NONE',  ( 3.491481338843133355E-15, -0.000000000000000000, 1.000000000000000000 ) ) ;
#10 = AXIS2_PLACEMENT_3D ( 'NONE', #374, #124, #130 ) ;
#11 = EDGE_CURVE ( 'NONE', #180, #180, #92, .T. ) ;
#12 = FACE_OUTER_BOUND ( 'NONE', #369, .T. ) ;
#13 = PLANE ( 'NONE',  #302 ) ;
#14 = CARTESIAN_POINT ( 'NONE',  ( 2.199633243471174140E-13, 0.000000000000000000, 63.00000000000000000 ) ) ;
#15 = ADVANCED_FACE ( 'NONE', ( #206, #177 ), #189, .T. ) ;
#16 = CIRCLE ( 'NONE', #76, 3.199999999999990852 ) ;
#17 = DIRECTION ( 'NONE',  ( 1.000000000000000000, 0.000000000000000000, -3.486454044855347507E-15 ) ) ;
#18 = CARTESIAN_POINT ( 'NONE',  ( 6.235567453590162125E-15, 0.000000000000000000, 1.785937500000001066 ) ) ;
#19 = ORIENTED_EDGE ( 'NONE', *, *, #192, .F. ) ;
#20 = AXIS2_PLACEMENT_3D ( 'NONE', #75, #38, #160 ) ;
#21 = FACE_OUTER_BOUND ( 'NONE', #195, .T. ) ;
#22 = LOCAL_TIME ( 8, 25, 30.00000000000000000, #378 ) ;
#23 = CARTESIAN_POINT ( 'NONE',  ( 2.199633243471174140E-13, 0.000000000000000000, 63.00000000000000000 ) ) ;
#24 = CARTESIAN_POINT ( 'NONE',  ( 2.908456447661468491, 0.000000000000000000, 1.389062499999992983 ) ) ;
#25 = ORIENTED_EDGE ( 'NONE', *, *, #192, .T. ) ;
#26 = CC_DESIGN_PERSON_AND_ORGANIZATION_ASSIGNMENT ( #280, #282, ( #77 ) ) ;
#27 = CIRCLE ( 'NONE', #183, 2.599074173710925972 ) ;
#28 = EDGE_LOOP ( 'NONE', ( #31 ) ) ;
#29 = APPROVAL_PERSON_ORGANIZATION ( #70, #357, #251 ) ;
#30 = MECHANICAL_CONTEXT ( 'NONE', #155, 'mechanical' ) ;
#31 = ORIENTED_EDGE ( 'NONE', *, *, #71, .F. ) ;
#32 = CARTESIAN_POINT ( 'NONE',  ( 3.825000000000008171, 0.000000000000000000, 2.315104166666651420 ) ) ;
#33 = EDGE_LOOP ( 'NONE', ( #205 ) ) ;
#34 = CARTESIAN_POINT ( 'NONE',  ( 2.565000000000103864, 0.000000000000000000, 30.49999999999998934 ) ) ;
#35 = ORIENTED_EDGE ( 'NONE', *, *, #45, .T. ) ;
#36 = AXIS2_PLACEMENT_3D ( 'NONE', #380, #219, #154 ) ;
#37 = APPROVAL_STATUS ( 'not_yet_approved' ) ;
#38 = DIRECTION ( 'NONE',  ( 3.491481338843133355E-15, -0.000000000000000000, 1.000000000000000000 ) ) ;
#39 = DIRECTION ( 'NONE',  ( 3.491481338843133355E-15, -0.000000000000000000, 1.000000000000000000 ) ) ;
#40 = CC_DESIGN_DATE_AND_TIME_ASSIGNMENT ( #285, #241, ( #259 ) ) ;
#41 = PERSON_AND_ORGANIZATION ( #268, #310 ) ;
#42 = DIRECTION ( 'NONE',  ( 3.491481338843133355E-15, -0.000000000000000000, 1.000000000000000000 ) ) ;
#43 = CIRCLE ( 'NONE', #261, 2.564999999999999947 ) ;
#44 = CYLINDRICAL_SURFACE ( 'NONE', #86, 2.908456447661463606 ) ;
#45 = EDGE_CURVE ( 'NONE', #391, #391, #331, .T. ) ;
#46 = DIRECTION ( 'NONE',  ( 1.000000000000000000, 0.000000000000000000, -3.550603605800482297E-15 ) ) ;
#47 = FACE_BOUND ( 'NONE', #171, .T. ) ;
#48 = DIRECTION ( 'NONE',  ( 3.491481338843133355E-15, -0.000000000000000000, 1.000000000000000000 ) ) ;
#49 = FACE_OUTER_BOUND ( 'NONE', #307, .T. ) ;
#50 = CARTESIAN_POINT ( 'NONE',  ( 1.073938427008281932E-13, 0.000000000000000000, 30.75881904510251275 ) ) ;
#51 = AXIS2_PLACEMENT_3D ( 'NONE', #68, #184, #99 ) ;
#52 = DIRECTION ( 'NONE',  ( 3.491481338843133355E-15, -0.000000000000000000, 1.000000000000000000 ) ) ;
#53 = ORIENTED_EDGE ( 'NONE', *, *, #264, .F. ) ;
#54 = EDGE_CURVE ( 'NONE', #112, #112, #27, .T. ) ;
#55 = CARTESIAN_POINT ( 'NONE',  ( 3.825000000000008615, 0.000000000000000000, 2.447395833333317672 ) ) ;
#56 = EDGE_LOOP ( 'NONE', ( #84 ) ) ;
#57 = CARTESIAN_POINT ( 'NONE',  ( 2.908456447661474709, 0.000000000000000000, 2.976562499999992006 ) ) ;
#58 = ORIENTED_EDGE ( 'NONE', *, *, #281, .F. ) ;
#59 = CARTESIAN_POINT ( 'NONE',  ( 0.000000000000000000, 0.000000000000000000, 0.000000000000000000 ) ) ;
#60 = AXIS2_PLACEMENT_3D ( 'NONE', #83, #199, #197 ) ;
#61 = EDGE_LOOP ( 'NONE', ( #173 ) ) ;
#62 = ADVANCED_FACE ( 'NONE', ( #283, #220 ), #13, .F. ) ;
#63 = PERSON_AND_ORGANIZATION_ROLE ( 'design_owner' ) ;
#64 = DIRECTION ( 'NONE',  ( -3.491481338843133355E-15, 0.000000000000000000, -1.000000000000000000 ) ) ;
#65 = VERTEX_POINT ( 'NONE', #172 ) ;
#66 = EDGE_LOOP ( 'NONE', ( #361 ) ) ;
#67 = COORDINATED_UNIVERSAL_TIME_OFFSET ( 1, 0, .AHEAD. ) ;
#68 = CARTESIAN_POINT ( 'NONE',  ( 2.199633243471174140E-13, 0.000000000000000000, 63.00000000000000000 ) ) ;
#69 = AXIS2_PLACEMENT_3D ( 'NONE', #50, #82, #290 ) ;
#70 = PERSON_AND_ORGANIZATION ( #268, #310 ) ;
#71 = EDGE_CURVE ( 'NONE', #89, #89, #267, .T. ) ;
#72 = DIRECTION ( 'NONE',  ( 1.000000000000000000, 0.000000000000000000, -4.771530211144421433E-15 ) ) ;
#73 = APPROVAL_DATE_TIME ( #190, #357 ) ;
#74 = CARTESIAN_POINT ( 'NONE',  ( 4.849885797236801266E-15, 0.000000000000000000, 1.389062500000003197 ) ) ;
#75 = CARTESIAN_POINT ( 'NONE',  ( 8.083142995394643533E-15, 0.000000000000000000, 2.315104166666665186 ) ) ;
#76 = AXIS2_PLACEMENT_3D ( 'NONE', #23, #327, #103 ) ;
#77 = PRODUCT_DEFINITION_FORMATION_WITH_SPECIFIED_SOURCE ( 'ANY', '', #3, .NOT_KNOWN. ) ;
#78 = CARTESIAN_POINT ( 'NONE',  ( 1.064901808347155610E-13, 0.000000000000000000, 30.50000000000000000 ) ) ;
#79 = DIRECTION ( 'NONE',  ( 1.000000000000000000, 0.000000000000000000, -3.491481338843132961E-15 ) ) ;
#80 = DIRECTION ( 'NONE',  ( 3.491481338843133355E-15, -0.000000000000000000, 1.000000000000000000 ) ) ;
#81 = CONICAL_SURFACE ( 'NONE', #60, 3.825000000000000178, 1.047197551196596965 ) ;
#82 = DIRECTION ( 'NONE',  ( 3.491481338843133355E-15, -0.000000000000000000, 1.000000000000000000 ) ) ;
#83 = CARTESIAN_POINT ( 'NONE',  ( 3.002310255432294614E-15, 0.000000000000000000, 0.8598958333333323045 ) ) ;
#84 = ORIENTED_EDGE ( 'NONE', *, *, #328, .F. ) ;
#85 = ADVANCED_FACE ( 'NONE', ( #128, #221 ), #142, .F. ) ;
#86 = AXIS2_PLACEMENT_3D ( 'NONE', #381, #161, #72 ) ;
#87 = CARTESIAN_POINT ( 'NONE',  ( 2.565000000000011493, 0.000000000000000000, 3.174999999999988276 ) ) ;
#88 = LOCAL_TIME ( 8, 25, 30.00000000000000000, #67 ) ;
#89 = VERTEX_POINT ( 'NONE', #32 ) ;
#90 = EDGE_LOOP ( 'NONE', ( #234 ) ) ;
#91 = DIRECTION ( 'NONE',  ( 3.491481338843133355E-15, -0.000000000000000000, 1.000000000000000000 ) ) ;
#92 = CIRCLE ( 'NONE', #214, 3.825000000000000178 ) ;
#93 = VERTEX_POINT ( 'NONE', #55 ) ;
#94 = ORIENTED_EDGE ( 'NONE', *, *, #264, .T. ) ;
#95 = COORDINATED_UNIVERSAL_TIME_OFFSET ( 1, 0, .AHEAD. ) ;
#96 = DIRECTION ( 'NONE',  ( 3.491481338843133355E-15, -0.000000000000000000, 1.000000000000000000 ) ) ;
#97 = ADVANCED_FACE ( 'NONE', ( #286, #250 ), #188, .T. ) ;
#98 = CARTESIAN_POINT ( 'NONE',  ( 1.108545325082693894E-14, 0.000000000000000000, 3.174999999999997158 ) ) ;
#99 = DIRECTION ( 'NONE',  ( 1.000000000000000000, 0.000000000000000000, -3.469446951953615767E-15 ) ) ;
#100 = ADVANCED_FACE ( 'NONE', ( #12, #248 ), #346, .T. ) ;
#101 = DIRECTION ( 'NONE',  ( 1.000000000000000000, 0.000000000000000000, -4.004634019736320698E-15 ) ) ;
#102 = CC_DESIGN_APPROVAL ( #385, ( #259 ) ) ;
#103 = DIRECTION ( 'NONE',  ( 1.000000000000000000, 0.000000000000000000, -4.336808689942030358E-15 ) ) ;
#104 = DIRECTION ( 'NONE',  ( 1.000000000000000000, 0.000000000000000000, -3.514799199691570360E-15 ) ) ;
#105 = EDGE_CURVE ( 'NONE', #65, #65, #355, .T. ) ;
#106 = DIRECTION ( 'NONE',  ( 1.000000000000000000, 0.000000000000000000, -5.410443589791214312E-15 ) ) ;
#107 = CIRCLE ( 'NONE', #291, 3.999999999999996447 ) ;
#108 = CARTESIAN_POINT ( 'NONE',  ( 2.199633243471174140E-13, 0.000000000000000000, 63.00000000000000000 ) ) ;
#109 = EDGE_LOOP ( 'NONE', ( #35 ) ) ;
#110 = CARTESIAN_POINT ( 'NONE',  ( 0.000000000000000000, 0.000000000000000000, 0.000000000000000000 ) ) ;
#111 = EDGE_CURVE ( 'NONE', #303, #303, #351, .T. ) ;
#112 = VERTEX_POINT ( 'NONE', #306 ) ;
#113 = AXIS2_PLACEMENT_3D ( 'NONE', #276, #118, #239 ) ;
#114 = ORIENTED_EDGE ( 'NONE', *, *, #379, .T. ) ;
#115 = ORIENTED_EDGE ( 'NONE', *, *, #105, .F. ) ;
#116 = EDGE_LOOP ( 'NONE', ( #25 ) ) ;
#117 = DIRECTION ( 'NONE',  ( 3.491481338843133355E-15, -0.000000000000000000, 1.000000000000000000 ) ) ;
#118 = DIRECTION ( 'NONE',  ( 3.491481338843133355E-15, -0.000000000000000000, 1.000000000000000000 ) ) ;
#119 = CALENDAR_DATE ( 2023, 28, 9 ) ;
#120 = EDGE_LOOP ( 'NONE', ( #308 ) ) ;
#121 = ADVANCED_FACE ( 'NONE', ( #345, #349 ), #126, .T. ) ;
#122 = DIRECTION ( 'NONE',  ( 1.000000000000000000, 0.000000000000000000, -3.429537339260052609E-15 ) ) ;
#123 = PERSON_AND_ORGANIZATION ( #268, #310 ) ;
#124 = DIRECTION ( 'NONE',  ( -3.491481338843133355E-15, 0.000000000000000000, -1.000000000000000000 ) ) ;
#125 = CIRCLE ( 'NONE', #226, 2.564752615534514835 ) ;
#126 = CYLINDRICAL_SURFACE ( 'NONE', #51, 3.999999999999998224 ) ;
#127 = APPROVAL_DATE_TIME ( #149, #385 ) ;
#128 = FACE_OUTER_BOUND ( 'NONE', #334, .T. ) ;
#129 = UNCERTAINTY_MEASURE_WITH_UNIT (LENGTH_MEASURE( 1.000000000000000082E-05 ), #265, 'distance_accuracy_value', 'NONE');
#130 = DIRECTION ( 'NONE',  ( -1.000000000000000000, 0.000000000000000000, 3.514799199691570360E-15 ) ) ;
#131 = AXIS2_PLACEMENT_3D ( 'NONE', #257, #227, #228 ) ;
#132 = CARTESIAN_POINT ( 'NONE',  ( 6.235567453590162125E-15, 0.000000000000000000, 1.785937500000001066 ) ) ;
#133 = FACE_OUTER_BOUND ( 'NONE', #28, .T. ) ;
#134 = CARTESIAN_POINT ( 'NONE',  ( 1.256484466248506791E-13, 0.000000000000000000, 35.98714540644888871 ) ) ;
#135 = CIRCLE ( 'NONE', #388, 2.908456447661463606 ) ;
#136 = AXIS2_PLACEMENT_3D ( 'NONE', #59, #275, #362 ) ;
#137 = EDGE_CURVE ( 'NONE', #229, #229, #43, .T. ) ;
#138 = FACE_BOUND ( 'NONE', #236, .T. ) ;
#139 = DIRECTION ( 'NONE',  ( 3.491481338843133355E-15, -0.000000000000000000, 1.000000000000000000 ) ) ;
#140 = CARTESIAN_POINT ( 'NONE',  ( 2.564752615534514835, 0.000000000000000000, -8.954785895887875235E-15 ) ) ;
#141 = ORIENTED_EDGE ( 'NONE', *, *, #111, .F. ) ;
#142 = TOROIDAL_SURFACE ( 'NONE', #284, 3.564999999999996838, 1.000000000000001110 ) ;
#143 = APPROVAL_PERSON_ORGANIZATION ( #41, #231, #348 ) ;
#144 = VERTEX_POINT ( 'NONE', #204 ) ;
#145 = VERTEX_POINT ( 'NONE', #270 ) ;
#146 = EDGE_LOOP ( 'NONE', ( #202 ) ) ;
#147 = CARTESIAN_POINT ( 'NONE',  ( 4.000000000000213163, 0.000000000000000000, 62.19999999999998153 ) ) ;
#148 = ORIENTED_EDGE ( 'NONE', *, *, #312, .T. ) ;
#149 = DATE_AND_TIME ( #119, #159 ) ;
#150 = ADVANCED_FACE ( 'NONE', ( #319, #244 ), #375, .T. ) ;
#151 = ORIENTED_EDGE ( 'NONE', *, *, #45, .F. ) ;
#152 = CC_DESIGN_APPROVAL ( #231, ( #77 ) ) ;
#153 = CALENDAR_DATE ( 2023, 28, 9 ) ;
#154 = DIRECTION ( 'NONE',  ( 1.000000000000000000, 0.000000000000000000, -3.491481338843132961E-15 ) ) ;
#155 = APPLICATION_CONTEXT ( 'configuration controlled 3d designs of mechanical parts and assemblies' ) ;
#156 = APPROVAL_STATUS ( 'not_yet_approved' ) ;
#157 = FACE_OUTER_BOUND ( 'NONE', #116, .T. ) ;
#158 = DIRECTION ( 'NONE',  ( 1.000000000000000000, 0.000000000000000000, -3.491481338843132961E-15 ) ) ;
#159 = LOCAL_TIME ( 8, 25, 30.00000000000000000, #311 ) ;
#160 = DIRECTION ( 'NONE',  ( 1.000000000000000000, 0.000000000000000000, -3.514799199691570360E-15 ) ) ;
#161 = DIRECTION ( 'NONE',  ( 3.491481338843133355E-15, -0.000000000000000000, 1.000000000000000000 ) ) ;
#162 = DIRECTION ( 'NONE',  ( 3.491481338843133355E-15, -0.000000000000000000, 1.000000000000000000 ) ) ;
#163 = ADVANCED_FACE ( 'NONE', ( #216, #157 ), #44, .T. ) ;
#164 = AXIS2_PLACEMENT_3D ( 'NONE', #108, #48, #352 ) ;
#165 = DIRECTION ( 'NONE',  ( 3.491481338843133355E-15, -0.000000000000000000, 1.000000000000000000 ) ) ;
#166 = FACE_OUTER_BOUND ( 'NONE', #304, .T. ) ;
#167 = ADVANCED_FACE ( 'NONE', ( #288, #186 ), #315, .T. ) ;
#168 = FACE_BOUND ( 'NONE', #33, .T. ) ;
#169 = DIRECTION ( 'NONE',  ( 3.491481338843133355E-15, -0.000000000000000000, 1.000000000000000000 ) ) ;
#170 = VERTEX_POINT ( 'NONE', #147 ) ;
#171 = EDGE_LOOP ( 'NONE', ( #114 ) ) ;
#172 = CARTESIAN_POINT ( 'NONE',  ( 2.908456447661475153, 0.000000000000000000, 3.174999999999987388 ) ) ;
#173 = ORIENTED_EDGE ( 'NONE', *, *, #312, .F. ) ;
#174 = CC_DESIGN_PERSON_AND_ORGANIZATION_ASSIGNMENT ( #208, #63, ( #3 ) ) ;
#175 = AXIS2_PLACEMENT_3D ( 'NONE', #316, #96, #313 ) ;
#176 =( NAMED_UNIT ( * ) PLANE_ANGLE_UNIT ( ) SI_UNIT ( $, .RADIAN. ) );
#177 = FACE_OUTER_BOUND ( 'NONE', #181, .T. ) ;
#178 = VERTEX_POINT ( 'NONE', #24 ) ;
#179 = DIRECTION ( 'NONE',  ( -1.000000000000000000, 0.000000000000000000, 3.469446951953617344E-15 ) ) ;
#180 = VERTEX_POINT ( 'NONE', #201 ) ;
#181 = EDGE_LOOP ( 'NONE', ( #148 ) ) ;
#182 = DATE_AND_TIME ( #247, #88 ) ;
#183 = AXIS2_PLACEMENT_3D ( 'NONE', #211, #42, #101 ) ;
#184 = DIRECTION ( 'NONE',  ( 3.491481338843133355E-15, -0.000000000000000000, 1.000000000000000000 ) ) ;
#185 = PERSON_AND_ORGANIZATION ( #268, #310 ) ;
#186 = FACE_OUTER_BOUND ( 'NONE', #395, .T. ) ;
#187 = DIRECTION ( 'NONE',  ( 3.491481338843133355E-15, -0.000000000000000000, 1.000000000000000000 ) ) ;
#188 = CYLINDRICAL_SURFACE ( 'NONE', #277, 3.824999999999999734 ) ;
#189 = CONICAL_SURFACE ( 'NONE', #200, 3.999999999999996447, 0.7853981633974504994 ) ;
#190 = DATE_AND_TIME ( #153, #22 ) ;
#191 = CARTESIAN_POINT ( 'NONE',  ( 2.199633243471174140E-13, 0.000000000000000000, 63.00000000000000000 ) ) ;
#192 = EDGE_CURVE ( 'NONE', #178, #178, #135, .T. ) ;
#193 = APPLICATION_CONTEXT ( 'configuration controlled 3d designs of mechanical parts and assemblies' ) ;
#194 = CARTESIAN_POINT ( 'NONE',  ( 2.304753223284171547E-32, 0.000000000000000000, 6.601075588299801790E-18 ) ) ;
#195 = EDGE_LOOP ( 'NONE', ( #325 ) ) ;
#196 = CIRCLE ( 'NONE', #359, 3.824999999999999734 ) ;
#197 = DIRECTION ( 'NONE',  ( -1.000000000000000000, 0.000000000000000000, 3.486454044855347507E-15 ) ) ;
#198 = CYLINDRICAL_SURFACE ( 'NONE', #164, 3.825000000000000178 ) ;
#199 = DIRECTION ( 'NONE',  ( -3.491481338843133355E-15, 0.000000000000000000, -1.000000000000000000 ) ) ;
#200 = AXIS2_PLACEMENT_3D ( 'NONE', #340, #64, #179 ) ;
#201 = CARTESIAN_POINT ( 'NONE',  ( 3.825000000000002842, 0.000000000000000000, 0.7276041666666529517 ) ) ;
#202 = ORIENTED_EDGE ( 'NONE', *, *, #137, .T. ) ;
#203 = PRODUCT_RELATED_PRODUCT_CATEGORY ( 'detail', '', ( #3 ) ) ;
#204 = CARTESIAN_POINT ( 'NONE',  ( 4.000000000000126121, 0.000000000000000000, 35.98714540644887450 ) ) ;
#205 = ORIENTED_EDGE ( 'NONE', *, *, #54, .T. ) ;
#206 = FACE_BOUND ( 'NONE', #66, .T. ) ;
#207 = CLOSED_SHELL ( 'NONE', ( #370, #100, #324, #287, #163, #218, #97, #150, #167, #62, #293, #85, #245, #121, #15, #253 ) ) ;
#208 = PERSON_AND_ORGANIZATION ( #268, #310 ) ;
#209 = EDGE_LOOP ( 'NONE', ( #1 ) ) ;
#210 = CC_DESIGN_PERSON_AND_ORGANIZATION_ASSIGNMENT ( #123, #317, ( #77 ) ) ;
#211 = CARTESIAN_POINT ( 'NONE',  ( 1.073938427008281932E-13, 0.000000000000000000, 30.75881904510251275 ) ) ;
#212 = CALENDAR_DATE ( 2023, 28, 9 ) ;
#213 = DIRECTION ( 'NONE',  ( 3.491481338843133355E-15, -0.000000000000000000, 1.000000000000000000 ) ) ;
#214 = AXIS2_PLACEMENT_3D ( 'NONE', #363, #91, #365 ) ;
#215 = AXIS2_PLACEMENT_3D ( 'NONE', #322, #162, #17 ) ;
#216 = FACE_OUTER_BOUND ( 'NONE', #335, .T. ) ;
#217 = LOCAL_TIME ( 8, 25, 30.00000000000000000, #95 ) ;
#218 = ADVANCED_FACE ( 'NONE', ( #133, #47 ), #366, .T. ) ;
#219 = DIRECTION ( 'NONE',  ( 3.491481338843133355E-15, -0.000000000000000000, 1.000000000000000000 ) ) ;
#220 = FACE_OUTER_BOUND ( 'NONE', #5, .T. ) ;
#221 = FACE_OUTER_BOUND ( 'NONE', #109, .T. ) ;
#222 = EDGE_CURVE ( 'NONE', #263, #263, #16, .T. ) ;
#223 = FACE_OUTER_BOUND ( 'NONE', #372, .T. ) ;
#224 = DIRECTION ( 'NONE',  ( 3.491481338843133355E-15, -0.000000000000000000, 1.000000000000000000 ) ) ;
#225 = FACE_OUTER_BOUND ( 'NONE', #279, .T. ) ;
#226 = AXIS2_PLACEMENT_3D ( 'NONE', #110, #224, #79 ) ;
#227 = DIRECTION ( 'NONE',  ( -3.491481338843133355E-15, 0.000000000000000000, -1.000000000000000000 ) ) ;
#228 = DIRECTION ( 'NONE',  ( -1.000000000000000000, 0.000000000000000000, 3.491481338843133355E-15 ) ) ;
#229 = VERTEX_POINT ( 'NONE', #87 ) ;
#230 = AXIS2_PLACEMENT_3D ( 'NONE', #134, #139, #356 ) ;
#231 = APPROVAL ( #156, 'UNSPECIFIED' ) ;
#232 = AXIS2_PLACEMENT_3D ( 'NONE', #194, #165, #292 ) ;
#233 =( NAMED_UNIT ( * ) SI_UNIT ( $, .STERADIAN. ) SOLID_ANGLE_UNIT ( ) );
#234 = ORIENTED_EDGE ( 'NONE', *, *, #281, .T. ) ;
#235 = EDGE_LOOP ( 'NONE', ( #115 ) ) ;
#236 = EDGE_LOOP ( 'NONE', ( #19 ) ) ;
#237 = AXIS2_PLACEMENT_3D ( 'NONE', #98, #9, #122 ) ;
#238 = APPLICATION_PROTOCOL_DEFINITION ( 'international standard', 'config_control_design', 1994, #193 ) ;
#239 = DIRECTION ( 'NONE',  ( 1.000000000000000000, 0.000000000000000000, -4.057832692343413298E-15 ) ) ;
#240 = MANIFOLD_SOLID_BREP ( 'Corps-Déplacer/Copier1', #207 ) ;
#241 = DATE_TIME_ROLE ( 'creation_date' ) ;
#242 = ORIENTED_EDGE ( 'NONE', *, *, #11, .F. ) ;
#243 = DATE_AND_TIME ( #212, #217 ) ;
#244 = FACE_OUTER_BOUND ( 'NONE', #295, .T. ) ;
#245 = ADVANCED_FACE ( 'NONE', ( #166, #168 ), #309, .T. ) ;
#246 = AXIS2_PLACEMENT_3D ( 'NONE', #132, #296, #294 ) ;
#247 = CALENDAR_DATE ( 2023, 28, 9 ) ;
#248 = FACE_BOUND ( 'NONE', #209, .T. ) ;
#249 = APPROVAL_DATE_TIME ( #243, #231 ) ;
#250 = FACE_OUTER_BOUND ( 'NONE', #120, .T. ) ;
#251 = APPROVAL_ROLE ( '' ) ;
#252 = DIRECTION ( 'NONE',  ( 1.000000000000000000, 0.000000000000000000, -3.628179819036459803E-15 ) ) ;
#253 = ADVANCED_FACE ( 'NONE', ( #21 ), #386, .F. ) ;
#254 = CARTESIAN_POINT ( 'NONE',  ( 1.108545325082694840E-14, 2.908456447661463606, 3.174999999999999822 ) ) ;
#255 = CC_DESIGN_APPROVAL ( #357, ( #367 ) ) ;
#256 = FACE_OUTER_BOUND ( 'NONE', #56, .T. ) ;
#257 = CARTESIAN_POINT ( 'NONE',  ( 2.199633243471174140E-13, 3.199999999999990852, 63.00000000000000000 ) ) ;
#258 = ORIENTED_EDGE ( 'NONE', *, *, #343, .T. ) ;
#259 = PRODUCT_DEFINITION ( 'UNKNOWN', '', #77, #289 ) ;
#260 = DIRECTION ( 'NONE',  ( 3.491481338843133355E-15, -0.000000000000000000, 1.000000000000000000 ) ) ;
#261 = AXIS2_PLACEMENT_3D ( 'NONE', #350, #7, #46 ) ;
#262 = CYLINDRICAL_SURFACE ( 'NONE', #323, 2.564999999999998614 ) ;
#263 = VERTEX_POINT ( 'NONE', #333 ) ;
#264 = EDGE_CURVE ( 'NONE', #93, #93, #196, .T. ) ;
#265 =( LENGTH_UNIT ( ) NAMED_UNIT ( * ) SI_UNIT ( .MILLI., .METRE. ) );
#266 = ORIENTED_EDGE ( 'NONE', *, *, #137, .F. ) ;
#267 = CIRCLE ( 'NONE', #20, 3.824999999999999734 ) ;
#268 = PERSON ( 'UNSPECIFIED', 'UNSPECIFIED', 'UNSPECIFIED', ('UNSPECIFIED'), ('UNSPECIFIED'), ('UNSPECIFIED') ) ;
#269 = APPROVAL_PERSON_ORGANIZATION ( #368, #385, #371 ) ;
#270 = CARTESIAN_POINT ( 'NONE',  ( 2.908456447661470268, 0.000000000000000000, 1.785937499999990852 ) ) ;
#271 = ORIENTED_EDGE ( 'NONE', *, *, #54, .F. ) ;
#272 = DIRECTION ( 'NONE',  ( 1.000000000000000000, 0.000000000000000000, -3.504092498809183750E-15 ) ) ;
#273 = PRODUCT_DEFINITION_SHAPE ( 'NONE', 'NONE',  #259 ) ;
#274 = EDGE_LOOP ( 'NONE', ( #266 ) ) ;
#275 = DIRECTION ( 'NONE',  ( 0.000000000000000000, 0.000000000000000000, 1.000000000000000000 ) ) ;
#276 = CARTESIAN_POINT ( 'NONE',  ( 1.064901808347155610E-13, 0.000000000000000000, 30.50000000000000000 ) ) ;
#277 = AXIS2_PLACEMENT_3D ( 'NONE', #191, #187, #252 ) ;
#278 = PERSON_AND_ORGANIZATION_ROLE ( 'creator' ) ;
#279 = EDGE_LOOP ( 'NONE', ( #151 ) ) ;
#280 = PERSON_AND_ORGANIZATION ( #268, #310 ) ;
#281 = EDGE_CURVE ( 'NONE', #144, #144, #382, .T. ) ;
#282 = PERSON_AND_ORGANIZATION_ROLE ( 'design_supplier' ) ;
#283 = FACE_BOUND ( 'NONE', #274, .T. ) ;
#284 = AXIS2_PLACEMENT_3D ( 'NONE', #78, #213, #158 ) ;
#285 = DATE_AND_TIME ( #320, #332 ) ;
#286 = FACE_OUTER_BOUND ( 'NONE', #2, .T. ) ;
#287 = ADVANCED_FACE ( 'NONE', ( #138, #49 ), #81, .T. ) ;
#288 = FACE_OUTER_BOUND ( 'NONE', #235, .T. ) ;
#289 = DESIGN_CONTEXT ( 'detailed design', #193, 'design' ) ;
#290 = DIRECTION ( 'NONE',  ( 1.000000000000000000, 0.000000000000000000, -4.004634019736320698E-15 ) ) ;
#291 = AXIS2_PLACEMENT_3D ( 'NONE', #390, #169, #389 ) ;
#292 = DIRECTION ( 'NONE',  ( 1.000000000000000000, 0.000000000000000000, -3.491481338843133355E-15 ) ) ;
#293 = ADVANCED_FACE ( 'NONE', ( #225, #387 ), #262, .T. ) ;
#294 = DIRECTION ( 'NONE',  ( 1.000000000000000000, 0.000000000000000000, -3.504092498809183750E-15 ) ) ;
#295 = EDGE_LOOP ( 'NONE', ( #94 ) ) ;
#296 = DIRECTION ( 'NONE',  ( 3.491481338843133355E-15, -0.000000000000000000, 1.000000000000000000 ) ) ;
#297 = EDGE_LOOP ( 'NONE', ( #301 ) ) ;
#298 = VERTEX_POINT ( 'NONE', #140 ) ;
#299 = ORIENTED_EDGE ( 'NONE', *, *, #105, .T. ) ;
#300 = CARTESIAN_POINT ( 'NONE',  ( 3.825000000000003286, 0.000000000000000000, 0.8598958333333189819 ) ) ;
#301 = ORIENTED_EDGE ( 'NONE', *, *, #11, .T. ) ;
#302 = AXIS2_PLACEMENT_3D ( 'NONE', #254, #347, #321 ) ;
#303 = VERTEX_POINT ( 'NONE', #57 ) ;
#304 = EDGE_LOOP ( 'NONE', ( #58 ) ) ;
#305 = CC_DESIGN_PERSON_AND_ORGANIZATION_ASSIGNMENT ( #6, #8, ( #367 ) ) ;
#306 = CARTESIAN_POINT ( 'NONE',  ( 2.599074173711033886, 0.000000000000000000, 30.75881904510250209 ) ) ;
#307 = EDGE_LOOP ( 'NONE', ( #258 ) ) ;
#308 = ORIENTED_EDGE ( 'NONE', *, *, #71, .T. ) ;
#309 = CONICAL_SURFACE ( 'NONE', #69, 2.599074173710925972, 0.2617993877991427465 ) ;
#310 = ORGANIZATION ( 'UNSPECIFIED', 'UNSPECIFIED', '' ) ;
#311 = COORDINATED_UNIVERSAL_TIME_OFFSET ( 1, 0, .AHEAD. ) ;
#312 = EDGE_CURVE ( 'NONE', #170, #170, #107, .T. ) ;
#313 = DIRECTION ( 'NONE',  ( 1.000000000000000000, 0.000000000000000000, -3.429537339260052214E-15 ) ) ;
#314 = DATE_TIME_ROLE ( 'classification_date' ) ;
#315 = CYLINDRICAL_SURFACE ( 'NONE', #338, 2.908456447661463606 ) ;
#316 = CARTESIAN_POINT ( 'NONE',  ( 1.039261242265026995E-14, 0.000000000000000000, 2.976562500000001776 ) ) ;
#317 = PERSON_AND_ORGANIZATION_ROLE ( 'creator' ) ;
#318 = AXIS2_PLACEMENT_3D ( 'NONE', #18, #117, #272 ) ;
#319 = FACE_BOUND ( 'NONE', #337, .T. ) ;
#320 = CALENDAR_DATE ( 2023, 28, 9 ) ;
#321 = DIRECTION ( 'NONE',  ( -1.000000000000000000, 0.000000000000000000, 3.491481338843133355E-15 ) ) ;
#322 = CARTESIAN_POINT ( 'NONE',  ( 3.002310255432294614E-15, 0.000000000000000000, 0.8598958333333323045 ) ) ;
#323 = AXIS2_PLACEMENT_3D ( 'NONE', #329, #260, #106 ) ;
#324 = ADVANCED_FACE ( 'NONE', ( #223, #384 ), #198, .T. ) ;
#325 = ORIENTED_EDGE ( 'NONE', *, *, #222, .T. ) ;
#326 = DIRECTION ( 'NONE',  ( 1.000000000000000000, 0.000000000000000000, -3.504092498809184144E-15 ) ) ;
#327 = DIRECTION ( 'NONE',  ( 3.491481338843133355E-15, -0.000000000000000000, 1.000000000000000000 ) ) ;
#328 = EDGE_CURVE ( 'NONE', #298, #298, #125, .T. ) ;
#329 = CARTESIAN_POINT ( 'NONE',  ( 2.199633243471174140E-13, 0.000000000000000000, 63.00000000000000000 ) ) ;
#330 = ORIENTED_EDGE ( 'NONE', *, *, #343, .F. ) ;
#331 = CIRCLE ( 'NONE', #113, 2.564999999999996838 ) ;
#332 = LOCAL_TIME ( 8, 25, 30.00000000000000000, #376 ) ;
#333 = CARTESIAN_POINT ( 'NONE',  ( 3.200000000000211120, 0.000000000000000000, 62.99999999999998579 ) ) ;
#334 = EDGE_LOOP ( 'NONE', ( #271 ) ) ;
#335 = EDGE_LOOP ( 'NONE', ( #392 ) ) ;
#336 = VERTEX_POINT ( 'NONE', #300 ) ;
#337 = EDGE_LOOP ( 'NONE', ( #141 ) ) ;
#338 = AXIS2_PLACEMENT_3D ( 'NONE', #14, #39, #377 ) ;
#339 = CIRCLE ( 'NONE', #318, 2.908456447661464050 ) ;
#340 = CARTESIAN_POINT ( 'NONE',  ( 2.171701392760428821E-13, 0.000000000000000000, 62.19999999999999574 ) ) ;
#341 = APPROVAL_STATUS ( 'not_yet_approved' ) ;
#342 = ORIENTED_EDGE ( 'NONE', *, *, #111, .T. ) ;
#343 = EDGE_CURVE ( 'NONE', #336, #336, #393, .T. ) ;
#344 = SECURITY_CLASSIFICATION_LEVEL ( 'unclassified' ) ;
#345 = FACE_OUTER_BOUND ( 'NONE', #61, .T. ) ;
#346 = CONICAL_SURFACE ( 'NONE', #36, 2.564752615534514835, 1.047197551196599852 ) ;
#347 = DIRECTION ( 'NONE',  ( -3.491481338843133355E-15, 0.000000000000000000, -1.000000000000000000 ) ) ;
#348 = APPROVAL_ROLE ( '' ) ;
#349 = FACE_OUTER_BOUND ( 'NONE', #90, .T. ) ;
#350 = CARTESIAN_POINT ( 'NONE',  ( 1.108545325082693894E-14, 0.000000000000000000, 3.174999999999997158 ) ) ;
#351 = CIRCLE ( 'NONE', #175, 2.908456447661464050 ) ;
#352 = DIRECTION ( 'NONE',  ( 1.000000000000000000, 0.000000000000000000, -3.628179819036459014E-15 ) ) ;
#353 = CC_DESIGN_DATE_AND_TIME_ASSIGNMENT ( #182, #314, ( #367 ) ) ;
#354 = PLANE ( 'NONE',  #232 ) ;
#355 = CIRCLE ( 'NONE', #237, 2.908456447661463606 ) ;
#356 = DIRECTION ( 'NONE',  ( 1.000000000000000000, 0.000000000000000000, -3.469446951953614189E-15 ) ) ;
#357 = APPROVAL ( #37, 'UNSPECIFIED' ) ;
#358 = CARTESIAN_POINT ( 'NONE',  ( 8.545036880845764083E-15, 0.000000000000000000, 2.447395833333330994 ) ) ;
#359 = AXIS2_PLACEMENT_3D ( 'NONE', #358, #52, #104 ) ;
#360 = ADVANCED_BREP_SHAPE_REPRESENTATION ( '961087', ( #240, #136 ), #4 ) ;
#361 = ORIENTED_EDGE ( 'NONE', *, *, #222, .F. ) ;
#362 = DIRECTION ( 'NONE',  ( 1.000000000000000000, 0.000000000000000000, 0.000000000000000000 ) ) ;
#363 = CARTESIAN_POINT ( 'NONE',  ( 2.540416369981174460E-15, 0.000000000000000000, 0.7276041666666663854 ) ) ;
#364 = APPLICATION_PROTOCOL_DEFINITION ( 'international standard', 'config_control_design', 1994, #155 ) ;
#365 = DIRECTION ( 'NONE',  ( 1.000000000000000000, 0.000000000000000000, -3.486454044855347507E-15 ) ) ;
#366 = CONICAL_SURFACE ( 'NONE', #246, 2.908456447661464050, 1.047197551196602294 ) ;
#367 = SECURITY_CLASSIFICATION ( '', '', #344 ) ;
#368 = PERSON_AND_ORGANIZATION ( #268, #310 ) ;
#369 = EDGE_LOOP ( 'NONE', ( #242 ) ) ;
#370 = ADVANCED_FACE ( 'NONE', ( #256 ), #354, .F. ) ;
#371 = APPROVAL_ROLE ( '' ) ;
#372 = EDGE_LOOP ( 'NONE', ( #330 ) ) ;
#373 = SHAPE_DEFINITION_REPRESENTATION ( #273, #360 ) ;
#374 = CARTESIAN_POINT ( 'NONE',  ( 8.545036880845764083E-15, 0.000000000000000000, 2.447395833333330994 ) ) ;
#375 = CONICAL_SURFACE ( 'NONE', #10, 3.824999999999999734, 1.047197551196596521 ) ;
#376 = COORDINATED_UNIVERSAL_TIME_OFFSET ( 1, 0, .AHEAD. ) ;
#377 = DIRECTION ( 'NONE',  ( 1.000000000000000000, 0.000000000000000000, -4.771530211144421433E-15 ) ) ;
#378 = COORDINATED_UNIVERSAL_TIME_OFFSET ( 1, 0, .AHEAD. ) ;
#379 = EDGE_CURVE ( 'NONE', #145, #145, #339, .T. ) ;
#380 = CARTESIAN_POINT ( 'NONE',  ( 0.000000000000000000, 0.000000000000000000, 0.000000000000000000 ) ) ;
#381 = CARTESIAN_POINT ( 'NONE',  ( 2.199633243471174140E-13, 0.000000000000000000, 63.00000000000000000 ) ) ;
#382 = CIRCLE ( 'NONE', #230, 4.000000000000000000 ) ;
#383 = CC_DESIGN_SECURITY_CLASSIFICATION ( #367, ( #77 ) ) ;
#384 = FACE_OUTER_BOUND ( 'NONE', #297, .T. ) ;
#385 = APPROVAL ( #341, 'UNSPECIFIED' ) ;
#386 = PLANE ( 'NONE',  #131 ) ;
#387 = FACE_OUTER_BOUND ( 'NONE', #146, .T. ) ;
#388 = AXIS2_PLACEMENT_3D ( 'NONE', #74, #80, #326 ) ;
#389 = DIRECTION ( 'NONE',  ( 1.000000000000000000, 0.000000000000000000, -3.469446951953617344E-15 ) ) ;
#390 = CARTESIAN_POINT ( 'NONE',  ( 2.171701392760428821E-13, 0.000000000000000000, 62.19999999999999574 ) ) ;
#391 = VERTEX_POINT ( 'NONE', #34 ) ;
#392 = ORIENTED_EDGE ( 'NONE', *, *, #379, .F. ) ;
#393 = CIRCLE ( 'NONE', #215, 3.825000000000000178 ) ;
#394 = CC_DESIGN_PERSON_AND_ORGANIZATION_ASSIGNMENT ( #185, #278, ( #259 ) ) ;
#395 = EDGE_LOOP ( 'NONE', ( #342 ) ) ;
ENDSEC;
END-ISO-10303-21;
