ISO-10303-21;
HEADER;
FILE_DESCRIPTION (( 'STEP AP203' ),
    '1' );
FILE_NAME ('961086.step',
    '2023-09-28T06:25:30',
    ( '' ),
    ( '' ),
    'SwSTEP 2.0',
    'SolidWorks 2022',
    '' );
FILE_SCHEMA (( 'CONFIG_CONTROL_DESIGN' ));
ENDSEC;

DATA;
#1 = CC_DESIGN_PERSON_AND_ORGANIZATION_ASSIGNMENT ( #312, #283, ( #208 ) ) ;
#2 = CALENDAR_DATE ( 2023, 28, 9 ) ;
#3 = DIRECTION ( 'NONE',  ( 1.000000000000000000, 0.000000000000000000, -3.378112627438032512E-15 ) ) ;
#4 = PERSON_AND_ORGANIZATION ( #340, #156 ) ;
#5 = DIRECTION ( 'NONE',  ( 1.000000000000000000, 0.000000000000000000, -3.378112627438032512E-15 ) ) ;
#6 = SHAPE_DEFINITION_REPRESENTATION ( #175, #304 ) ;
#7 = AXIS2_PLACEMENT_3D ( 'NONE', #266, #17, #222 ) ;
#8 = CARTESIAN_POINT ( 'NONE',  ( 8.958728787272821936E-14, 0.000000000000000000, 25.65881904510251843 ) ) ;
#9 = DIRECTION ( 'NONE',  ( -3.491481338843133355E-15, 0.000000000000000000, -1.000000000000000000 ) ) ;
#10 = VERTEX_POINT ( 'NONE', #292 ) ;
#11 = CARTESIAN_POINT ( 'NONE',  ( 2.668720227050923638E-15, 0.000000000000000000, 0.7643518518518493954 ) ) ;
#12 = CIRCLE ( 'NONE', #234, 2.020000000000000018 ) ;
#13 = DIRECTION ( 'NONE',  ( 1.000000000000000000, 0.000000000000000000, -3.487401892389679659E-15 ) ) ;
#14 = EDGE_CURVE ( 'NONE', #161, #161, #357, .T. ) ;
#15 = DIRECTION ( 'NONE',  ( 3.491481338843133355E-15, -0.000000000000000000, 1.000000000000000000 ) ) ;
#16 = FACE_BOUND ( 'NONE', #119, .T. ) ;
#17 = DIRECTION ( 'NONE',  ( 3.491481338843133355E-15, -0.000000000000000000, 1.000000000000000000 ) ) ;
#18 = VERTEX_POINT ( 'NONE', #41 ) ;
#19 = ADVANCED_FACE ( 'NONE', ( #246, #64 ), #183, .T. ) ;
#20 = DIRECTION ( 'NONE',  ( 3.491481338843133355E-15, -0.000000000000000000, 1.000000000000000000 ) ) ;
#21 = CIRCLE ( 'NONE', #26, 3.140000000000000124 ) ;
#22 = DIRECTION ( 'NONE',  ( 0.000000000000000000, 0.000000000000000000, 1.000000000000000000 ) ) ;
#23 = EDGE_LOOP ( 'NONE', ( #176 ) ) ;
#24 =( NAMED_UNIT ( * ) PLANE_ANGLE_UNIT ( ) SI_UNIT ( $, .RADIAN. ) );
#25 = EDGE_LOOP ( 'NONE', ( #85 ) ) ;
#26 = AXIS2_PLACEMENT_3D ( 'NONE', #101, #330, #160 ) ;
#27 = ADVANCED_FACE ( 'NONE', ( #282 ), #180, .F. ) ;
#28 = ORIENTED_EDGE ( 'NONE', *, *, #56, .T. ) ;
#29 = CC_DESIGN_PERSON_AND_ORGANIZATION_ASSIGNMENT ( #303, #205, ( #239 ) ) ;
#30 = ORIENTED_EDGE ( 'NONE', *, *, #212, .T. ) ;
#31 = CIRCLE ( 'NONE', #257, 2.019999999999997353 ) ;
#32 = DIRECTION ( 'NONE',  ( 1.000000000000000000, 0.000000000000000000, -3.491481338843133355E-15 ) ) ;
#33 = DATE_AND_TIME ( #2, #259 ) ;
#34 = DIRECTION ( 'NONE',  ( 3.491481338843133355E-15, -0.000000000000000000, 1.000000000000000000 ) ) ;
#35 = ADVANCED_FACE ( 'NONE', ( #280, #66 ), #298, .T. ) ;
#36 = PERSON_AND_ORGANIZATION_ROLE ( 'creator' ) ;
#37 = EDGE_LOOP ( 'NONE', ( #209 ) ) ;
#38 = AXIS2_PLACEMENT_3D ( 'NONE', #11, #198, #13 ) ;
#39 = CARTESIAN_POINT ( 'NONE',  ( 2.199633243471174140E-13, 0.000000000000000000, 63.00000000000000000 ) ) ;
#40 = CARTESIAN_POINT ( 'NONE',  ( 3.140000000000007230, 0.000000000000000000, 2.057870370370358692 ) ) ;
#41 = CARTESIAN_POINT ( 'NONE',  ( 2.325294620143527613, 0.000000000000000000, 1.234722222222212284 ) ) ;
#42 = DIRECTION ( 'NONE',  ( 1.000000000000000000, 0.000000000000000000, -4.419677645800781869E-15 ) ) ;
#43 = AXIS2_PLACEMENT_3D ( 'NONE', #60, #22, #112 ) ;
#44 = AXIS2_PLACEMENT_3D ( 'NONE', #105, #225, #135 ) ;
#45 = CARTESIAN_POINT ( 'NONE',  ( 2.199633243471174140E-13, 0.000000000000000000, 63.00000000000000000 ) ) ;
#46 = CC_DESIGN_APPROVAL ( #358, ( #360 ) ) ;
#47 = CARTESIAN_POINT ( 'NONE',  ( 7.595588338529573859E-15, 0.000000000000000000, 2.175462962962962266 ) ) ;
#48 = DIRECTION ( 'NONE',  ( -1.000000000000000000, 0.000000000000000000, 3.469446951953617344E-15 ) ) ;
#49 = EDGE_CURVE ( 'NONE', #166, #166, #337, .T. ) ;
#50 = DIRECTION ( 'NONE',  ( -3.491481338843133355E-15, 0.000000000000000000, -1.000000000000000000 ) ) ;
#51 = CARTESIAN_POINT ( 'NONE',  ( 5.542726625413469468E-15, 0.000000000000000000, 1.587499999999998579 ) ) ;
#52 =( LENGTH_UNIT ( ) NAMED_UNIT ( * ) SI_UNIT ( .MILLI., .METRE. ) );
#53 = AXIS2_PLACEMENT_3D ( 'NONE', #51, #20, #268 ) ;
#54 = EDGE_LOOP ( 'NONE', ( #336 ) ) ;
#55 = APPLICATION_CONTEXT ( 'configuration controlled 3d designs of mechanical parts and assemblies' ) ;
#56 = EDGE_CURVE ( 'NONE', #323, #323, #383, .T. ) ;
#57 = EDGE_LOOP ( 'NONE', ( #110 ) ) ;
#58 = EDGE_LOOP ( 'NONE', ( #116 ) ) ;
#59 = AXIS2_PLACEMENT_3D ( 'NONE', #201, #393, #148 ) ;
#60 = CARTESIAN_POINT ( 'NONE',  ( 0.000000000000000000, 0.000000000000000000, 0.000000000000000000 ) ) ;
#61 = ORIENTED_EDGE ( 'NONE', *, *, #164, .F. ) ;
#62 = ADVANCED_FACE ( 'NONE', ( #251, #154 ), #279, .T. ) ;
#63 = EDGE_LOOP ( 'NONE', ( #237 ) ) ;
#64 = FACE_OUTER_BOUND ( 'NONE', #114, .T. ) ;
#65 = APPROVAL_STATUS ( 'not_yet_approved' ) ;
#66 = FACE_BOUND ( 'NONE', #63, .T. ) ;
#67 = DATE_TIME_ROLE ( 'classification_date' ) ;
#68 = DIRECTION ( 'NONE',  ( -1.000000000000000000, 0.000000000000000000, 3.487401892389679659E-15 ) ) ;
#69 = EDGE_LOOP ( 'NONE', ( #270 ) ) ;
#70 = CIRCLE ( 'NONE', #125, 2.019780102697346980 ) ;
#71 = FACE_OUTER_BOUND ( 'NONE', #366, .T. ) ;
#72 = ADVANCED_FACE ( 'NONE', ( #247, #320 ), #126, .T. ) ;
#73 = DIRECTION ( 'NONE',  ( 3.491481338843133355E-15, -0.000000000000000000, 1.000000000000000000 ) ) ;
#74 = DIRECTION ( 'NONE',  ( 1.000000000000000000, 0.000000000000000000, -3.435095992033285905E-15 ) ) ;
#75 = DIRECTION ( 'NONE',  ( 1.000000000000000000, 0.000000000000000000, -3.469446951953617344E-15 ) ) ;
#76 = AXIS2_PLACEMENT_3D ( 'NONE', #165, #108, #162 ) ;
#77 = FACE_OUTER_BOUND ( 'NONE', #275, .T. ) ;
#78 = PRODUCT_DEFINITION ( 'UNKNOWN', '', #208, #145 ) ;
#79 = DIRECTION ( 'NONE',  ( 3.491481338843133355E-15, -0.000000000000000000, 1.000000000000000000 ) ) ;
#80 = CARTESIAN_POINT ( 'NONE',  ( 3.140000000000007674, 0.000000000000000000, 2.175462962962951607 ) ) ;
#81 = DIRECTION ( 'NONE',  ( 3.491481338843133355E-15, -0.000000000000000000, 1.000000000000000000 ) ) ;
#82 = MECHANICAL_CONTEXT ( 'NONE', #55, 'mechanical' ) ;
#83 = CIRCLE ( 'NONE', #59, 3.199999999999990852 ) ;
#84 = APPLICATION_PROTOCOL_DEFINITION ( 'international standard', 'config_control_design', 1994, #55 ) ;
#85 = ORIENTED_EDGE ( 'NONE', *, *, #14, .F. ) ;
#86 = CARTESIAN_POINT ( 'NONE',  ( 3.140000000000002345, 0.000000000000000000, 0.6467592592592457112 ) ) ;
#87 = ORIENTED_EDGE ( 'NONE', *, *, #56, .F. ) ;
#88 = CIRCLE ( 'NONE', #7, 2.325294620143523172 ) ;
#89 = EDGE_LOOP ( 'NONE', ( #87 ) ) ;
#90 = COORDINATED_UNIVERSAL_TIME_OFFSET ( 1, 0, .AHEAD. ) ;
#91 = ORIENTED_EDGE ( 'NONE', *, *, #179, .T. ) ;
#92 = DIRECTION ( 'NONE',  ( 3.491481338843133355E-15, -0.000000000000000000, 1.000000000000000000 ) ) ;
#93 = AXIS2_PLACEMENT_3D ( 'NONE', #328, #224, #293 ) ;
#94 = DATE_AND_TIME ( #372, #391 ) ;
#95 = EDGE_LOOP ( 'NONE', ( #61 ) ) ;
#96 = EDGE_LOOP ( 'NONE', ( #307 ) ) ;
#97 = VERTEX_POINT ( 'NONE', #288 ) ;
#98 = ORIENTED_EDGE ( 'NONE', *, *, #14, .T. ) ;
#99 = APPROVAL ( #65, 'UNSPECIFIED' ) ;
#100 = TOROIDAL_SURFACE ( 'NONE', #346, 3.019999999999997353, 1.000000000000000000 ) ;
#101 = CARTESIAN_POINT ( 'NONE',  ( 7.595588338529573859E-15, 0.000000000000000000, 2.175462962962962266 ) ) ;
#102 = CARTESIAN_POINT ( 'NONE',  ( 2.171701392760428821E-13, 0.000000000000000000, 62.19999999999999574 ) ) ;
#103 = CARTESIAN_POINT ( 'NONE',  ( 8.868362600661558722E-14, 0.000000000000000000, 25.39999999999999858 ) ) ;
#104 = ADVANCED_FACE ( 'NONE', ( #376, #318 ), #186, .T. ) ;
#105 = CARTESIAN_POINT ( 'NONE',  ( 9.853736222957287820E-15, 2.325294620143522728, 2.822222222222221966 ) ) ;
#106 = DIRECTION ( 'NONE',  ( 1.000000000000000000, 0.000000000000000000, -3.435095992033281172E-15 ) ) ;
#107 = CONICAL_SURFACE ( 'NONE', #113, 3.140000000000000124, 1.047197551196599852 ) ;
#108 = DIRECTION ( 'NONE',  ( 3.491481338843133355E-15, -0.000000000000000000, 1.000000000000000000 ) ) ;
#109 = FACE_OUTER_BOUND ( 'NONE', #54, .T. ) ;
#110 = ORIENTED_EDGE ( 'NONE', *, *, #164, .T. ) ;
#111 = ADVANCED_FACE ( 'NONE', ( #128, #71 ), #377, .T. ) ;
#112 = DIRECTION ( 'NONE',  ( 1.000000000000000000, 0.000000000000000000, 0.000000000000000000 ) ) ;
#113 = AXIS2_PLACEMENT_3D ( 'NONE', #47, #329, #378 ) ;
#114 = EDGE_LOOP ( 'NONE', ( #118 ) ) ;
#115 = CALENDAR_DATE ( 2023, 28, 9 ) ;
#116 = ORIENTED_EDGE ( 'NONE', *, *, #229, .F. ) ;
#117 = ADVANCED_FACE ( 'NONE', ( #386, #167 ), #250, .T. ) ;
#118 = ORIENTED_EDGE ( 'NONE', *, *, #229, .T. ) ;
#119 = EDGE_LOOP ( 'NONE', ( #144 ) ) ;
#120 = CIRCLE ( 'NONE', #76, 2.325294620143523172 ) ;
#121 = ORIENTED_EDGE ( 'NONE', *, *, #153, .T. ) ;
#122 = DATE_AND_TIME ( #214, #374 ) ;
#123 = CALENDAR_DATE ( 2023, 28, 9 ) ;
#124 = CARTESIAN_POINT ( 'NONE',  ( -2.186438884521502176E-32, 0.000000000000000000, -6.262209854015592025E-18 ) ) ;
#125 = AXIS2_PLACEMENT_3D ( 'NONE', #262, #196, #131 ) ;
#126 = CYLINDRICAL_SURFACE ( 'NONE', #291, 3.140000000000000124 ) ;
#127 = CARTESIAN_POINT ( 'NONE',  ( 2.199633243471174140E-13, 0.000000000000000000, 63.00000000000000000 ) ) ;
#128 = FACE_OUTER_BOUND ( 'NONE', #207, .T. ) ;
#129 = CC_DESIGN_PERSON_AND_ORGANIZATION_ASSIGNMENT ( #367, #309, ( #360 ) ) ;
#130 = FACE_OUTER_BOUND ( 'NONE', #308, .T. ) ;
#131 = DIRECTION ( 'NONE',  ( 1.000000000000000000, 0.000000000000000000, -3.491481338843132566E-15 ) ) ;
#132 = AXIS2_PLACEMENT_3D ( 'NONE', #228, #348, #354 ) ;
#133 = FACE_OUTER_BOUND ( 'NONE', #89, .T. ) ;
#134 = AXIS2_PLACEMENT_3D ( 'NONE', #339, #284, #159 ) ;
#135 = DIRECTION ( 'NONE',  ( -1.000000000000000000, 0.000000000000000000, 3.491481338843133355E-15 ) ) ;
#136 = PLANE ( 'NONE',  #44 ) ;
#137 = CYLINDRICAL_SURFACE ( 'NONE', #365, 2.019999999999998685 ) ;
#138 = VERTEX_POINT ( 'NONE', #146 ) ;
#139 = CC_DESIGN_DATE_AND_TIME_ASSIGNMENT ( #211, #285, ( #78 ) ) ;
#140 = CARTESIAN_POINT ( 'NONE',  ( 2.325294620143528945, 0.000000000000000000, 1.587499999999990585 ) ) ;
#141 = AXIS2_PLACEMENT_3D ( 'NONE', #313, #215, #347 ) ;
#142 = ORIENTED_EDGE ( 'NONE', *, *, #258, .F. ) ;
#143 = LOCAL_TIME ( 8, 25, 30.00000000000000000, #392 ) ;
#144 = ORIENTED_EDGE ( 'NONE', *, *, #370, .F. ) ;
#145 = DESIGN_CONTEXT ( 'detailed design', #192, 'design' ) ;
#146 = CARTESIAN_POINT ( 'NONE',  ( 2.325294620143532498, 0.000000000000000000, 2.645833333333325044 ) ) ;
#147 = ADVANCED_FACE ( 'NONE', ( #231, #349 ), #332, .T. ) ;
#148 = DIRECTION ( 'NONE',  ( 1.000000000000000000, 0.000000000000000000, -4.336808689942030358E-15 ) ) ;
#149 = ORIENTED_EDGE ( 'NONE', *, *, #153, .F. ) ;
#150 = APPROVAL_ROLE ( '' ) ;
#151 = CARTESIAN_POINT ( 'NONE',  ( 2.199633243471174140E-13, 0.000000000000000000, 63.00000000000000000 ) ) ;
#152 = ORIENTED_EDGE ( 'NONE', *, *, #219, .F. ) ;
#153 = EDGE_CURVE ( 'NONE', #18, #18, #120, .T. ) ;
#154 = FACE_OUTER_BOUND ( 'NONE', #232, .T. ) ;
#155 = APPROVAL_STATUS ( 'not_yet_approved' ) ;
#156 = ORGANIZATION ( 'UNSPECIFIED', 'UNSPECIFIED', '' ) ;
#157 = APPROVAL_PERSON_ORGANIZATION ( #248, #99, #281 ) ;
#158 = ADVANCED_FACE ( 'NONE', ( #382, #109 ), #100, .F. ) ;
#159 = DIRECTION ( 'NONE',  ( 1.000000000000000000, 0.000000000000000000, -5.968184714140819856E-15 ) ) ;
#160 = DIRECTION ( 'NONE',  ( 1.000000000000000000, 0.000000000000000000, -3.452873160781861205E-15 ) ) ;
#161 = VERTEX_POINT ( 'NONE', #353 ) ;
#162 = DIRECTION ( 'NONE',  ( 1.000000000000000000, 0.000000000000000000, -3.450356787862660764E-15 ) ) ;
#163 = DIRECTION ( 'NONE',  ( 1.000000000000000000, 0.000000000000000000, -6.870191984066567077E-15 ) ) ;
#164 = EDGE_CURVE ( 'NONE', #97, #97, #173, .T. ) ;
#165 = CARTESIAN_POINT ( 'NONE',  ( 4.311009597543806519E-15, 0.000000000000000000, 1.234722222222220278 ) ) ;
#166 = VERTEX_POINT ( 'NONE', #223 ) ;
#167 = FACE_BOUND ( 'NONE', #204, .T. ) ;
#168 = CIRCLE ( 'NONE', #325, 3.140000000000000124 ) ;
#169 = ADVANCED_FACE ( 'NONE', ( #77, #356 ), #137, .T. ) ;
#170 = FACE_OUTER_BOUND ( 'NONE', #244, .T. ) ;
#171 = EDGE_LOOP ( 'NONE', ( #98 ) ) ;
#172 = EDGE_LOOP ( 'NONE', ( #213 ) ) ;
#173 = CIRCLE ( 'NONE', #242, 2.325294620143522728 ) ;
#174 = EDGE_LOOP ( 'NONE', ( #121 ) ) ;
#175 = PRODUCT_DEFINITION_SHAPE ( 'NONE', 'NONE',  #78 ) ;
#176 = ORIENTED_EDGE ( 'NONE', *, *, #219, .T. ) ;
#177 = APPROVAL_DATE_TIME ( #122, #358 ) ;
#178 = EDGE_LOOP ( 'NONE', ( #152 ) ) ;
#179 = EDGE_CURVE ( 'NONE', #10, #10, #187, .T. ) ;
#180 = PLANE ( 'NONE',  #361 ) ;
#181 = AXIS2_PLACEMENT_3D ( 'NONE', #102, #15, #75 ) ;
#182 = COORDINATED_UNIVERSAL_TIME_OFFSET ( 1, 0, .AHEAD. ) ;
#183 = CYLINDRICAL_SURFACE ( 'NONE', #134, 2.325294620143522728 ) ;
#184 = PERSON_AND_ORGANIZATION ( #340, #156 ) ;
#185 = CARTESIAN_POINT ( 'NONE',  ( 2.199633243471174140E-13, 0.000000000000000000, 63.00000000000000000 ) ) ;
#186 = CYLINDRICAL_SURFACE ( 'NONE', #351, 2.325294620143523172 ) ;
#187 = CIRCLE ( 'NONE', #38, 3.140000000000000124 ) ;
#188 = ORIENTED_EDGE ( 'NONE', *, *, #277, .T. ) ;
#189 = PLANE ( 'NONE',  #341 ) ;
#190 = DIRECTION ( 'NONE',  ( 3.491481338843133355E-15, -0.000000000000000000, 1.000000000000000000 ) ) ;
#191 = DIRECTION ( 'NONE',  ( 3.491481338843133355E-15, -0.000000000000000000, 1.000000000000000000 ) ) ;
#192 = APPLICATION_CONTEXT ( 'configuration controlled 3d designs of mechanical parts and assemblies' ) ;
#193 = CARTESIAN_POINT ( 'NONE',  ( 2.171701392760428821E-13, 0.000000000000000000, 62.19999999999999574 ) ) ;
#194 = ADVANCED_FACE ( 'NONE', ( #16, #295 ), #136, .F. ) ;
#195 = VERTEX_POINT ( 'NONE', #261 ) ;
#196 = DIRECTION ( 'NONE',  ( 3.491481338843133355E-15, -0.000000000000000000, 1.000000000000000000 ) ) ;
#197 = DIRECTION ( 'NONE',  ( 3.491481338843133355E-15, -0.000000000000000000, 1.000000000000000000 ) ) ;
#198 = DIRECTION ( 'NONE',  ( 3.491481338843133355E-15, -0.000000000000000000, 1.000000000000000000 ) ) ;
#199 = CC_DESIGN_PERSON_AND_ORGANIZATION_ASSIGNMENT ( #362, #369, ( #78 ) ) ;
#200 = VERTEX_POINT ( 'NONE', #140 ) ;
#201 = CARTESIAN_POINT ( 'NONE',  ( 2.199633243471174140E-13, 0.000000000000000000, 63.00000000000000000 ) ) ;
#202 = PERSON_AND_ORGANIZATION ( #340, #156 ) ;
#203 = AXIS2_PLACEMENT_3D ( 'NONE', #193, #379, #48 ) ;
#204 = EDGE_LOOP ( 'NONE', ( #30 ) ) ;
#205 = PERSON_AND_ORGANIZATION_ROLE ( 'design_owner' ) ;
#206 = FACE_OUTER_BOUND ( 'NONE', #171, .T. ) ;
#207 = EDGE_LOOP ( 'NONE', ( #394 ) ) ;
#208 = PRODUCT_DEFINITION_FORMATION_WITH_SPECIFIED_SOURCE ( 'ANY', '', #239, .NOT_KNOWN. ) ;
#209 = ORIENTED_EDGE ( 'NONE', *, *, #265, .T. ) ;
#210 = AXIS2_PLACEMENT_3D ( 'NONE', #345, #218, #3 ) ;
#211 = DATE_AND_TIME ( #123, #385 ) ;
#212 = EDGE_CURVE ( 'NONE', #195, #195, #70, .T. ) ;
#213 = ORIENTED_EDGE ( 'NONE', *, *, #277, .F. ) ;
#214 = CALENDAR_DATE ( 2023, 28, 9 ) ;
#215 = DIRECTION ( 'NONE',  ( 3.491481338843133355E-15, -0.000000000000000000, 1.000000000000000000 ) ) ;
#216 =( GEOMETRIC_REPRESENTATION_CONTEXT ( 3 ) GLOBAL_UNCERTAINTY_ASSIGNED_CONTEXT ( ( #230 ) ) GLOBAL_UNIT_ASSIGNED_CONTEXT ( ( #52, #24, #297 ) ) REPRESENTATION_CONTEXT ( 'NONE', 'WORKASPACE' ) );
#217 = COORDINATED_UNIVERSAL_TIME_OFFSET ( 1, 0, .AHEAD. ) ;
#218 = DIRECTION ( 'NONE',  ( 3.491481338843133355E-15, -0.000000000000000000, 1.000000000000000000 ) ) ;
#219 = EDGE_CURVE ( 'NONE', #355, #355, #21, .T. ) ;
#220 = DIRECTION ( 'NONE',  ( 1.000000000000000000, 0.000000000000000000, -3.452873160781861205E-15 ) ) ;
#221 = CARTESIAN_POINT ( 'NONE',  ( 7.185015995906353138E-15, 0.000000000000000000, 2.057870370370369795 ) ) ;
#222 = DIRECTION ( 'NONE',  ( 1.000000000000000000, 0.000000000000000000, -3.543609674021111247E-15 ) ) ;
#223 = CARTESIAN_POINT ( 'NONE',  ( 2.054074173711017526, 0.000000000000000000, 25.65881904510251132 ) ) ;
#224 = DIRECTION ( 'NONE',  ( 3.491481338843133355E-15, -0.000000000000000000, 1.000000000000000000 ) ) ;
#225 = DIRECTION ( 'NONE',  ( -3.491481338843133355E-15, 0.000000000000000000, -1.000000000000000000 ) ) ;
#226 = CIRCLE ( 'NONE', #53, 2.325294620143523172 ) ;
#227 = CARTESIAN_POINT ( 'NONE',  ( 2.199633243471174140E-13, 3.199999999999990852, 63.00000000000000000 ) ) ;
#228 = CARTESIAN_POINT ( 'NONE',  ( 5.542726625413469468E-15, 0.000000000000000000, 1.587499999999998579 ) ) ;
#229 = EDGE_CURVE ( 'NONE', #138, #138, #88, .T. ) ;
#230 = UNCERTAINTY_MEASURE_WITH_UNIT (LENGTH_MEASURE( 1.000000000000000082E-05 ), #52, 'distance_accuracy_value', 'NONE');
#231 = FACE_BOUND ( 'NONE', #172, .T. ) ;
#232 = EDGE_LOOP ( 'NONE', ( #91 ) ) ;
#233 = CARTESIAN_POINT ( 'NONE',  ( 2.020000000000086171, 0.000000000000000000, 25.39999999999999147 ) ) ;
#234 = AXIS2_PLACEMENT_3D ( 'NONE', #263, #197, #106 ) ;
#235 = EDGE_LOOP ( 'NONE', ( #149 ) ) ;
#236 = APPROVAL_DATE_TIME ( #306, #249 ) ;
#237 = ORIENTED_EDGE ( 'NONE', *, *, #49, .T. ) ;
#238 = APPLICATION_PROTOCOL_DEFINITION ( 'international standard', 'config_control_design', 1994, #192 ) ;
#239 = PRODUCT ( '961086', '961086', '', ( #82 ) ) ;
#240 = ORIENTED_EDGE ( 'NONE', *, *, #363, .T. ) ;
#241 = AXIS2_PLACEMENT_3D ( 'NONE', #8, #92, #5 ) ;
#242 = AXIS2_PLACEMENT_3D ( 'NONE', #256, #190, #350 ) ;
#243 = CC_DESIGN_SECURITY_CLASSIFICATION ( #360, ( #208 ) ) ;
#244 = EDGE_LOOP ( 'NONE', ( #286 ) ) ;
#245 = ADVANCED_FACE ( 'NONE', ( #133, #384 ), #296, .T. ) ;
#246 = FACE_OUTER_BOUND ( 'NONE', #95, .T. ) ;
#247 = FACE_OUTER_BOUND ( 'NONE', #178, .T. ) ;
#248 = PERSON_AND_ORGANIZATION ( #340, #156 ) ;
#249 = APPROVAL ( #335, 'UNSPECIFIED' ) ;
#250 = CONICAL_SURFACE ( 'NONE', #93, 2.019780102697346980, 1.047197551196601184 ) ;
#251 = FACE_BOUND ( 'NONE', #235, .T. ) ;
#252 = MANIFOLD_SOLID_BREP ( 'Corps-Déplacer/Copier1', #254 ) ;
#253 = DIRECTION ( 'NONE',  ( 1.000000000000000000, 0.000000000000000000, -4.419677645800781869E-15 ) ) ;
#254 = CLOSED_SHELL ( 'NONE', ( #27, #117, #111, #62, #104, #245, #72, #326, #19, #194, #169, #158, #35, #299, #147, #387 ) ) ;
#255 = FACE_OUTER_BOUND ( 'NONE', #23, .T. ) ;
#256 = CARTESIAN_POINT ( 'NONE',  ( 9.853736222957276776E-15, 0.000000000000000000, 2.822222222222218857 ) ) ;
#257 = AXIS2_PLACEMENT_3D ( 'NONE', #103, #81, #74 ) ;
#258 = EDGE_CURVE ( 'NONE', #269, #269, #168, .T. ) ;
#259 = LOCAL_TIME ( 8, 25, 30.00000000000000000, #90 ) ;
#260 = DIRECTION ( 'NONE',  ( 3.491481338843133355E-15, -0.000000000000000000, 1.000000000000000000 ) ) ;
#261 = CARTESIAN_POINT ( 'NONE',  ( 2.019780102697346980, 0.000000000000000000, -7.052024537134453027E-15 ) ) ;
#262 = CARTESIAN_POINT ( 'NONE',  ( 0.000000000000000000, 0.000000000000000000, 0.000000000000000000 ) ) ;
#263 = CARTESIAN_POINT ( 'NONE',  ( 9.853736222957276776E-15, 0.000000000000000000, 2.822222222222218857 ) ) ;
#264 = AXIS2_PLACEMENT_3D ( 'NONE', #221, #34, #220 ) ;
#265 = EDGE_CURVE ( 'NONE', #200, #200, #226, .T. ) ;
#266 = CARTESIAN_POINT ( 'NONE',  ( 9.237877709022456740E-15, 0.000000000000000000, 2.645833333333333481 ) ) ;
#267 = DIRECTION ( 'NONE',  ( 1.000000000000000000, 0.000000000000000000, -3.469446951953615767E-15 ) ) ;
#268 = DIRECTION ( 'NONE',  ( 1.000000000000000000, 0.000000000000000000, -3.450356787862660764E-15 ) ) ;
#269 = VERTEX_POINT ( 'NONE', #86 ) ;
#270 = ORIENTED_EDGE ( 'NONE', *, *, #370, .T. ) ;
#271 = CARTESIAN_POINT ( 'NONE',  ( 2.020000000000010232, 0.000000000000000000, 2.822222222222212196 ) ) ;
#272 = EDGE_CURVE ( 'NONE', #276, #276, #31, .T. ) ;
#273 = APPROVAL_PERSON_ORGANIZATION ( #202, #249, #274 ) ;
#274 = APPROVAL_ROLE ( '' ) ;
#275 = EDGE_LOOP ( 'NONE', ( #395 ) ) ;
#276 = VERTEX_POINT ( 'NONE', #233 ) ;
#277 = EDGE_CURVE ( 'NONE', #390, #390, #83, .T. ) ;
#278 = EDGE_LOOP ( 'NONE', ( #142 ) ) ;
#279 = CONICAL_SURFACE ( 'NONE', #302, 3.140000000000000124, 1.047197551196599852 ) ;
#280 = FACE_OUTER_BOUND ( 'NONE', #25, .T. ) ;
#281 = APPROVAL_ROLE ( '' ) ;
#282 = FACE_OUTER_BOUND ( 'NONE', #96, .T. ) ;
#283 = PERSON_AND_ORGANIZATION_ROLE ( 'design_supplier' ) ;
#284 = DIRECTION ( 'NONE',  ( 3.491481338843133355E-15, -0.000000000000000000, 1.000000000000000000 ) ) ;
#285 = DATE_TIME_ROLE ( 'creation_date' ) ;
#286 = ORIENTED_EDGE ( 'NONE', *, *, #363, .F. ) ;
#287 = DIRECTION ( 'NONE',  ( 3.491481338843133355E-15, -0.000000000000000000, 1.000000000000000000 ) ) ;
#288 = CARTESIAN_POINT ( 'NONE',  ( 2.325294620143532942, 0.000000000000000000, 2.822222222222210863 ) ) ;
#289 = CARTESIAN_POINT ( 'NONE',  ( 2.258147884427702917E-15, 0.000000000000000000, 0.6467592592592565914 ) ) ;
#290 = PRODUCT_RELATED_PRODUCT_CATEGORY ( 'detail', '', ( #239 ) ) ;
#291 = AXIS2_PLACEMENT_3D ( 'NONE', #185, #315, #253 ) ;
#292 = CARTESIAN_POINT ( 'NONE',  ( 3.140000000000002789, 0.000000000000000000, 0.7643518518518384042 ) ) ;
#293 = DIRECTION ( 'NONE',  ( 1.000000000000000000, 0.000000000000000000, -3.491481338843132566E-15 ) ) ;
#294 = CARTESIAN_POINT ( 'NONE',  ( 8.868362600661558722E-14, 0.000000000000000000, 25.39999999999999858 ) ) ;
#295 = FACE_OUTER_BOUND ( 'NONE', #57, .T. ) ;
#296 = CONICAL_SURFACE ( 'NONE', #132, 2.325294620143523172, 1.047197551196599852 ) ;
#297 =( NAMED_UNIT ( * ) SI_UNIT ( $, .STERADIAN. ) SOLID_ANGLE_UNIT ( ) );
#298 = CONICAL_SURFACE ( 'NONE', #210, 2.054074173710927820, 0.2617993877991424689 ) ;
#299 = ADVANCED_FACE ( 'NONE', ( #170, #206 ), #316, .T. ) ;
#300 = ORIENTED_EDGE ( 'NONE', *, *, #265, .F. ) ;
#301 = CARTESIAN_POINT ( 'NONE',  ( 4.000000000000213163, 0.000000000000000000, 62.19999999999998153 ) ) ;
#302 = AXIS2_PLACEMENT_3D ( 'NONE', #344, #9, #68 ) ;
#303 = PERSON_AND_ORGANIZATION ( #340, #156 ) ;
#304 = ADVANCED_BREP_SHAPE_REPRESENTATION ( '961086', ( #252, #43 ), #216 ) ;
#305 = CC_DESIGN_APPROVAL ( #99, ( #208 ) ) ;
#306 = DATE_AND_TIME ( #115, #143 ) ;
#307 = ORIENTED_EDGE ( 'NONE', *, *, #212, .F. ) ;
#308 = EDGE_LOOP ( 'NONE', ( #188 ) ) ;
#309 = PERSON_AND_ORGANIZATION_ROLE ( 'classification_officer' ) ;
#310 = AXIS2_PLACEMENT_3D ( 'NONE', #127, #191, #267 ) ;
#311 = DIRECTION ( 'NONE',  ( 3.491481338843133355E-15, -0.000000000000000000, 1.000000000000000000 ) ) ;
#312 = PERSON_AND_ORGANIZATION ( #340, #156 ) ;
#313 = CARTESIAN_POINT ( 'NONE',  ( 1.149434520306323625E-13, 0.000000000000000000, 32.92111309657398976 ) ) ;
#314 = COORDINATED_UNIVERSAL_TIME_OFFSET ( 1, 0, .AHEAD. ) ;
#315 = DIRECTION ( 'NONE',  ( 3.491481338843133355E-15, -0.000000000000000000, 1.000000000000000000 ) ) ;
#316 = CYLINDRICAL_SURFACE ( 'NONE', #310, 3.999999999999998224 ) ;
#317 = AXIS2_PLACEMENT_3D ( 'NONE', #151, #73, #42 ) ;
#318 = FACE_OUTER_BOUND ( 'NONE', #174, .T. ) ;
#319 = CC_DESIGN_DATE_AND_TIME_ASSIGNMENT ( #33, #67, ( #360 ) ) ;
#320 = FACE_OUTER_BOUND ( 'NONE', #334, .T. ) ;
#321 = DIRECTION ( 'NONE',  ( -1.000000000000000000, 0.000000000000000000, 3.491481338843133355E-15 ) ) ;
#322 = DIRECTION ( 'NONE',  ( 3.491481338843133355E-15, -0.000000000000000000, 1.000000000000000000 ) ) ;
#323 = VERTEX_POINT ( 'NONE', #40 ) ;
#324 = DIRECTION ( 'NONE',  ( 1.000000000000000000, 0.000000000000000000, -3.491481338843132961E-15 ) ) ;
#325 = AXIS2_PLACEMENT_3D ( 'NONE', #289, #260, #380 ) ;
#326 = ADVANCED_FACE ( 'NONE', ( #327, #255 ), #107, .T. ) ;
#327 = FACE_BOUND ( 'NONE', #58, .T. ) ;
#328 = CARTESIAN_POINT ( 'NONE',  ( 0.000000000000000000, 0.000000000000000000, 0.000000000000000000 ) ) ;
#329 = DIRECTION ( 'NONE',  ( -3.491481338843133355E-15, 0.000000000000000000, -1.000000000000000000 ) ) ;
#330 = DIRECTION ( 'NONE',  ( 3.491481338843133355E-15, -0.000000000000000000, 1.000000000000000000 ) ) ;
#331 = VERTEX_POINT ( 'NONE', #271 ) ;
#332 = CONICAL_SURFACE ( 'NONE', #203, 3.999999999999996447, 0.7853981633974504994 ) ;
#333 = VERTEX_POINT ( 'NONE', #301 ) ;
#334 = EDGE_LOOP ( 'NONE', ( #28 ) ) ;
#335 = APPROVAL_STATUS ( 'not_yet_approved' ) ;
#336 = ORIENTED_EDGE ( 'NONE', *, *, #272, .T. ) ;
#337 = CIRCLE ( 'NONE', #241, 2.054074173710927820 ) ;
#338 = SECURITY_CLASSIFICATION_LEVEL ( 'unclassified' ) ;
#339 = CARTESIAN_POINT ( 'NONE',  ( 2.199633243471174140E-13, 0.000000000000000000, 63.00000000000000000 ) ) ;
#340 = PERSON ( 'UNSPECIFIED', 'UNSPECIFIED', 'UNSPECIFIED', ('UNSPECIFIED'), ('UNSPECIFIED'), ('UNSPECIFIED') ) ;
#341 = AXIS2_PLACEMENT_3D ( 'NONE', #227, #50, #321 ) ;
#342 = ORIENTED_EDGE ( 'NONE', *, *, #49, .F. ) ;
#343 = APPROVAL_DATE_TIME ( #94, #99 ) ;
#344 = CARTESIAN_POINT ( 'NONE',  ( 2.668720227050923638E-15, 0.000000000000000000, 0.7643518518518493954 ) ) ;
#345 = CARTESIAN_POINT ( 'NONE',  ( 8.958728787272821936E-14, 0.000000000000000000, 25.65881904510251843 ) ) ;
#346 = AXIS2_PLACEMENT_3D ( 'NONE', #294, #322, #324 ) ;
#347 = DIRECTION ( 'NONE',  ( 1.000000000000000000, 0.000000000000000000, -3.469446951953614189E-15 ) ) ;
#348 = DIRECTION ( 'NONE',  ( 3.491481338843133355E-15, -0.000000000000000000, 1.000000000000000000 ) ) ;
#349 = FACE_OUTER_BOUND ( 'NONE', #375, .T. ) ;
#350 = DIRECTION ( 'NONE',  ( 1.000000000000000000, 0.000000000000000000, -3.543609674021112036E-15 ) ) ;
#351 = AXIS2_PLACEMENT_3D ( 'NONE', #39, #287, #371 ) ;
#352 = APPROVAL_PERSON_ORGANIZATION ( #184, #358, #150 ) ;
#353 = CARTESIAN_POINT ( 'NONE',  ( 4.000000000000115463, 0.000000000000000000, 32.92111309657397555 ) ) ;
#354 = DIRECTION ( 'NONE',  ( 1.000000000000000000, 0.000000000000000000, -3.450356787862660764E-15 ) ) ;
#355 = VERTEX_POINT ( 'NONE', #80 ) ;
#356 = FACE_OUTER_BOUND ( 'NONE', #69, .T. ) ;
#357 = CIRCLE ( 'NONE', #141, 4.000000000000000000 ) ;
#358 = APPROVAL ( #155, 'UNSPECIFIED' ) ;
#359 = CIRCLE ( 'NONE', #181, 3.999999999999996447 ) ;
#360 = SECURITY_CLASSIFICATION ( '', '', #338 ) ;
#361 = AXIS2_PLACEMENT_3D ( 'NONE', #124, #311, #32 ) ;
#362 = PERSON_AND_ORGANIZATION ( #340, #156 ) ;
#363 = EDGE_CURVE ( 'NONE', #333, #333, #359, .T. ) ;
#364 = EDGE_LOOP ( 'NONE', ( #300 ) ) ;
#365 = AXIS2_PLACEMENT_3D ( 'NONE', #45, #79, #163 ) ;
#366 = EDGE_LOOP ( 'NONE', ( #389 ) ) ;
#367 = PERSON_AND_ORGANIZATION ( #340, #156 ) ;
#368 = EDGE_LOOP ( 'NONE', ( #342 ) ) ;
#369 = PERSON_AND_ORGANIZATION_ROLE ( 'creator' ) ;
#370 = EDGE_CURVE ( 'NONE', #331, #331, #12, .T. ) ;
#371 = DIRECTION ( 'NONE',  ( 1.000000000000000000, 0.000000000000000000, -5.968184714140819067E-15 ) ) ;
#372 = CALENDAR_DATE ( 2023, 28, 9 ) ;
#373 = CC_DESIGN_APPROVAL ( #249, ( #78 ) ) ;
#374 = LOCAL_TIME ( 8, 25, 30.00000000000000000, #314 ) ;
#375 = EDGE_LOOP ( 'NONE', ( #240 ) ) ;
#376 = FACE_OUTER_BOUND ( 'NONE', #364, .T. ) ;
#377 = CYLINDRICAL_SURFACE ( 'NONE', #317, 3.140000000000000124 ) ;
#378 = DIRECTION ( 'NONE',  ( -1.000000000000000000, 0.000000000000000000, 3.452873160781861205E-15 ) ) ;
#379 = DIRECTION ( 'NONE',  ( -3.491481338843133355E-15, 0.000000000000000000, -1.000000000000000000 ) ) ;
#380 = DIRECTION ( 'NONE',  ( 1.000000000000000000, 0.000000000000000000, -3.487401892389679659E-15 ) ) ;
#381 = CC_DESIGN_PERSON_AND_ORGANIZATION_ASSIGNMENT ( #4, #36, ( #208 ) ) ;
#382 = FACE_OUTER_BOUND ( 'NONE', #368, .T. ) ;
#383 = CIRCLE ( 'NONE', #264, 3.140000000000000124 ) ;
#384 = FACE_BOUND ( 'NONE', #37, .T. ) ;
#385 = LOCAL_TIME ( 8, 25, 30.00000000000000000, #217 ) ;
#386 = FACE_OUTER_BOUND ( 'NONE', #278, .T. ) ;
#387 = ADVANCED_FACE ( 'NONE', ( #130 ), #189, .F. ) ;
#388 = CARTESIAN_POINT ( 'NONE',  ( 3.200000000000211120, 0.000000000000000000, 62.99999999999998579 ) ) ;
#389 = ORIENTED_EDGE ( 'NONE', *, *, #258, .T. ) ;
#390 = VERTEX_POINT ( 'NONE', #388 ) ;
#391 = LOCAL_TIME ( 8, 25, 30.00000000000000000, #182 ) ;
#392 = COORDINATED_UNIVERSAL_TIME_OFFSET ( 1, 0, .AHEAD. ) ;
#393 = DIRECTION ( 'NONE',  ( 3.491481338843133355E-15, -0.000000000000000000, 1.000000000000000000 ) ) ;
#394 = ORIENTED_EDGE ( 'NONE', *, *, #179, .F. ) ;
#395 = ORIENTED_EDGE ( 'NONE', *, *, #272, .F. ) ;
ENDSEC;
END-ISO-10303-21;
