ISO-10303-21;
HEADER;
FILE_DESCRIPTION (( 'STEP AP203' ),
    '1' );
FILE_NAME ('961085.step',
    '2023-09-28T06:25:29',
    ( '' ),
    ( '' ),
    'SwSTEP 2.0',
    'SolidWorks 2022',
    '' );
FILE_SCHEMA (( 'CONFIG_CONTROL_DESIGN' ));
ENDSEC;

DATA;
#1 = CARTESIAN_POINT ( 'NONE',  ( 1.656765158129179127, 0.000000000000000000, 2.381249999999995648 ) ) ;
#2 = ORIENTED_EDGE ( 'NONE', *, *, #395, .T. ) ;
#3 = EDGE_LOOP ( 'NONE', ( #364 ) ) ;
#4 = EDGE_LOOP ( 'NONE', ( #149 ) ) ;
#5 = CARTESIAN_POINT ( 'NONE',  ( 3.000000000000193623, 0.000000000000000000, 56.39999999999998437 ) ) ;
#6 = CIRCLE ( 'NONE', #357, 2.390000000000000124 ) ;
#7 = EDGE_CURVE ( 'NONE', #30, #30, #265, .T. ) ;
#8 = CARTESIAN_POINT ( 'NONE',  ( 2.032333095984929786E-15, 0.000000000000000000, 0.5820833333333302884 ) ) ;
#9 = VERTEX_POINT ( 'NONE', #119 ) ;
#10 = FACE_OUTER_BOUND ( 'NONE', #331, .T. ) ;
#11 = FACE_OUTER_BOUND ( 'NONE', #241, .T. ) ;
#12 =( GEOMETRIC_REPRESENTATION_CONTEXT ( 3 ) GLOBAL_UNCERTAINTY_ASSIGNED_CONTEXT ( ( #361 ) ) GLOBAL_UNIT_ASSIGNED_CONTEXT ( ( #334, #182, #91 ) ) REPRESENTATION_CONTEXT ( 'NONE', 'WORKASPACE' ) );
#13 = FACE_OUTER_BOUND ( 'NONE', #237, .T. ) ;
#14 = APPROVAL_PERSON_ORGANIZATION ( #47, #278, #351 ) ;
#15 = CARTESIAN_POINT ( 'NONE',  ( 8.868362600661559985E-15, 0.000000000000000000, 2.540000000000000480 ) ) ;
#16 = AXIS2_PLACEMENT_3D ( 'NONE', #353, #76, #263 ) ;
#17 = CARTESIAN_POINT ( 'NONE',  ( 1.990144363140586139E-13, 2.399999999999990141, 57.00000000000000000 ) ) ;
#18 = DATE_AND_TIME ( #289, #343 ) ;
#19 = ADVANCED_FACE ( 'NONE', ( #66, #13 ), #127, .F. ) ;
#20 = COORDINATED_UNIVERSAL_TIME_OFFSET ( 1, 0, .AHEAD. ) ;
#21 = DIRECTION ( 'NONE',  ( 3.491481338843133355E-15, -0.000000000000000000, 1.000000000000000000 ) ) ;
#22 = LOCAL_TIME ( 8, 25, 29.00000000000000000, #234 ) ;
#23 = FACE_BOUND ( 'NONE', #86, .T. ) ;
#24 = APPROVAL_DATE_TIME ( #72, #300 ) ;
#25 = ADVANCED_FACE ( 'NONE', ( #151, #257 ), #97, .T. ) ;
#26 = DIRECTION ( 'NONE',  ( 1.000000000000000000, 0.000000000000000000, -2.903302888664112114E-15 ) ) ;
#27 = ORIENTED_EDGE ( 'NONE', *, *, #128, .F. ) ;
#28 = FACE_OUTER_BOUND ( 'NONE', #36, .T. ) ;
#29 = CARTESIAN_POINT ( 'NONE',  ( 1.430000000000068550, 0.000000000000000000, 20.30000000000000071 ) ) ;
#30 = VERTEX_POINT ( 'NONE', #368 ) ;
#31 = ORIENTED_EDGE ( 'NONE', *, *, #261, .T. ) ;
#32 = APPLICATION_PROTOCOL_DEFINITION ( 'international standard', 'config_control_design', 1994, #307 ) ;
#33 = FACE_OUTER_BOUND ( 'NONE', #298, .T. ) ;
#34 = CARTESIAN_POINT ( 'NONE',  ( 0.000000000000000000, 0.000000000000000000, 0.000000000000000000 ) ) ;
#35 = CC_DESIGN_SECURITY_CLASSIFICATION ( #164, ( #135 ) ) ;
#36 = EDGE_LOOP ( 'NONE', ( #190 ) ) ;
#37 = VERTEX_POINT ( 'NONE', #370 ) ;
#38 = DIRECTION ( 'NONE',  ( 1.000000000000000000, 0.000000000000000000, -3.491481338843133355E-15 ) ) ;
#39 = CARTESIAN_POINT ( 'NONE',  ( 7.087707117851562604E-14, 0.000000000000000000, 20.30000000000000426 ) ) ;
#40 = ADVANCED_FACE ( 'NONE', ( #11, #224 ), #45, .T. ) ;
#41 = ORIENTED_EDGE ( 'NONE', *, *, #7, .T. ) ;
#42 = ORIENTED_EDGE ( 'NONE', *, *, #365, .F. ) ;
#43 = PRODUCT ( '961085', '961085', '', ( #264 ) ) ;
#44 = DIRECTION ( 'NONE',  ( 3.491481338843133355E-15, -0.000000000000000000, 1.000000000000000000 ) ) ;
#45 = CONICAL_SURFACE ( 'NONE', #142, 1.656765158129170912, 1.047197551196602738 ) ;
#46 = FACE_OUTER_BOUND ( 'NONE', #3, .T. ) ;
#47 = PERSON_AND_ORGANIZATION ( #295, #57 ) ;
#48 = EDGE_CURVE ( 'NONE', #144, #144, #73, .T. ) ;
#49 = DIRECTION ( 'NONE',  ( 3.491481338843133355E-15, -0.000000000000000000, 1.000000000000000000 ) ) ;
#50 = FACE_BOUND ( 'NONE', #183, .T. ) ;
#51 = FACE_BOUND ( 'NONE', #273, .T. ) ;
#52 = APPROVAL_ROLE ( '' ) ;
#53 = DIRECTION ( 'NONE',  ( 1.000000000000000000, 0.000000000000000000, -3.533809063218637985E-15 ) ) ;
#54 = EDGE_LOOP ( 'NONE', ( #369 ) ) ;
#55 = CARTESIAN_POINT ( 'NONE',  ( 1.464074173710999460, 0.000000000000000000, 20.55881904510251346 ) ) ;
#56 = EDGE_LOOP ( 'NONE', ( #2 ) ) ;
#57 = ORGANIZATION ( 'UNSPECIFIED', 'UNSPECIFIED', '' ) ;
#58 = ORIENTED_EDGE ( 'NONE', *, *, #176, .T. ) ;
#59 = CC_DESIGN_DATE_AND_TIME_ASSIGNMENT ( #229, #222, ( #164 ) ) ;
#60 = ORIENTED_EDGE ( 'NONE', *, *, #261, .F. ) ;
#61 = ORIENTED_EDGE ( 'NONE', *, *, #133, .F. ) ;
#62 = AXIS2_PLACEMENT_3D ( 'NONE', #199, #165, #350 ) ;
#63 = DIRECTION ( 'NONE',  ( 3.491481338843133355E-15, -0.000000000000000000, 1.000000000000000000 ) ) ;
#64 = VERTEX_POINT ( 'NONE', #251 ) ;
#65 = EDGE_CURVE ( 'NONE', #167, #167, #172, .T. ) ;
#66 = FACE_OUTER_BOUND ( 'NONE', #115, .T. ) ;
#67 = DIRECTION ( 'NONE',  ( 3.491481338843133355E-15, -0.000000000000000000, 1.000000000000000000 ) ) ;
#68 = FACE_OUTER_BOUND ( 'NONE', #171, .T. ) ;
#69 = CIRCLE ( 'NONE', #125, 2.999999999999996447 ) ;
#70 = EDGE_CURVE ( 'NONE', #332, #332, #256, .T. ) ;
#71 = DIRECTION ( 'NONE',  ( 3.491481338843133355E-15, -0.000000000000000000, 1.000000000000000000 ) ) ;
#72 = DATE_AND_TIME ( #81, #230 ) ;
#73 = CIRCLE ( 'NONE', #349, 2.390000000000000124 ) ;
#74 = CARTESIAN_POINT ( 'NONE',  ( 6.836029504676607322E-15, 0.000000000000000000, 1.957916666666663419 ) ) ;
#75 = PERSON_AND_ORGANIZATION ( #295, #57 ) ;
#76 = DIRECTION ( 'NONE',  ( 3.491481338843133355E-15, -0.000000000000000000, 1.000000000000000000 ) ) ;
#77 = DATE_AND_TIME ( #358, #148 ) ;
#78 = AXIS2_PLACEMENT_3D ( 'NONE', #220, #67, #335 ) ;
#79 = AXIS2_PLACEMENT_3D ( 'NONE', #290, #316, #101 ) ;
#80 = DIRECTION ( 'NONE',  ( 1.000000000000000000, 0.000000000000000000, -2.369720752029763604E-15 ) ) ;
#81 = CALENDAR_DATE ( 2023, 28, 9 ) ;
#82 = DIRECTION ( 'NONE',  ( 3.491481338843133355E-15, -0.000000000000000000, 1.000000000000000000 ) ) ;
#83 = APPROVAL_DATE_TIME ( #18, #315 ) ;
#84 = DIRECTION ( 'NONE',  ( 1.000000000000000000, 0.000000000000000000, -4.188218148999866744E-15 ) ) ;
#85 = EDGE_CURVE ( 'NONE', #205, #205, #140, .T. ) ;
#86 = EDGE_LOOP ( 'NONE', ( #244 ) ) ;
#87 = CYLINDRICAL_SURFACE ( 'NONE', #313, 1.656765158129170912 ) ;
#88 = CARTESIAN_POINT ( 'NONE',  ( 2.390000000000002345, 0.000000000000000000, 0.5820833333333219617 ) ) ;
#89 = EDGE_LOOP ( 'NONE', ( #123 ) ) ;
#90 = CARTESIAN_POINT ( 'NONE',  ( 4.988453962872124336E-15, 0.000000000000000000, 1.428749999999999520 ) ) ;
#91 =( NAMED_UNIT ( * ) SI_UNIT ( $, .STERADIAN. ) SOLID_ANGLE_UNIT ( ) );
#92 = EDGE_CURVE ( 'NONE', #301, #301, #354, .T. ) ;
#93 = DIRECTION ( 'NONE',  ( 1.000000000000000000, 0.000000000000000000, -3.469446951953614189E-15 ) ) ;
#94 = AXIS2_PLACEMENT_3D ( 'NONE', #293, #136, #286 ) ;
#95 = DIRECTION ( 'NONE',  ( -1.000000000000000000, 0.000000000000000000, 4.625929269271490844E-15 ) ) ;
#96 = PERSON_AND_ORGANIZATION ( #295, #57 ) ;
#97 = CYLINDRICAL_SURFACE ( 'NONE', #187, 1.656765158129171134 ) ;
#98 = DIRECTION ( 'NONE',  ( -3.491481338843133355E-15, 0.000000000000000000, -1.000000000000000000 ) ) ;
#99 = ADVANCED_FACE ( 'NONE', ( #283, #10 ), #235, .T. ) ;
#100 = CYLINDRICAL_SURFACE ( 'NONE', #94, 2.999999999999998224 ) ;
#101 = DIRECTION ( 'NONE',  ( 1.000000000000000000, 0.000000000000000000, -3.533809063218636801E-15 ) ) ;
#102 = SHAPE_DEFINITION_REPRESENTATION ( #262, #146 ) ;
#103 = AXIS2_PLACEMENT_3D ( 'NONE', #374, #258, #93 ) ;
#104 = FACE_BOUND ( 'NONE', #147, .T. ) ;
#105 = ADVANCED_FACE ( 'NONE', ( #221 ), #317, .F. ) ;
#106 = CIRCLE ( 'NONE', #333, 1.656765158129170912 ) ;
#107 = CARTESIAN_POINT ( 'NONE',  ( 1.990144363140586139E-13, 0.000000000000000000, 57.00000000000000000 ) ) ;
#108 = PERSON_AND_ORGANIZATION_ROLE ( 'classification_officer' ) ;
#109 = AXIS2_PLACEMENT_3D ( 'NONE', #195, #49, #381 ) ;
#110 = DIRECTION ( 'NONE',  ( 3.491481338843133355E-15, -0.000000000000000000, 1.000000000000000000 ) ) ;
#111 = AXIS2_PLACEMENT_3D ( 'NONE', #155, #284, #38 ) ;
#112 = CARTESIAN_POINT ( 'NONE',  ( 1.656765158129179794, 0.000000000000000000, 2.539999999999995151 ) ) ;
#113 = EDGE_CURVE ( 'NONE', #9, #9, #6, .T. ) ;
#114 = CARTESIAN_POINT ( 'NONE',  ( 0.000000000000000000, 0.000000000000000000, 0.000000000000000000 ) ) ;
#115 = EDGE_LOOP ( 'NONE', ( #276 ) ) ;
#116 = CARTESIAN_POINT ( 'NONE',  ( 1.430000000000008820, 0.000000000000000000, 2.539999999999995595 ) ) ;
#117 = DIRECTION ( 'NONE',  ( 1.000000000000000000, 0.000000000000000000, -2.903302888664112114E-15 ) ) ;
#118 = APPROVAL_PERSON_ORGANIZATION ( #161, #315, #325 ) ;
#119 = CARTESIAN_POINT ( 'NONE',  ( 2.390000000000007230, 0.000000000000000000, 1.957916666666655203 ) ) ;
#120 = ORIENTED_EDGE ( 'NONE', *, *, #365, .T. ) ;
#121 = DIRECTION ( 'NONE',  ( 3.491481338843133355E-15, -0.000000000000000000, 1.000000000000000000 ) ) ;
#122 = DATE_TIME_ROLE ( 'creation_date' ) ;
#123 = ORIENTED_EDGE ( 'NONE', *, *, #113, .T. ) ;
#124 = AXIS2_PLACEMENT_3D ( 'NONE', #338, #63, #310 ) ;
#125 = AXIS2_PLACEMENT_3D ( 'NONE', #383, #44, #233 ) ;
#126 = DIRECTION ( 'NONE',  ( 1.000000000000000000, 0.000000000000000000, -4.188218148999866744E-15 ) ) ;
#127 = TOROIDAL_SURFACE ( 'NONE', #111, 2.429999999999997495, 1.000000000000000444 ) ;
#128 = EDGE_CURVE ( 'NONE', #340, #340, #248, .T. ) ;
#129 = DIRECTION ( 'NONE',  ( 1.000000000000000000, 0.000000000000000000, -2.891205793294690455E-15 ) ) ;
#130 = CIRCLE ( 'NONE', #359, 1.381802092427611761 ) ;
#131 = FACE_BOUND ( 'NONE', #175, .T. ) ;
#132 = CALENDAR_DATE ( 2023, 28, 9 ) ;
#133 = EDGE_CURVE ( 'NONE', #245, #245, #347, .T. ) ;
#134 = CARTESIAN_POINT ( 'NONE',  ( 7.178073304462824556E-14, 0.000000000000000000, 20.55881904510251701 ) ) ;
#135 = PRODUCT_DEFINITION_FORMATION_WITH_SPECIFIED_SOURCE ( 'ANY', '', #43, .NOT_KNOWN. ) ;
#136 = DIRECTION ( 'NONE',  ( 3.491481338843133355E-15, -0.000000000000000000, 1.000000000000000000 ) ) ;
#137 = PERSON_AND_ORGANIZATION_ROLE ( 'creator' ) ;
#138 = CONICAL_SURFACE ( 'NONE', #252, 2.390000000000000124, 1.047197551196595633 ) ;
#139 = CARTESIAN_POINT ( 'NONE',  ( 6.836029504676607322E-15, 0.000000000000000000, 1.957916666666663419 ) ) ;
#140 = CIRCLE ( 'NONE', #124, 1.464074173710927740 ) ;
#141 = CYLINDRICAL_SURFACE ( 'NONE', #197, 2.390000000000000124 ) ;
#142 = AXIS2_PLACEMENT_3D ( 'NONE', #90, #216, #281 ) ;
#143 = ORIENTED_EDGE ( 'NONE', *, *, #85, .T. ) ;
#144 = VERTEX_POINT ( 'NONE', #88 ) ;
#145 = PRODUCT_RELATED_PRODUCT_CATEGORY ( 'detail', '', ( #43 ) ) ;
#146 = ADVANCED_BREP_SHAPE_REPRESENTATION ( '961085', ( #308, #184 ), #12 ) ;
#147 = EDGE_LOOP ( 'NONE', ( #143 ) ) ;
#148 = LOCAL_TIME ( 8, 25, 29.00000000000000000, #294 ) ;
#149 = ORIENTED_EDGE ( 'NONE', *, *, #48, .T. ) ;
#150 = AXIS2_PLACEMENT_3D ( 'NONE', #254, #375, #95 ) ;
#151 = FACE_OUTER_BOUND ( 'NONE', #274, .T. ) ;
#152 = EDGE_CURVE ( 'NONE', #336, #336, #69, .T. ) ;
#153 = DIRECTION ( 'NONE',  ( 1.000000000000000000, 0.000000000000000000, -2.426186679687846056E-15 ) ) ;
#154 = PERSON_AND_ORGANIZATION ( #295, #57 ) ;
#155 = CARTESIAN_POINT ( 'NONE',  ( 7.087707117851561342E-14, 0.000000000000000000, 20.30000000000000071 ) ) ;
#156 = CC_DESIGN_PERSON_AND_ORGANIZATION_ASSIGNMENT ( #75, #137, ( #217 ) ) ;
#157 = DIRECTION ( 'NONE',  ( 3.491481338843133355E-15, -0.000000000000000000, 1.000000000000000000 ) ) ;
#158 = CIRCLE ( 'NONE', #215, 1.656765158129170912 ) ;
#159 = DIRECTION ( 'NONE',  ( 3.491481338843133355E-15, -0.000000000000000000, 1.000000000000000000 ) ) ;
#160 = DIRECTION ( 'NONE',  ( -1.000000000000000000, 0.000000000000000000, 3.491481338843133355E-15 ) ) ;
#161 = PERSON_AND_ORGANIZATION ( #295, #57 ) ;
#162 = DIRECTION ( 'NONE',  ( -3.491481338843133355E-15, 0.000000000000000000, -1.000000000000000000 ) ) ;
#163 = DIRECTION ( 'NONE',  ( -3.491481338843133355E-15, 0.000000000000000000, -1.000000000000000000 ) ) ;
#164 = SECURITY_CLASSIFICATION ( '', '', #342 ) ;
#165 = DIRECTION ( 'NONE',  ( 3.491481338843133355E-15, -0.000000000000000000, 1.000000000000000000 ) ) ;
#166 = APPROVAL_STATUS ( 'not_yet_approved' ) ;
#167 = VERTEX_POINT ( 'NONE', #272 ) ;
#168 = ADVANCED_FACE ( 'NONE', ( #268, #50 ), #170, .T. ) ;
#169 = ORIENTED_EDGE ( 'NONE', *, *, #113, .F. ) ;
#170 = CONICAL_SURFACE ( 'NONE', #109, 1.381802092427611761, 1.047197551196601850 ) ;
#171 = EDGE_LOOP ( 'NONE', ( #41 ) ) ;
#172 = CIRCLE ( 'NONE', #103, 3.000000000000000000 ) ;
#173 = CC_DESIGN_APPROVAL ( #278, ( #135 ) ) ;
#174 = DIRECTION ( 'NONE',  ( 3.491481338843133355E-15, -0.000000000000000000, 1.000000000000000000 ) ) ;
#175 = EDGE_LOOP ( 'NONE', ( #61 ) ) ;
#176 = EDGE_CURVE ( 'NONE', #311, #311, #158, .T. ) ;
#177 = AXIS2_PLACEMENT_3D ( 'NONE', #192, #297, #180 ) ;
#178 = CARTESIAN_POINT ( 'NONE',  ( 1.161031722385369052E-32, 0.000000000000000000, 3.325327016555285568E-18 ) ) ;
#179 = ORIENTED_EDGE ( 'NONE', *, *, #128, .T. ) ;
#180 = DIRECTION ( 'NONE',  ( -1.000000000000000000, 0.000000000000000000, 3.493036287924009911E-15 ) ) ;
#181 = EDGE_LOOP ( 'NONE', ( #371 ) ) ;
#182 =( NAMED_UNIT ( * ) PLANE_ANGLE_UNIT ( ) SI_UNIT ( $, .RADIAN. ) );
#183 = EDGE_LOOP ( 'NONE', ( #120 ) ) ;
#184 = AXIS2_PLACEMENT_3D ( 'NONE', #34, #279, #219 ) ;
#185 = EDGE_LOOP ( 'NONE', ( #302 ) ) ;
#186 = EDGE_LOOP ( 'NONE', ( #314 ) ) ;
#187 = AXIS2_PLACEMENT_3D ( 'NONE', #249, #341, #126 ) ;
#188 = ORIENTED_EDGE ( 'NONE', *, *, #395, .F. ) ;
#189 = ADVANCED_FACE ( 'NONE', ( #51, #380 ), #198, .F. ) ;
#190 = ORIENTED_EDGE ( 'NONE', *, *, #7, .F. ) ;
#191 = AXIS2_PLACEMENT_3D ( 'NONE', #178, #82, #394 ) ;
#192 = CARTESIAN_POINT ( 'NONE',  ( 2.401848204345850601E-15, 0.000000000000000000, 0.6879166666666700625 ) ) ;
#193 = APPLICATION_PROTOCOL_DEFINITION ( 'international standard', 'config_control_design', 1994, #194 ) ;
#194 = APPLICATION_CONTEXT ( 'configuration controlled 3d designs of mechanical parts and assemblies' ) ;
#195 = CARTESIAN_POINT ( 'NONE',  ( 0.000000000000000000, 0.000000000000000000, 0.000000000000000000 ) ) ;
#196 = PERSON_AND_ORGANIZATION ( #295, #57 ) ;
#197 = AXIS2_PLACEMENT_3D ( 'NONE', #211, #239, #117 ) ;
#198 = PLANE ( 'NONE',  #271 ) ;
#199 = CARTESIAN_POINT ( 'NONE',  ( 6.466514396315710567E-15, 0.000000000000000000, 1.852083333333330639 ) ) ;
#200 = APPROVAL_STATUS ( 'not_yet_approved' ) ;
#201 = ADVANCED_FACE ( 'NONE', ( #225, #104 ), #392, .T. ) ;
#202 = CARTESIAN_POINT ( 'NONE',  ( 4.988453962872124336E-15, 0.000000000000000000, 1.428749999999999520 ) ) ;
#203 = EDGE_LOOP ( 'NONE', ( #179 ) ) ;
#204 = AXIS2_PLACEMENT_3D ( 'NONE', #134, #159, #80 ) ;
#205 = VERTEX_POINT ( 'NONE', #55 ) ;
#206 = EDGE_LOOP ( 'NONE', ( #246 ) ) ;
#207 = DESIGN_CONTEXT ( 'detailed design', #194, 'design' ) ;
#208 = AXIS2_PLACEMENT_3D ( 'NONE', #15, #323, #385 ) ;
#209 = CARTESIAN_POINT ( 'NONE',  ( 1.990144363140586139E-13, 0.000000000000000000, 57.00000000000000000 ) ) ;
#210 = ADVANCED_FACE ( 'NONE', ( #46, #266 ), #324, .T. ) ;
#211 = CARTESIAN_POINT ( 'NONE',  ( 1.990144363140586139E-13, 0.000000000000000000, 57.00000000000000000 ) ) ;
#212 = PLANE ( 'NONE',  #191 ) ;
#213 = EDGE_LOOP ( 'NONE', ( #390 ) ) ;
#214 = VERTEX_POINT ( 'NONE', #366 ) ;
#215 = AXIS2_PLACEMENT_3D ( 'NONE', #231, #21, #228 ) ;
#216 = DIRECTION ( 'NONE',  ( 3.491481338843133355E-15, -0.000000000000000000, 1.000000000000000000 ) ) ;
#217 = PRODUCT_DEFINITION ( 'UNKNOWN', '', #135, #207 ) ;
#218 = ORIENTED_EDGE ( 'NONE', *, *, #65, .T. ) ;
#219 = DIRECTION ( 'NONE',  ( 1.000000000000000000, 0.000000000000000000, 0.000000000000000000 ) ) ;
#220 = CARTESIAN_POINT ( 'NONE',  ( 8.868362600661559985E-15, 0.000000000000000000, 2.540000000000000480 ) ) ;
#221 = FACE_OUTER_BOUND ( 'NONE', #185, .T. ) ;
#222 = DATE_TIME_ROLE ( 'classification_date' ) ;
#223 = CC_DESIGN_PERSON_AND_ORGANIZATION_ASSIGNMENT ( #196, #108, ( #164 ) ) ;
#224 = FACE_BOUND ( 'NONE', #56, .T. ) ;
#225 = FACE_OUTER_BOUND ( 'NONE', #54, .T. ) ;
#226 = FACE_OUTER_BOUND ( 'NONE', #89, .T. ) ;
#227 = ADVANCED_FACE ( 'NONE', ( #346, #379 ), #100, .T. ) ;
#228 = DIRECTION ( 'NONE',  ( 1.000000000000000000, 0.000000000000000000, -3.402927246062392075E-15 ) ) ;
#229 = DATE_AND_TIME ( #318, #22 ) ;
#230 = LOCAL_TIME ( 8, 25, 29.00000000000000000, #296 ) ;
#231 = CARTESIAN_POINT ( 'NONE',  ( 8.314089938120215641E-15, 0.000000000000000000, 2.381250000000001421 ) ) ;
#232 = AXIS2_PLACEMENT_3D ( 'NONE', #270, #110, #26 ) ;
#233 = DIRECTION ( 'NONE',  ( 1.000000000000000000, 0.000000000000000000, -4.625929269271490844E-15 ) ) ;
#234 = COORDINATED_UNIVERSAL_TIME_OFFSET ( 1, 0, .AHEAD. ) ;
#235 = CONICAL_SURFACE ( 'NONE', #150, 2.999999999999996447, 0.7853981633974508325 ) ;
#236 = DIRECTION ( 'NONE',  ( 1.000000000000000000, 0.000000000000000000, -3.491481338843132961E-15 ) ) ;
#237 = EDGE_LOOP ( 'NONE', ( #393 ) ) ;
#238 = CIRCLE ( 'NONE', #62, 2.390000000000000124 ) ;
#239 = DIRECTION ( 'NONE',  ( 3.491481338843133355E-15, -0.000000000000000000, 1.000000000000000000 ) ) ;
#240 = CC_DESIGN_PERSON_AND_ORGANIZATION_ASSIGNMENT ( #154, #255, ( #43 ) ) ;
#241 = EDGE_LOOP ( 'NONE', ( #60 ) ) ;
#242 = FACE_OUTER_BOUND ( 'NONE', #362, .T. ) ;
#243 = VERTEX_POINT ( 'NONE', #372 ) ;
#244 = ORIENTED_EDGE ( 'NONE', *, *, #176, .F. ) ;
#245 = VERTEX_POINT ( 'NONE', #247 ) ;
#246 = ORIENTED_EDGE ( 'NONE', *, *, #152, .F. ) ;
#247 = CARTESIAN_POINT ( 'NONE',  ( 1.656765158129175353, 0.000000000000000000, 1.111249999999995186 ) ) ;
#248 = CIRCLE ( 'NONE', #208, 1.429999999999999938 ) ;
#249 = CARTESIAN_POINT ( 'NONE',  ( 1.990144363140586139E-13, 0.000000000000000000, 57.00000000000000000 ) ) ;
#250 = DIRECTION ( 'NONE',  ( 1.000000000000000000, 0.000000000000000000, -3.493036287924009911E-15 ) ) ;
#251 = CARTESIAN_POINT ( 'NONE',  ( 1.381802092427611761, 0.000000000000000000, -4.824536219685400682E-15 ) ) ;
#252 = AXIS2_PLACEMENT_3D ( 'NONE', #139, #98, #288 ) ;
#253 = EDGE_CURVE ( 'NONE', #243, #243, #321, .T. ) ;
#254 = CARTESIAN_POINT ( 'NONE',  ( 1.969195475107527212E-13, 0.000000000000000000, 56.39999999999999858 ) ) ;
#255 = PERSON_AND_ORGANIZATION_ROLE ( 'design_owner' ) ;
#256 = CIRCLE ( 'NONE', #78, 1.656765158129170912 ) ;
#257 = FACE_OUTER_BOUND ( 'NONE', #181, .T. ) ;
#258 = DIRECTION ( 'NONE',  ( 3.491481338843133355E-15, -0.000000000000000000, 1.000000000000000000 ) ) ;
#259 = DIRECTION ( 'NONE',  ( 1.000000000000000000, 0.000000000000000000, -3.447672180288633036E-15 ) ) ;
#260 = AXIS2_PLACEMENT_3D ( 'NONE', #107, #355, #129 ) ;
#261 = EDGE_CURVE ( 'NONE', #37, #37, #238, .T. ) ;
#262 = PRODUCT_DEFINITION_SHAPE ( 'NONE', 'NONE',  #217 ) ;
#263 = DIRECTION ( 'NONE',  ( 1.000000000000000000, 0.000000000000000000, -4.852373359375688169E-15 ) ) ;
#264 = MECHANICAL_CONTEXT ( 'NONE', #307, 'mechanical' ) ;
#265 = CIRCLE ( 'NONE', #285, 2.390000000000000124 ) ;
#266 = FACE_OUTER_BOUND ( 'NONE', #203, .T. ) ;
#267 = CC_DESIGN_APPROVAL ( #315, ( #217 ) ) ;
#268 = FACE_OUTER_BOUND ( 'NONE', #213, .T. ) ;
#269 = PERSON_AND_ORGANIZATION_ROLE ( 'creator' ) ;
#270 = CARTESIAN_POINT ( 'NONE',  ( 1.990144363140586139E-13, 0.000000000000000000, 57.00000000000000000 ) ) ;
#271 = AXIS2_PLACEMENT_3D ( 'NONE', #348, #163, #160 ) ;
#272 = CARTESIAN_POINT ( 'NONE',  ( 3.000000000000091926, 0.000000000000000000, 26.29097226547068544 ) ) ;
#273 = EDGE_LOOP ( 'NONE', ( #27 ) ) ;
#274 = EDGE_LOOP ( 'NONE', ( #188 ) ) ;
#275 = ADVANCED_FACE ( 'NONE', ( #23, #226 ), #138, .T. ) ;
#276 = ORIENTED_EDGE ( 'NONE', *, *, #85, .F. ) ;
#277 = EDGE_LOOP ( 'NONE', ( #218 ) ) ;
#278 = APPROVAL ( #200, 'UNSPECIFIED' ) ;
#279 = DIRECTION ( 'NONE',  ( 0.000000000000000000, 0.000000000000000000, 1.000000000000000000 ) ) ;
#280 = AXIS2_PLACEMENT_3D ( 'NONE', #39, #121, #153 ) ;
#281 = DIRECTION ( 'NONE',  ( 1.000000000000000000, 0.000000000000000000, -3.533809063218637985E-15 ) ) ;
#282 = ADVANCED_FACE ( 'NONE', ( #131, #68 ), #303, .T. ) ;
#283 = FACE_BOUND ( 'NONE', #186, .T. ) ;
#284 = DIRECTION ( 'NONE',  ( 3.491481338843133355E-15, -0.000000000000000000, 1.000000000000000000 ) ) ;
#285 = AXIS2_PLACEMENT_3D ( 'NONE', #309, #157, #306 ) ;
#286 = DIRECTION ( 'NONE',  ( 1.000000000000000000, 0.000000000000000000, -4.625929269271488478E-15 ) ) ;
#287 = ADVANCED_FACE ( 'NONE', ( #28, #391 ), #141, .T. ) ;
#288 = DIRECTION ( 'NONE',  ( -1.000000000000000000, 0.000000000000000000, 3.447672180288633036E-15 ) ) ;
#289 = CALENDAR_DATE ( 2023, 28, 9 ) ;
#290 = CARTESIAN_POINT ( 'NONE',  ( 3.879908637789436438E-15, 0.000000000000000000, 1.111250000000001181 ) ) ;
#291 = PERSON_AND_ORGANIZATION_ROLE ( 'design_supplier' ) ;
#292 = CC_DESIGN_PERSON_AND_ORGANIZATION_ASSIGNMENT ( #327, #291, ( #135 ) ) ;
#293 = CARTESIAN_POINT ( 'NONE',  ( 1.990144363140586139E-13, 0.000000000000000000, 57.00000000000000000 ) ) ;
#294 = COORDINATED_UNIVERSAL_TIME_OFFSET ( 1, 0, .AHEAD. ) ;
#295 = PERSON ( 'UNSPECIFIED', 'UNSPECIFIED', 'UNSPECIFIED', ('UNSPECIFIED'), ('UNSPECIFIED'), ('UNSPECIFIED') ) ;
#296 = COORDINATED_UNIVERSAL_TIME_OFFSET ( 1, 0, .AHEAD. ) ;
#297 = DIRECTION ( 'NONE',  ( -3.491481338843133355E-15, 0.000000000000000000, -1.000000000000000000 ) ) ;
#298 = EDGE_LOOP ( 'NONE', ( #42 ) ) ;
#299 = ORIENTED_EDGE ( 'NONE', *, *, #70, .T. ) ;
#300 = APPROVAL ( #356, 'UNSPECIFIED' ) ;
#301 = VERTEX_POINT ( 'NONE', #29 ) ;
#302 = ORIENTED_EDGE ( 'NONE', *, *, #253, .T. ) ;
#303 = CONICAL_SURFACE ( 'NONE', #177, 2.390000000000000124, 1.047197551196602516 ) ;
#304 = FACE_OUTER_BOUND ( 'NONE', #312, .T. ) ;
#305 = DIRECTION ( 'NONE',  ( 3.491481338843133355E-15, -0.000000000000000000, 1.000000000000000000 ) ) ;
#306 = DIRECTION ( 'NONE',  ( 1.000000000000000000, 0.000000000000000000, -3.493036287924009911E-15 ) ) ;
#307 = APPLICATION_CONTEXT ( 'configuration controlled 3d designs of mechanical parts and assemblies' ) ;
#308 = MANIFOLD_SOLID_BREP ( 'Corps-Déplacer/Copier1', #388 ) ;
#309 = CARTESIAN_POINT ( 'NONE',  ( 2.401848204345850601E-15, 0.000000000000000000, 0.6879166666666700625 ) ) ;
#310 = DIRECTION ( 'NONE',  ( 1.000000000000000000, 0.000000000000000000, -2.369720752029763604E-15 ) ) ;
#311 = VERTEX_POINT ( 'NONE', #1 ) ;
#312 = EDGE_LOOP ( 'NONE', ( #169 ) ) ;
#313 = AXIS2_PLACEMENT_3D ( 'NONE', #209, #174, #84 ) ;
#314 = ORIENTED_EDGE ( 'NONE', *, *, #253, .F. ) ;
#315 = APPROVAL ( #166, 'UNSPECIFIED' ) ;
#316 = DIRECTION ( 'NONE',  ( 3.491481338843133355E-15, -0.000000000000000000, 1.000000000000000000 ) ) ;
#317 = PLANE ( 'NONE',  #330 ) ;
#318 = CALENDAR_DATE ( 2023, 28, 9 ) ;
#319 = DIRECTION ( 'NONE',  ( -1.000000000000000000, 0.000000000000000000, 3.491481338843133355E-15 ) ) ;
#320 = PERSON_AND_ORGANIZATION ( #295, #57 ) ;
#321 = CIRCLE ( 'NONE', #260, 2.399999999999990141 ) ;
#322 = ADVANCED_FACE ( 'NONE', ( #33 ), #212, .F. ) ;
#323 = DIRECTION ( 'NONE',  ( 3.491481338843133355E-15, -0.000000000000000000, 1.000000000000000000 ) ) ;
#324 = CYLINDRICAL_SURFACE ( 'NONE', #16, 1.429999999999998828 ) ;
#325 = APPROVAL_ROLE ( '' ) ;
#326 = DIRECTION ( 'NONE',  ( 3.491481338843133355E-15, -0.000000000000000000, 1.000000000000000000 ) ) ;
#327 = PERSON_AND_ORGANIZATION ( #295, #57 ) ;
#328 = ORIENTED_EDGE ( 'NONE', *, *, #70, .F. ) ;
#329 = ADVANCED_FACE ( 'NONE', ( #304, #363 ), #387, .T. ) ;
#330 = AXIS2_PLACEMENT_3D ( 'NONE', #17, #162, #319 ) ;
#331 = EDGE_LOOP ( 'NONE', ( #373 ) ) ;
#332 = VERTEX_POINT ( 'NONE', #112 ) ;
#333 = AXIS2_PLACEMENT_3D ( 'NONE', #202, #326, #53 ) ;
#334 =( LENGTH_UNIT ( ) NAMED_UNIT ( * ) SI_UNIT ( .MILLI., .METRE. ) );
#335 = DIRECTION ( 'NONE',  ( 1.000000000000000000, 0.000000000000000000, -3.402927246062392075E-15 ) ) ;
#336 = VERTEX_POINT ( 'NONE', #5 ) ;
#337 = EDGE_LOOP ( 'NONE', ( #31 ) ) ;
#338 = CARTESIAN_POINT ( 'NONE',  ( 7.178073304462824556E-14, 0.000000000000000000, 20.55881904510251701 ) ) ;
#339 = CC_DESIGN_PERSON_AND_ORGANIZATION_ASSIGNMENT ( #96, #269, ( #135 ) ) ;
#340 = VERTEX_POINT ( 'NONE', #116 ) ;
#341 = DIRECTION ( 'NONE',  ( 3.491481338843133355E-15, -0.000000000000000000, 1.000000000000000000 ) ) ;
#342 = SECURITY_CLASSIFICATION_LEVEL ( 'unclassified' ) ;
#343 = LOCAL_TIME ( 8, 25, 29.00000000000000000, #20 ) ;
#344 = DIRECTION ( 'NONE',  ( 3.491481338843133355E-15, -0.000000000000000000, 1.000000000000000000 ) ) ;
#345 = CC_DESIGN_DATE_AND_TIME_ASSIGNMENT ( #77, #122, ( #217 ) ) ;
#346 = FACE_OUTER_BOUND ( 'NONE', #206, .T. ) ;
#347 = CIRCLE ( 'NONE', #79, 1.656765158129171356 ) ;
#348 = CARTESIAN_POINT ( 'NONE',  ( 8.868362600661558407E-15, 1.656765158129170912, 2.539999999999999591 ) ) ;
#349 = AXIS2_PLACEMENT_3D ( 'NONE', #8, #344, #250 ) ;
#350 = DIRECTION ( 'NONE',  ( 1.000000000000000000, 0.000000000000000000, -3.447672180288633036E-15 ) ) ;
#351 = APPROVAL_ROLE ( '' ) ;
#352 = ADVANCED_FACE ( 'NONE', ( #389, #242 ), #87, .T. ) ;
#353 = CARTESIAN_POINT ( 'NONE',  ( 1.990144363140586139E-13, 0.000000000000000000, 57.00000000000000000 ) ) ;
#354 = CIRCLE ( 'NONE', #280, 1.429999999999997717 ) ;
#355 = DIRECTION ( 'NONE',  ( 3.491481338843133355E-15, -0.000000000000000000, 1.000000000000000000 ) ) ;
#356 = APPROVAL_STATUS ( 'not_yet_approved' ) ;
#357 = AXIS2_PLACEMENT_3D ( 'NONE', #74, #71, #259 ) ;
#358 = CALENDAR_DATE ( 2023, 28, 9 ) ;
#359 = AXIS2_PLACEMENT_3D ( 'NONE', #114, #305, #236 ) ;
#360 = EDGE_LOOP ( 'NONE', ( #299 ) ) ;
#361 = UNCERTAINTY_MEASURE_WITH_UNIT (LENGTH_MEASURE( 1.000000000000000082E-05 ), #334, 'distance_accuracy_value', 'NONE');
#362 = EDGE_LOOP ( 'NONE', ( #58 ) ) ;
#363 = FACE_OUTER_BOUND ( 'NONE', #337, .T. ) ;
#364 = ORIENTED_EDGE ( 'NONE', *, *, #92, .F. ) ;
#365 = EDGE_CURVE ( 'NONE', #64, #64, #130, .T. ) ;
#366 = CARTESIAN_POINT ( 'NONE',  ( 1.656765158129176019, 0.000000000000000000, 1.428749999999993525 ) ) ;
#367 = CC_DESIGN_APPROVAL ( #300, ( #164 ) ) ;
#368 = CARTESIAN_POINT ( 'NONE',  ( 2.390000000000002789, 0.000000000000000000, 0.6879166666666616248 ) ) ;
#369 = ORIENTED_EDGE ( 'NONE', *, *, #65, .F. ) ;
#370 = CARTESIAN_POINT ( 'NONE',  ( 2.390000000000006786, 0.000000000000000000, 1.852083333333322424 ) ) ;
#371 = ORIENTED_EDGE ( 'NONE', *, *, #133, .T. ) ;
#372 = CARTESIAN_POINT ( 'NONE',  ( 2.400000000000189093, 0.000000000000000000, 56.99999999999999289 ) ) ;
#373 = ORIENTED_EDGE ( 'NONE', *, *, #152, .T. ) ;
#374 = CARTESIAN_POINT ( 'NONE',  ( 9.179443904493331058E-14, 0.000000000000000000, 26.29097226547069610 ) ) ;
#375 = DIRECTION ( 'NONE',  ( -3.491481338843133355E-15, 0.000000000000000000, -1.000000000000000000 ) ) ;
#376 = COORDINATED_UNIVERSAL_TIME_OFFSET ( 1, 0, .AHEAD. ) ;
#377 = EDGE_LOOP ( 'NONE', ( #328 ) ) ;
#378 = LOCAL_TIME ( 8, 25, 29.00000000000000000, #376 ) ;
#379 = FACE_OUTER_BOUND ( 'NONE', #277, .T. ) ;
#380 = FACE_OUTER_BOUND ( 'NONE', #360, .T. ) ;
#381 = DIRECTION ( 'NONE',  ( 1.000000000000000000, 0.000000000000000000, -3.491481338843132961E-15 ) ) ;
#382 = DATE_AND_TIME ( #132, #378 ) ;
#383 = CARTESIAN_POINT ( 'NONE',  ( 1.969195475107527212E-13, 0.000000000000000000, 56.39999999999999858 ) ) ;
#384 = APPROVAL_PERSON_ORGANIZATION ( #320, #300, #52 ) ;
#385 = DIRECTION ( 'NONE',  ( 1.000000000000000000, 0.000000000000000000, -3.639280019531763168E-15 ) ) ;
#386 = APPROVAL_DATE_TIME ( #382, #278 ) ;
#387 = CYLINDRICAL_SURFACE ( 'NONE', #232, 2.390000000000000124 ) ;
#388 = CLOSED_SHELL ( 'NONE', ( #322, #168, #287, #282, #25, #40, #329, #275, #352, #189, #210, #19, #201, #227, #99, #105 ) ) ;
#389 = FACE_OUTER_BOUND ( 'NONE', #377, .T. ) ;
#390 = ORIENTED_EDGE ( 'NONE', *, *, #48, .F. ) ;
#391 = FACE_OUTER_BOUND ( 'NONE', #4, .T. ) ;
#392 = CONICAL_SURFACE ( 'NONE', #204, 1.464074173710927740, 0.2617993877991428575 ) ;
#393 = ORIENTED_EDGE ( 'NONE', *, *, #92, .T. ) ;
#394 = DIRECTION ( 'NONE',  ( 1.000000000000000000, 0.000000000000000000, -3.491481338843133355E-15 ) ) ;
#395 = EDGE_CURVE ( 'NONE', #214, #214, #106, .T. ) ;
ENDSEC;
END-ISO-10303-21;
