ISO-10303-21;
HEADER;
FILE_DESCRIPTION (( 'STEP AP203' ),
    '1' );
FILE_NAME ('961063.step',
    '2023-09-28T06:25:28',
    ( '' ),
    ( '' ),
    'SwSTEP 2.0',
    'SolidWorks 2022',
    '' );
FILE_SCHEMA (( 'CONFIG_CONTROL_DESIGN' ));
ENDSEC;

DATA;
#1 = DIRECTION ( 'NONE',  ( 1.000000000000000000, 0.000000000000000000, -3.469446951953614189E-15 ) ) ;
#2 = EDGE_LOOP ( 'NONE', ( #336 ) ) ;
#3 = LOCAL_TIME ( 8, 25, 28.00000000000000000, #334 ) ;
#4 = CC_DESIGN_PERSON_AND_ORGANIZATION_ASSIGNMENT ( #146, #25, ( #144 ) ) ;
#5 = DIRECTION ( 'NONE',  ( 3.491481338843133355E-15, -0.000000000000000000, 1.000000000000000000 ) ) ;
#6 = VERTEX_POINT ( 'NONE', #221 ) ;
#7 = CARTESIAN_POINT ( 'NONE',  ( 0.000000000000000000, 0.000000000000000000, 0.000000000000000000 ) ) ;
#8 = AXIS2_PLACEMENT_3D ( 'NONE', #161, #197, #69 ) ;
#9 = EDGE_CURVE ( 'NONE', #165, #165, #171, .T. ) ;
#10 = DIRECTION ( 'NONE',  ( 1.000000000000000000, 0.000000000000000000, -3.854941057726237900E-15 ) ) ;
#11 = FACE_BOUND ( 'NONE', #2, .T. ) ;
#12 = CARTESIAN_POINT ( 'NONE',  ( 0.9650000000000522604, 0.000000000000000000, 15.49999999999999645 ) ) ;
#13 = DIRECTION ( 'NONE',  ( -1.000000000000000000, 0.000000000000000000, 3.493540333564403220E-15 ) ) ;
#14 = CIRCLE ( 'NONE', #238, 1.800000000000000044 ) ;
#15 = CARTESIAN_POINT ( 'NONE',  ( 1.800000000000001599, 0.000000000000000000, 0.4850694444444379472 ) ) ;
#16 = CARTESIAN_POINT ( 'NONE',  ( 5.696691253897192621E-15, 0.000000000000000000, 1.631597222222225252 ) ) ;
#17 = VERTEX_POINT ( 'NONE', #198 ) ;
#18 = DATE_AND_TIME ( #181, #257 ) ;
#19 = ADVANCED_FACE ( 'NONE', ( #51, #228 ), #268, .F. ) ;
#20 = APPROVAL_PERSON_ORGANIZATION ( #362, #114, #297 ) ;
#21 = EDGE_LOOP ( 'NONE', ( #30 ) ) ;
#22 = PERSON_AND_ORGANIZATION_ROLE ( 'design_supplier' ) ;
#23 = ADVANCED_FACE ( 'NONE', ( #104 ), #348, .F. ) ;
#24 = CARTESIAN_POINT ( 'NONE',  ( 4.157044969060107820E-15, 0.000000000000000000, 1.190625000000000711 ) ) ;
#25 = PERSON_AND_ORGANIZATION_ROLE ( 'creator' ) ;
#26 = DIRECTION ( 'NONE',  ( 1.000000000000000000, 0.000000000000000000, -3.493540333564403220E-15 ) ) ;
#27 = AXIS2_PLACEMENT_3D ( 'NONE', #42, #73, #132 ) ;
#28 = APPROVAL_ROLE ( '' ) ;
#29 = DIRECTION ( 'NONE',  ( 1.000000000000000000, 0.000000000000000000, -3.647531199005678803E-15 ) ) ;
#30 = ORIENTED_EDGE ( 'NONE', *, *, #138, .T. ) ;
#31 = DIRECTION ( 'NONE',  ( 3.491481338843133355E-15, -0.000000000000000000, 1.000000000000000000 ) ) ;
#32 = ADVANCED_FACE ( 'NONE', ( #11, #287 ), #352, .T. ) ;
#33 = CARTESIAN_POINT ( 'NONE',  ( 1.920314736363723472E-13, 0.000000000000000000, 55.00000000000000000 ) ) ;
#34 = ORIENTED_EDGE ( 'NONE', *, *, #93, .T. ) ;
#35 = AXIS2_PLACEMENT_3D ( 'NONE', #363, #359, #26 ) ;
#36 = CYLINDRICAL_SURFACE ( 'NONE', #366, 1.188970965107642330 ) ;
#37 = VERTEX_POINT ( 'NONE', #285 ) ;
#38 = ADVANCED_FACE ( 'NONE', ( #260, #380 ), #383, .T. ) ;
#39 = EDGE_LOOP ( 'NONE', ( #349 ) ) ;
#40 = CONICAL_SURFACE ( 'NONE', #274, 1.800000000000000044, 1.047197551196599852 ) ;
#41 = FACE_OUTER_BOUND ( 'NONE', #157, .T. ) ;
#42 = CARTESIAN_POINT ( 'NONE',  ( 3.233257198157867116E-15, 0.000000000000000000, 0.9260416666666687613 ) ) ;
#43 = EDGE_LOOP ( 'NONE', ( #83 ) ) ;
#44 = VERTEX_POINT ( 'NONE', #233 ) ;
#45 = APPROVAL ( #84, 'UNSPECIFIED' ) ;
#46 = EDGE_LOOP ( 'NONE', ( #319 ) ) ;
#47 = CIRCLE ( 'NONE', #79, 1.999999999999995781 ) ;
#48 = ADVANCED_FACE ( 'NONE', ( #205, #263 ), #246, .T. ) ;
#49 = APPROVAL_DATE_TIME ( #323, #321 ) ;
#50 = AXIS2_PLACEMENT_3D ( 'NONE', #107, #232, #351 ) ;
#51 = FACE_OUTER_BOUND ( 'NONE', #46, .T. ) ;
#52 = MECHANICAL_CONTEXT ( 'NONE', #119, 'mechanical' ) ;
#53 = DIRECTION ( 'NONE',  ( -1.000000000000000000, 0.000000000000000000, 3.493540333564403220E-15 ) ) ;
#54 = PERSON_AND_ORGANIZATION_ROLE ( 'design_owner' ) ;
#55 = CARTESIAN_POINT ( 'NONE',  ( 7.390302167217976120E-15, 0.000000000000000000, 2.116666666666669361 ) ) ;
#56 = PRODUCT ( '961063', '961063', '', ( #52 ) ) ;
#57 = COORDINATED_UNIVERSAL_TIME_OFFSET ( 1, 0, .AHEAD. ) ;
#58 =( GEOMETRIC_REPRESENTATION_CONTEXT ( 3 ) GLOBAL_UNCERTAINTY_ASSIGNED_CONTEXT ( ( #176 ) ) GLOBAL_UNIT_ASSIGNED_CONTEXT ( ( #172, #206, #325 ) ) REPRESENTATION_CONTEXT ( 'NONE', 'WORKASPACE' ) );
#59 = DIRECTION ( 'NONE',  ( 1.000000000000000000, 0.000000000000000000, -3.469446951953618133E-15 ) ) ;
#60 = ORIENTED_EDGE ( 'NONE', *, *, #294, .F. ) ;
#61 = DATE_AND_TIME ( #241, #3 ) ;
#62 = DIRECTION ( 'NONE',  ( -1.000000000000000000, 0.000000000000000000, 3.491481338843133355E-15 ) ) ;
#63 = ADVANCED_FACE ( 'NONE', ( #335, #388 ), #40, .T. ) ;
#64 = DIRECTION ( 'NONE',  ( -3.491481338843133355E-15, 0.000000000000000000, -1.000000000000000000 ) ) ;
#65 = CARTESIAN_POINT ( 'NONE',  ( 2.000000000000067946, 0.000000000000000000, 19.49432508342128401 ) ) ;
#66 = CIRCLE ( 'NONE', #292, 1.188970965107642330 ) ;
#67 = EDGE_CURVE ( 'NONE', #371, #371, #207, .T. ) ;
#68 = FACE_OUTER_BOUND ( 'NONE', #231, .T. ) ;
#69 = DIRECTION ( 'NONE',  ( 1.000000000000000000, 0.000000000000000000, -3.472662033757528236E-15 ) ) ;
#70 = EDGE_LOOP ( 'NONE', ( #289 ) ) ;
#71 = DIRECTION ( 'NONE',  ( 1.000000000000000000, 0.000000000000000000, -3.493540333564403220E-15 ) ) ;
#72 = AXIS2_PLACEMENT_3D ( 'NONE', #312, #223, #10 ) ;
#73 = DIRECTION ( 'NONE',  ( 3.491481338843133355E-15, -0.000000000000000000, 1.000000000000000000 ) ) ;
#74 = AXIS2_PLACEMENT_3D ( 'NONE', #296, #387, #307 ) ;
#75 = DIRECTION ( 'NONE',  ( 1.000000000000000000, 0.000000000000000000, 0.000000000000000000 ) ) ;
#76 = EDGE_LOOP ( 'NONE', ( #187 ) ) ;
#77 = PRODUCT_DEFINITION_SHAPE ( 'NONE', 'NONE',  #144 ) ;
#78 = CIRCLE ( 'NONE', #129, 0.9649999999999999689 ) ;
#79 = AXIS2_PLACEMENT_3D ( 'NONE', #151, #248, #265 ) ;
#80 = CC_DESIGN_PERSON_AND_ORGANIZATION_ASSIGNMENT ( #267, #22, ( #244 ) ) ;
#81 = APPROVAL_PERSON_ORGANIZATION ( #142, #321, #28 ) ;
#82 = CC_DESIGN_SECURITY_CLASSIFICATION ( #329, ( #244 ) ) ;
#83 = ORIENTED_EDGE ( 'NONE', *, *, #350, .T. ) ;
#84 = APPROVAL_STATUS ( 'not_yet_approved' ) ;
#85 = CIRCLE ( 'NONE', #309, 2.000000000000000000 ) ;
#86 = DIRECTION ( 'NONE',  ( 1.000000000000000000, 0.000000000000000000, -3.465154639055394941E-15 ) ) ;
#87 = PERSON_AND_ORGANIZATION ( #230, #92 ) ;
#88 = CARTESIAN_POINT ( 'NONE',  ( 2.001540170288204956E-15, 0.000000000000000000, 0.5732638888888905715 ) ) ;
#89 = PERSON_AND_ORGANIZATION ( #230, #92 ) ;
#90 = CARTESIAN_POINT ( 'NONE',  ( 1.920314736363723472E-13, 0.000000000000000000, 55.00000000000000000 ) ) ;
#91 = ORIENTED_EDGE ( 'NONE', *, *, #133, .T. ) ;
#92 = ORGANIZATION ( 'UNSPECIFIED', 'UNSPECIFIED', '' ) ;
#93 = EDGE_CURVE ( 'NONE', #99, #99, #85, .T. ) ;
#94 = CARTESIAN_POINT ( 'NONE',  ( 1.920314736363723472E-13, 1.600000000000002975, 55.00000000000000000 ) ) ;
#95 = ORIENTED_EDGE ( 'NONE', *, *, #164, .F. ) ;
#96 = FACE_OUTER_BOUND ( 'NONE', #184, .T. ) ;
#97 = EDGE_LOOP ( 'NONE', ( #196 ) ) ;
#98 = ORIENTED_EDGE ( 'NONE', *, *, #9, .T. ) ;
#99 = VERTEX_POINT ( 'NONE', #65 ) ;
#100 = CARTESIAN_POINT ( 'NONE',  ( 7.390302167217950877E-15, 0.000000000000000000, 2.116666666666662699 ) ) ;
#101 = FACE_OUTER_BOUND ( 'NONE', #272, .T. ) ;
#102 = EDGE_LOOP ( 'NONE', ( #372 ) ) ;
#103 = EDGE_CURVE ( 'NONE', #6, #6, #137, .T. ) ;
#104 = FACE_OUTER_BOUND ( 'NONE', #76, .T. ) ;
#105 = CARTESIAN_POINT ( 'NONE',  ( 2.000000000000186517, 0.000000000000000000, 54.59999999999999432 ) ) ;
#106 = EDGE_LOOP ( 'NONE', ( #364 ) ) ;
#107 = CARTESIAN_POINT ( 'NONE',  ( 1.906348811008350938E-13, 0.000000000000000000, 54.60000000000000142 ) ) ;
#108 = AXIS2_PLACEMENT_3D ( 'NONE', #393, #386, #115 ) ;
#109 = CARTESIAN_POINT ( 'NONE',  ( 0.9990741737109832821, 0.000000000000000000, 15.75881904510251630 ) ) ;
#110 = DESIGN_CONTEXT ( 'detailed design', #112, 'design' ) ;
#111 = DATE_AND_TIME ( #360, #147 ) ;
#112 = APPLICATION_CONTEXT ( 'configuration controlled 3d designs of mechanical parts and assemblies' ) ;
#113 = ORIENTED_EDGE ( 'NONE', *, *, #203, .T. ) ;
#114 = APPROVAL ( #236, 'UNSPECIFIED' ) ;
#115 = DIRECTION ( 'NONE',  ( 1.000000000000000000, 0.000000000000000000, 0.000000000000000000 ) ) ;
#116 = DIRECTION ( 'NONE',  ( 1.000000000000000000, 0.000000000000000000, -3.493540333564403220E-15 ) ) ;
#117 = SECURITY_CLASSIFICATION_LEVEL ( 'unclassified' ) ;
#118 = DIRECTION ( 'NONE',  ( 1.000000000000000000, 0.000000000000000000, -5.836049918409085926E-15 ) ) ;
#119 = APPLICATION_CONTEXT ( 'configuration controlled 3d designs of mechanical parts and assemblies' ) ;
#120 = COORDINATED_UNIVERSAL_TIME_OFFSET ( 1, 0, .AHEAD. ) ;
#121 = CARTESIAN_POINT ( 'NONE',  ( 5.411796075206856701E-14, 0.000000000000000000, 15.50000000000000000 ) ) ;
#122 = EDGE_LOOP ( 'NONE', ( #342 ) ) ;
#123 = DIRECTION ( 'NONE',  ( 3.491481338843133355E-15, -0.000000000000000000, 1.000000000000000000 ) ) ;
#124 = EDGE_LOOP ( 'NONE', ( #256 ) ) ;
#125 = DIRECTION ( 'NONE',  ( 1.000000000000000000, 0.000000000000000000, -3.595281815495973404E-15 ) ) ;
#126 = EDGE_LOOP ( 'NONE', ( #332 ) ) ;
#127 = FACE_OUTER_BOUND ( 'NONE', #177, .T. ) ;
#128 = ADVANCED_BREP_SHAPE_REPRESENTATION ( '961063', ( #286, #108 ), #58 ) ;
#129 = AXIS2_PLACEMENT_3D ( 'NONE', #100, #250, #125 ) ;
#130 = DIRECTION ( 'NONE',  ( 3.491481338843133355E-15, -0.000000000000000000, 1.000000000000000000 ) ) ;
#131 = FACE_OUTER_BOUND ( 'NONE', #124, .T. ) ;
#132 = DIRECTION ( 'NONE',  ( 1.000000000000000000, 0.000000000000000000, -3.465154639055394941E-15 ) ) ;
#133 = EDGE_CURVE ( 'NONE', #37, #37, #66, .T. ) ;
#134 = CARTESIAN_POINT ( 'NONE',  ( 1.188970965107645661, 0.000000000000000000, 0.9260416666666646535 ) ) ;
#135 = EDGE_LOOP ( 'NONE', ( #98 ) ) ;
#136 = LOCAL_TIME ( 8, 25, 28.00000000000000000, #152 ) ;
#137 = CIRCLE ( 'NONE', #240, 1.188970965107642330 ) ;
#138 = EDGE_CURVE ( 'NONE', #279, #279, #389, .T. ) ;
#139 = DIRECTION ( 'NONE',  ( -3.491481338843133355E-15, 0.000000000000000000, -1.000000000000000000 ) ) ;
#140 = CIRCLE ( 'NONE', #150, 1.600000000000002975 ) ;
#141 = AXIS2_PLACEMENT_3D ( 'NONE', #7, #341, #283 ) ;
#142 = PERSON_AND_ORGANIZATION ( #230, #92 ) ;
#143 = CONICAL_SURFACE ( 'NONE', #358, 1.188970965107642330, 1.047197551196599852 ) ;
#144 = PRODUCT_DEFINITION ( 'UNKNOWN', '', #244, #110 ) ;
#145 = EDGE_LOOP ( 'NONE', ( #213 ) ) ;
#146 = PERSON_AND_ORGANIZATION ( #230, #92 ) ;
#147 = LOCAL_TIME ( 8, 25, 28.00000000000000000, #243 ) ;
#148 = CARTESIAN_POINT ( 'NONE',  ( 6.806407224210704237E-14, 0.000000000000000000, 19.49432508342129111 ) ) ;
#149 = APPROVAL_DATE_TIME ( #111, #45 ) ;
#150 = AXIS2_PLACEMENT_3D ( 'NONE', #33, #275, #237 ) ;
#151 = CARTESIAN_POINT ( 'NONE',  ( 1.906348811008350938E-13, 0.000000000000000000, 54.60000000000000142 ) ) ;
#152 = COORDINATED_UNIVERSAL_TIME_OFFSET ( 1, 0, .AHEAD. ) ;
#153 = ADVANCED_FACE ( 'NONE', ( #245, #298 ), #180, .T. ) ;
#154 = FACE_OUTER_BOUND ( 'NONE', #97, .T. ) ;
#155 = ORIENTED_EDGE ( 'NONE', *, *, #288, .T. ) ;
#156 = DIRECTION ( 'NONE',  ( 3.491481338843133355E-15, -0.000000000000000000, 1.000000000000000000 ) ) ;
#157 = EDGE_LOOP ( 'NONE', ( #192 ) ) ;
#158 = FACE_OUTER_BOUND ( 'NONE', #126, .T. ) ;
#159 = AXIS2_PLACEMENT_3D ( 'NONE', #258, #284, #199 ) ;
#160 = FACE_OUTER_BOUND ( 'NONE', #106, .T. ) ;
#161 = CARTESIAN_POINT ( 'NONE',  ( 5.502162261818121176E-14, 0.000000000000000000, 15.75881904510251985 ) ) ;
#162 = CIRCLE ( 'NONE', #214, 1.800000000000000044 ) ;
#163 = DIRECTION ( 'NONE',  ( 3.491481338843133355E-15, -0.000000000000000000, 1.000000000000000000 ) ) ;
#164 = EDGE_CURVE ( 'NONE', #378, #378, #47, .T. ) ;
#165 = VERTEX_POINT ( 'NONE', #134 ) ;
#166 = DIRECTION ( 'NONE',  ( 3.491481338843133355E-15, -0.000000000000000000, 1.000000000000000000 ) ) ;
#167 = ORIENTED_EDGE ( 'NONE', *, *, #103, .F. ) ;
#168 = VERTEX_POINT ( 'NONE', #290 ) ;
#169 = ORIENTED_EDGE ( 'NONE', *, *, #138, .F. ) ;
#170 = VERTEX_POINT ( 'NONE', #15 ) ;
#171 = CIRCLE ( 'NONE', #27, 1.188970965107642330 ) ;
#172 =( LENGTH_UNIT ( ) NAMED_UNIT ( * ) SI_UNIT ( .MILLI., .METRE. ) );
#173 = CC_DESIGN_APPROVAL ( #114, ( #144 ) ) ;
#174 = SHAPE_DEFINITION_REPRESENTATION ( #77, #128 ) ;
#175 = ADVANCED_FACE ( 'NONE', ( #158, #269 ), #143, .T. ) ;
#176 = UNCERTAINTY_MEASURE_WITH_UNIT (LENGTH_MEASURE( 1.000000000000000082E-05 ), #172, 'distance_accuracy_value', 'NONE');
#177 = EDGE_LOOP ( 'NONE', ( #276 ) ) ;
#178 = DATE_TIME_ROLE ( 'creation_date' ) ;
#179 = CARTESIAN_POINT ( 'NONE',  ( 4.157044969060107820E-15, 0.000000000000000000, 1.190625000000000711 ) ) ;
#180 = CYLINDRICAL_SURFACE ( 'NONE', #195, 1.999999999999997780 ) ;
#181 = CALENDAR_DATE ( 2023, 28, 9 ) ;
#182 = AXIS2_PLACEMENT_3D ( 'NONE', #16, #139, #13 ) ;
#183 = DIRECTION ( 'NONE',  ( 3.491481338843133355E-15, -0.000000000000000000, 1.000000000000000000 ) ) ;
#184 = EDGE_LOOP ( 'NONE', ( #91 ) ) ;
#185 = FACE_BOUND ( 'NONE', #303, .T. ) ;
#186 = DIRECTION ( 'NONE',  ( -1.000000000000000000, 0.000000000000000000, 3.491481338843133355E-15 ) ) ;
#187 = ORIENTED_EDGE ( 'NONE', *, *, #326, .F. ) ;
#188 = EDGE_CURVE ( 'NONE', #170, #170, #14, .T. ) ;
#189 = CYLINDRICAL_SURFACE ( 'NONE', #72, 1.800000000000000044 ) ;
#190 = CYLINDRICAL_SURFACE ( 'NONE', #226, 0.9649999999999990807 ) ;
#191 = CARTESIAN_POINT ( 'NONE',  ( 5.696691253897192621E-15, 0.000000000000000000, 1.631597222222225252 ) ) ;
#192 = ORIENTED_EDGE ( 'NONE', *, *, #67, .T. ) ;
#193 = AXIS2_PLACEMENT_3D ( 'NONE', #337, #64, #186 ) ;
#194 = DIRECTION ( 'NONE',  ( 1.000000000000000000, 0.000000000000000000, -3.493540333564403220E-15 ) ) ;
#195 = AXIS2_PLACEMENT_3D ( 'NONE', #300, #123, #59 ) ;
#196 = ORIENTED_EDGE ( 'NONE', *, *, #273, .T. ) ;
#197 = DIRECTION ( 'NONE',  ( 3.491481338843133355E-15, -0.000000000000000000, 1.000000000000000000 ) ) ;
#198 = CARTESIAN_POINT ( 'NONE',  ( 1.188970965107649214, 0.000000000000000000, 1.984374999999999112 ) ) ;
#199 = DIRECTION ( 'NONE',  ( 1.000000000000000000, 0.000000000000000000, -3.491481338843133355E-15 ) ) ;
#200 = AXIS2_PLACEMENT_3D ( 'NONE', #242, #31, #370 ) ;
#201 = AXIS2_PLACEMENT_3D ( 'NONE', #324, #166, #293 ) ;
#202 = CARTESIAN_POINT ( 'NONE',  ( 0.9650000000000072964, 0.000000000000000000, 2.116666666666659147 ) ) ;
#203 = EDGE_CURVE ( 'NONE', #17, #17, #291, .T. ) ;
#204 = APPROVAL_STATUS ( 'not_yet_approved' ) ;
#205 = FACE_OUTER_BOUND ( 'NONE', #102, .T. ) ;
#206 =( NAMED_UNIT ( * ) PLANE_ANGLE_UNIT ( ) SI_UNIT ( $, .RADIAN. ) );
#207 = CIRCLE ( 'NONE', #35, 1.800000000000000044 ) ;
#208 = DIRECTION ( 'NONE',  ( -3.491481338843133355E-15, 0.000000000000000000, -1.000000000000000000 ) ) ;
#209 = CC_DESIGN_DATE_AND_TIME_ASSIGNMENT ( #18, #301, ( #329 ) ) ;
#210 = FACE_OUTER_BOUND ( 'NONE', #135, .T. ) ;
#211 = PERSON_AND_ORGANIZATION_ROLE ( 'classification_officer' ) ;
#212 = FACE_OUTER_BOUND ( 'NONE', #377, .T. ) ;
#213 = ORIENTED_EDGE ( 'NONE', *, *, #164, .T. ) ;
#214 = AXIS2_PLACEMENT_3D ( 'NONE', #318, #347, #71 ) ;
#215 = DIRECTION ( 'NONE',  ( -3.491481338843133355E-15, 0.000000000000000000, -1.000000000000000000 ) ) ;
#216 = EDGE_LOOP ( 'NONE', ( #155 ) ) ;
#217 = PLANE ( 'NONE',  #193 ) ;
#218 = EDGE_LOOP ( 'NONE', ( #316 ) ) ;
#219 = CC_DESIGN_PERSON_AND_ORGANIZATION_ASSIGNMENT ( #87, #54, ( #56 ) ) ;
#220 = DIRECTION ( 'NONE',  ( 1.000000000000000000, 0.000000000000000000, -5.836049918409085926E-15 ) ) ;
#221 = CARTESIAN_POINT ( 'NONE',  ( 1.188970965107646549, 0.000000000000000000, 1.190624999999996492 ) ) ;
#222 = ADVANCED_FACE ( 'NONE', ( #212, #210 ), #302, .T. ) ;
#223 = DIRECTION ( 'NONE',  ( 3.491481338843133355E-15, -0.000000000000000000, 1.000000000000000000 ) ) ;
#224 = CARTESIAN_POINT ( 'NONE',  ( 1.920314736363723472E-13, 0.000000000000000000, 55.00000000000000000 ) ) ;
#225 = ORIENTED_EDGE ( 'NONE', *, *, #344, .T. ) ;
#226 = AXIS2_PLACEMENT_3D ( 'NONE', #373, #277, #75 ) ;
#227 = FACE_OUTER_BOUND ( 'NONE', #70, .T. ) ;
#228 = FACE_OUTER_BOUND ( 'NONE', #21, .T. ) ;
#229 = VERTEX_POINT ( 'NONE', #261 ) ;
#230 = PERSON ( 'UNSPECIFIED', 'UNSPECIFIED', 'UNSPECIFIED', ('UNSPECIFIED'), ('UNSPECIFIED'), ('UNSPECIFIED') ) ;
#231 = EDGE_LOOP ( 'NONE', ( #169 ) ) ;
#232 = DIRECTION ( 'NONE',  ( -3.491481338843133355E-15, 0.000000000000000000, -1.000000000000000000 ) ) ;
#233 = CARTESIAN_POINT ( 'NONE',  ( 0.9598350770230094087, 0.000000000000000000, -3.351246259792898825E-15 ) ) ;
#234 = ADVANCED_FACE ( 'NONE', ( #154 ), #394, .F. ) ;
#235 = PERSON_AND_ORGANIZATION ( #230, #92 ) ;
#236 = APPROVAL_STATUS ( 'not_yet_approved' ) ;
#237 = DIRECTION ( 'NONE',  ( 1.000000000000000000, 0.000000000000000000, -4.336808689942009847E-15 ) ) ;
#238 = AXIS2_PLACEMENT_3D ( 'NONE', #392, #305, #116 ) ;
#239 = APPROVAL_DATE_TIME ( #390, #114 ) ;
#240 = AXIS2_PLACEMENT_3D ( 'NONE', #179, #327, #86 ) ;
#241 = CALENDAR_DATE ( 2023, 28, 9 ) ;
#242 = CARTESIAN_POINT ( 'NONE',  ( 6.928408281766854782E-15, 0.000000000000000000, 1.984375000000003553 ) ) ;
#243 = COORDINATED_UNIVERSAL_TIME_OFFSET ( 1, 0, .AHEAD. ) ;
#244 = PRODUCT_DEFINITION_FORMATION_WITH_SPECIFIED_SOURCE ( 'ANY', '', #56, .NOT_KNOWN. ) ;
#245 = FACE_OUTER_BOUND ( 'NONE', #345, .T. ) ;
#246 = CONICAL_SURFACE ( 'NONE', #74, 0.9990741737109282150, 0.2617993877991430796 ) ;
#247 = ADVANCED_FACE ( 'NONE', ( #185, #96 ), #217, .F. ) ;
#248 = DIRECTION ( 'NONE',  ( 3.491481338843133355E-15, -0.000000000000000000, 1.000000000000000000 ) ) ;
#249 = DIRECTION ( 'NONE',  ( 3.491481338843133355E-15, -0.000000000000000000, 1.000000000000000000 ) ) ;
#250 = DIRECTION ( 'NONE',  ( 3.491481338843133355E-15, -0.000000000000000000, 1.000000000000000000 ) ) ;
#251 = PRODUCT_RELATED_PRODUCT_CATEGORY ( 'detail', '', ( #56 ) ) ;
#252 = CIRCLE ( 'NONE', #8, 0.9990741737109282150 ) ;
#253 = CLOSED_SHELL ( 'NONE', ( #23, #385, #317, #63, #222, #175, #355, #32, #304, #247, #391, #19, #48, #153, #38, #234 ) ) ;
#254 = CARTESIAN_POINT ( 'NONE',  ( 0.000000000000000000, 0.000000000000000000, 0.000000000000000000 ) ) ;
#255 = DIRECTION ( 'NONE',  ( 3.491481338843133355E-15, -0.000000000000000000, 1.000000000000000000 ) ) ;
#256 = ORIENTED_EDGE ( 'NONE', *, *, #344, .F. ) ;
#257 = LOCAL_TIME ( 8, 25, 28.00000000000000000, #57 ) ;
#258 = CARTESIAN_POINT ( 'NONE',  ( 5.411796075206856701E-14, 0.000000000000000000, 15.50000000000000000 ) ) ;
#259 = CC_DESIGN_DATE_AND_TIME_ASSIGNMENT ( #61, #178, ( #144 ) ) ;
#260 = FACE_BOUND ( 'NONE', #308, .T. ) ;
#261 = CARTESIAN_POINT ( 'NONE',  ( 1.600000000000195044, 0.000000000000000000, 54.99999999999999289 ) ) ;
#262 = APPLICATION_PROTOCOL_DEFINITION ( 'international standard', 'config_control_design', 1994, #119 ) ;
#263 = FACE_BOUND ( 'NONE', #216, .T. ) ;
#264 = CC_DESIGN_APPROVAL ( #321, ( #329 ) ) ;
#265 = DIRECTION ( 'NONE',  ( 1.000000000000000000, 0.000000000000000000, -3.469446951953621683E-15 ) ) ;
#266 = AXIS2_PLACEMENT_3D ( 'NONE', #94, #215, #62 ) ;
#267 = PERSON_AND_ORGANIZATION ( #230, #92 ) ;
#268 = TOROIDAL_SURFACE ( 'NONE', #159, 1.964999999999998082, 1.000000000000000000 ) ;
#269 = FACE_BOUND ( 'NONE', #368, .T. ) ;
#270 = CALENDAR_DATE ( 2023, 28, 9 ) ;
#271 = DIRECTION ( 'NONE',  ( 1.000000000000000000, 0.000000000000000000, -3.465154639055394941E-15 ) ) ;
#272 = EDGE_LOOP ( 'NONE', ( #113 ) ) ;
#273 = EDGE_CURVE ( 'NONE', #229, #229, #140, .T. ) ;
#274 = AXIS2_PLACEMENT_3D ( 'NONE', #88, #208, #53 ) ;
#275 = DIRECTION ( 'NONE',  ( 3.491481338843133355E-15, -0.000000000000000000, 1.000000000000000000 ) ) ;
#276 = ORIENTED_EDGE ( 'NONE', *, *, #133, .F. ) ;
#277 = DIRECTION ( 'NONE',  ( 3.491481338843133355E-15, -0.000000000000000000, 1.000000000000000000 ) ) ;
#278 = CC_DESIGN_PERSON_AND_ORGANIZATION_ASSIGNMENT ( #235, #365, ( #244 ) ) ;
#279 = VERTEX_POINT ( 'NONE', #12 ) ;
#280 = APPROVAL_PERSON_ORGANIZATION ( #299, #45, #384 ) ;
#281 = CIRCLE ( 'NONE', #369, 0.9598350770230094087 ) ;
#282 = CIRCLE ( 'NONE', #382, 1.800000000000000044 ) ;
#283 = DIRECTION ( 'NONE',  ( 1.000000000000000000, 0.000000000000000000, -3.491481338843133355E-15 ) ) ;
#284 = DIRECTION ( 'NONE',  ( 3.491481338843133355E-15, -0.000000000000000000, 1.000000000000000000 ) ) ;
#285 = CARTESIAN_POINT ( 'NONE',  ( 1.188970965107649658, 0.000000000000000000, 2.116666666666664920 ) ) ;
#286 = MANIFOLD_SOLID_BREP ( 'Corps-Déplacer/Copier1', #253 ) ;
#287 = FACE_OUTER_BOUND ( 'NONE', #43, .T. ) ;
#288 = EDGE_CURVE ( 'NONE', #381, #381, #252, .T. ) ;
#289 = ORIENTED_EDGE ( 'NONE', *, *, #188, .F. ) ;
#290 = CARTESIAN_POINT ( 'NONE',  ( 1.800000000000005596, 0.000000000000000000, 1.631597222222219035 ) ) ;
#291 = CIRCLE ( 'NONE', #200, 1.188970965107642330 ) ;
#292 = AXIS2_PLACEMENT_3D ( 'NONE', #55, #361, #29 ) ;
#293 = DIRECTION ( 'NONE',  ( 1.000000000000000000, 0.000000000000000000, -3.491481338843133355E-15 ) ) ;
#294 = EDGE_CURVE ( 'NONE', #295, #295, #78, .T. ) ;
#295 = VERTEX_POINT ( 'NONE', #202 ) ;
#296 = CARTESIAN_POINT ( 'NONE',  ( 5.502162261818121176E-14, 0.000000000000000000, 15.75881904510251985 ) ) ;
#297 = APPROVAL_ROLE ( '' ) ;
#298 = FACE_OUTER_BOUND ( 'NONE', #376, .T. ) ;
#299 = PERSON_AND_ORGANIZATION ( #230, #92 ) ;
#300 = CARTESIAN_POINT ( 'NONE',  ( 1.920314736363723472E-13, 0.000000000000000000, 55.00000000000000000 ) ) ;
#301 = DATE_TIME_ROLE ( 'classification_date' ) ;
#302 = CYLINDRICAL_SURFACE ( 'NONE', #320, 1.188970965107642330 ) ;
#303 = EDGE_LOOP ( 'NONE', ( #60 ) ) ;
#304 = ADVANCED_FACE ( 'NONE', ( #127, #101 ), #36, .T. ) ;
#305 = DIRECTION ( 'NONE',  ( 3.491481338843133355E-15, -0.000000000000000000, 1.000000000000000000 ) ) ;
#306 = EDGE_LOOP ( 'NONE', ( #225 ) ) ;
#307 = DIRECTION ( 'NONE',  ( 1.000000000000000000, 0.000000000000000000, -3.472662033757528236E-15 ) ) ;
#308 = EDGE_LOOP ( 'NONE', ( #313 ) ) ;
#309 = AXIS2_PLACEMENT_3D ( 'NONE', #148, #5, #1 ) ;
#310 = FACE_OUTER_BOUND ( 'NONE', #218, .T. ) ;
#311 = CARTESIAN_POINT ( 'NONE',  ( 1.800000000000005373, 0.000000000000000000, 1.543402777777772572 ) ) ;
#312 = CARTESIAN_POINT ( 'NONE',  ( 1.920314736363723472E-13, 0.000000000000000000, 55.00000000000000000 ) ) ;
#313 = ORIENTED_EDGE ( 'NONE', *, *, #273, .F. ) ;
#314 = CONICAL_SURFACE ( 'NONE', #141, 0.9598350770230094087, 1.047197551196599852 ) ;
#315 = DIRECTION ( 'NONE',  ( 1.000000000000000000, 0.000000000000000000, -3.491481338843133355E-15 ) ) ;
#316 = ORIENTED_EDGE ( 'NONE', *, *, #350, .F. ) ;
#317 = ADVANCED_FACE ( 'NONE', ( #131, #340 ), #343, .T. ) ;
#318 = CARTESIAN_POINT ( 'NONE',  ( 2.001540170288204956E-15, 0.000000000000000000, 0.5732638888888905715 ) ) ;
#319 = ORIENTED_EDGE ( 'NONE', *, *, #288, .F. ) ;
#320 = AXIS2_PLACEMENT_3D ( 'NONE', #90, #367, #118 ) ;
#321 = APPROVAL ( #204, 'UNSPECIFIED' ) ;
#322 = VERTEX_POINT ( 'NONE', #354 ) ;
#323 = DATE_AND_TIME ( #270, #136 ) ;
#324 = CARTESIAN_POINT ( 'NONE',  ( -1.049114025226332235E-33, 0.000000000000000000, -3.004781991972339493E-19 ) ) ;
#325 =( NAMED_UNIT ( * ) SI_UNIT ( $, .STERADIAN. ) SOLID_ANGLE_UNIT ( ) );
#326 = EDGE_CURVE ( 'NONE', #44, #44, #281, .T. ) ;
#327 = DIRECTION ( 'NONE',  ( 3.491481338843133355E-15, -0.000000000000000000, 1.000000000000000000 ) ) ;
#328 = APPLICATION_PROTOCOL_DEFINITION ( 'international standard', 'config_control_design', 1994, #112 ) ;
#329 = SECURITY_CLASSIFICATION ( '', '', #117 ) ;
#330 = CC_DESIGN_PERSON_AND_ORGANIZATION_ASSIGNMENT ( #89, #211, ( #329 ) ) ;
#331 = DIRECTION ( 'NONE',  ( 1.000000000000000000, 0.000000000000000000, -3.595281815495979715E-15 ) ) ;
#332 = ORIENTED_EDGE ( 'NONE', *, *, #67, .F. ) ;
#333 = AXIS2_PLACEMENT_3D ( 'NONE', #374, #255, #375 ) ;
#334 = COORDINATED_UNIVERSAL_TIME_OFFSET ( 1, 0, .AHEAD. ) ;
#335 = FACE_BOUND ( 'NONE', #379, .T. ) ;
#336 = ORIENTED_EDGE ( 'NONE', *, *, #203, .F. ) ;
#337 = CARTESIAN_POINT ( 'NONE',  ( 7.390302167217963498E-15, 1.188970965107642330, 2.116666666666665808 ) ) ;
#338 = ORIENTED_EDGE ( 'NONE', *, *, #9, .F. ) ;
#339 = FACE_BOUND ( 'NONE', #122, .T. ) ;
#340 = FACE_OUTER_BOUND ( 'NONE', #39, .T. ) ;
#341 = DIRECTION ( 'NONE',  ( 3.491481338843133355E-15, -0.000000000000000000, 1.000000000000000000 ) ) ;
#342 = ORIENTED_EDGE ( 'NONE', *, *, #326, .T. ) ;
#343 = CYLINDRICAL_SURFACE ( 'NONE', #333, 1.800000000000000044 ) ;
#344 = EDGE_CURVE ( 'NONE', #322, #322, #162, .T. ) ;
#345 = EDGE_LOOP ( 'NONE', ( #95 ) ) ;
#346 = LOCAL_TIME ( 8, 25, 28.00000000000000000, #120 ) ;
#347 = DIRECTION ( 'NONE',  ( 3.491481338843133355E-15, -0.000000000000000000, 1.000000000000000000 ) ) ;
#348 = PLANE ( 'NONE',  #201 ) ;
#349 = ORIENTED_EDGE ( 'NONE', *, *, #188, .T. ) ;
#350 = EDGE_CURVE ( 'NONE', #168, #168, #282, .T. ) ;
#351 = DIRECTION ( 'NONE',  ( -1.000000000000000000, 0.000000000000000000, 3.469446951953621683E-15 ) ) ;
#352 = CONICAL_SURFACE ( 'NONE', #182, 1.800000000000000044, 1.047197551196599852 ) ;
#353 = AXIS2_PLACEMENT_3D ( 'NONE', #121, #156, #331 ) ;
#354 = CARTESIAN_POINT ( 'NONE',  ( 1.800000000000001821, 0.000000000000000000, 0.5732638888888842432 ) ) ;
#355 = ADVANCED_FACE ( 'NONE', ( #310, #41 ), #189, .T. ) ;
#356 = CC_DESIGN_APPROVAL ( #45, ( #244 ) ) ;
#357 = CALENDAR_DATE ( 2023, 28, 9 ) ;
#358 = AXIS2_PLACEMENT_3D ( 'NONE', #24, #183, #271 ) ;
#359 = DIRECTION ( 'NONE',  ( 3.491481338843133355E-15, -0.000000000000000000, 1.000000000000000000 ) ) ;
#360 = CALENDAR_DATE ( 2023, 28, 9 ) ;
#361 = DIRECTION ( 'NONE',  ( 3.491481338843133355E-15, -0.000000000000000000, 1.000000000000000000 ) ) ;
#362 = PERSON_AND_ORGANIZATION ( #230, #92 ) ;
#363 = CARTESIAN_POINT ( 'NONE',  ( 5.388761996929770770E-15, 0.000000000000000000, 1.543402777777779011 ) ) ;
#364 = ORIENTED_EDGE ( 'NONE', *, *, #294, .T. ) ;
#365 = PERSON_AND_ORGANIZATION_ROLE ( 'creator' ) ;
#366 = AXIS2_PLACEMENT_3D ( 'NONE', #224, #249, #220 ) ;
#367 = DIRECTION ( 'NONE',  ( 3.491481338843133355E-15, -0.000000000000000000, 1.000000000000000000 ) ) ;
#368 = EDGE_LOOP ( 'NONE', ( #395 ) ) ;
#369 = AXIS2_PLACEMENT_3D ( 'NONE', #254, #130, #315 ) ;
#370 = DIRECTION ( 'NONE',  ( 1.000000000000000000, 0.000000000000000000, -3.647531199005678803E-15 ) ) ;
#371 = VERTEX_POINT ( 'NONE', #311 ) ;
#372 = ORIENTED_EDGE ( 'NONE', *, *, #93, .F. ) ;
#373 = CARTESIAN_POINT ( 'NONE',  ( 1.920314736363723472E-13, 0.000000000000000000, 55.00000000000000000 ) ) ;
#374 = CARTESIAN_POINT ( 'NONE',  ( 1.920314736363723472E-13, 0.000000000000000000, 55.00000000000000000 ) ) ;
#375 = DIRECTION ( 'NONE',  ( 1.000000000000000000, 0.000000000000000000, -3.854941057726237900E-15 ) ) ;
#376 = EDGE_LOOP ( 'NONE', ( #34 ) ) ;
#377 = EDGE_LOOP ( 'NONE', ( #167 ) ) ;
#378 = VERTEX_POINT ( 'NONE', #105 ) ;
#379 = EDGE_LOOP ( 'NONE', ( #338 ) ) ;
#380 = FACE_OUTER_BOUND ( 'NONE', #145, .T. ) ;
#381 = VERTEX_POINT ( 'NONE', #109 ) ;
#382 = AXIS2_PLACEMENT_3D ( 'NONE', #191, #163, #194 ) ;
#383 = CONICAL_SURFACE ( 'NONE', #50, 1.999999999999995781, 0.7853981633974423948 ) ;
#384 = APPROVAL_ROLE ( '' ) ;
#385 = ADVANCED_FACE ( 'NONE', ( #227, #339 ), #314, .T. ) ;
#386 = DIRECTION ( 'NONE',  ( 0.000000000000000000, 0.000000000000000000, 1.000000000000000000 ) ) ;
#387 = DIRECTION ( 'NONE',  ( 3.491481338843133355E-15, -0.000000000000000000, 1.000000000000000000 ) ) ;
#388 = FACE_OUTER_BOUND ( 'NONE', #306, .T. ) ;
#389 = CIRCLE ( 'NONE', #353, 0.9649999999999981926 ) ;
#390 = DATE_AND_TIME ( #357, #346 ) ;
#391 = ADVANCED_FACE ( 'NONE', ( #68, #160 ), #190, .T. ) ;
#392 = CARTESIAN_POINT ( 'NONE',  ( 1.693610913320783104E-15, 0.000000000000000000, 0.4850694444444442199 ) ) ;
#393 = CARTESIAN_POINT ( 'NONE',  ( 0.000000000000000000, 0.000000000000000000, 0.000000000000000000 ) ) ;
#394 = PLANE ( 'NONE',  #266 ) ;
#395 = ORIENTED_EDGE ( 'NONE', *, *, #103, .T. ) ;
ENDSEC;
END-ISO-10303-21;
