ISO-10303-21;
HEADER;
FILE_DESCRIPTION (( 'STEP AP203' ),
    '1' );
FILE_NAME ('961062.step',
    '2023-09-28T06:25:28',
    ( '' ),
    ( '' ),
    'SwSTEP 2.0',
    'SolidWorks 2022',
    '' );
FILE_SCHEMA (( 'CONFIG_CONTROL_DESIGN' ));
ENDSEC;

DATA;
#1 = FACE_OUTER_BOUND ( 'NONE', #97, .T. ) ;
#2 = AXIS2_PLACEMENT_3D ( 'NONE', #239, #208, #87 ) ;
#3 = FACE_OUTER_BOUND ( 'NONE', #66, .T. ) ;
#4 = EDGE_CURVE ( 'NONE', #245, #245, #174, .T. ) ;
#5 = CARTESIAN_POINT ( 'NONE',  ( 0.9900000000000455103, 0.000000000000000000, 13.39999999999999858 ) ) ;
#6 = CARTESIAN_POINT ( 'NONE',  ( 4.678584994049799958E-14, 0.000000000000000000, 13.40000000000000213 ) ) ;
#7 = VERTEX_POINT ( 'NONE', #183 ) ;
#8 = ORIENTED_EDGE ( 'NONE', *, *, #114, .F. ) ;
#9 = CIRCLE ( 'NONE', #104, 1.161728223830731599 ) ;
#10 = VERTEX_POINT ( 'NONE', #93 ) ;
#11 = ORIENTED_EDGE ( 'NONE', *, *, #4, .T. ) ;
#12 = FACE_OUTER_BOUND ( 'NONE', #146, .T. ) ;
#13 = ORIENTED_EDGE ( 'NONE', *, *, #329, .F. ) ;
#14 = VERTEX_POINT ( 'NONE', #122 ) ;
#15 = ORIENTED_EDGE ( 'NONE', *, *, #123, .T. ) ;
#16 = APPROVAL_DATE_TIME ( #23, #196 ) ;
#17 = ADVANCED_FACE ( 'NONE', ( #82, #53 ), #207, .T. ) ;
#18 = FACE_OUTER_BOUND ( 'NONE', #251, .T. ) ;
#19 = CLOSED_SHELL ( 'NONE', ( #76, #130, #360, #17, #290, #317, #145, #139, #370, #366, #284, #157, #88, #70, #395, #276 ) ) ;
#20 = CALENDAR_DATE ( 2023, 28, 9 ) ;
#21 = DIRECTION ( 'NONE',  ( 1.000000000000000000, 0.000000000000000000, -3.387886386570427386E-15 ) ) ;
#22 = LOCAL_TIME ( 8, 25, 28.00000000000000000, #84 ) ;
#23 = DATE_AND_TIME ( #382, #153 ) ;
#24 = DIRECTION ( 'NONE',  ( 1.000000000000000000, 0.000000000000000000, -4.336808689942009847E-15 ) ) ;
#25 = EDGE_LOOP ( 'NONE', ( #103 ) ) ;
#26 = DIRECTION ( 'NONE',  ( 3.491481338843133355E-15, -0.000000000000000000, 1.000000000000000000 ) ) ;
#27 = DIRECTION ( 'NONE',  ( -1.000000000000000000, 0.000000000000000000, 3.491481338843133355E-15 ) ) ;
#28 = PRODUCT_DEFINITION_FORMATION_WITH_SPECIFIED_SOURCE ( 'ANY', '', #60, .NOT_KNOWN. ) ;
#29 = FACE_OUTER_BOUND ( 'NONE', #101, .T. ) ;
#30 = APPROVAL ( #227, 'UNSPECIFIED' ) ;
#31 = CIRCLE ( 'NONE', #252, 1.619999999999999885 ) ;
#32 = FACE_OUTER_BOUND ( 'NONE', #132, .T. ) ;
#33 = CYLINDRICAL_SURFACE ( 'NONE', #95, 1.619999999999999885 ) ;
#34 = VERTEX_POINT ( 'NONE', #215 ) ;
#35 = EDGE_LOOP ( 'NONE', ( #13 ) ) ;
#36 = AXIS2_PLACEMENT_3D ( 'NONE', #330, #297, #21 ) ;
#37 = ORIENTED_EDGE ( 'NONE', *, *, #46, .T. ) ;
#38 = APPLICATION_CONTEXT ( 'configuration controlled 3d designs of mechanical parts and assemblies' ) ;
#39 = VERTEX_POINT ( 'NONE', #375 ) ;
#40 = ORIENTED_EDGE ( 'NONE', *, *, #354, .F. ) ;
#41 = EDGE_CURVE ( 'NONE', #186, #186, #214, .T. ) ;
#42 = EDGE_LOOP ( 'NONE', ( #37 ) ) ;
#43 = ORIENTED_EDGE ( 'NONE', *, *, #41, .F. ) ;
#44 = DESIGN_CONTEXT ( 'detailed design', #38, 'design' ) ;
#45 = DIRECTION ( 'NONE',  ( 3.491481338843133355E-15, -0.000000000000000000, 1.000000000000000000 ) ) ;
#46 = EDGE_CURVE ( 'NONE', #250, #250, #83, .T. ) ;
#47 = DATE_TIME_ROLE ( 'creation_date' ) ;
#48 = AXIS2_PLACEMENT_3D ( 'NONE', #59, #26, #303 ) ;
#49 = DIRECTION ( 'NONE',  ( 1.000000000000000000, 0.000000000000000000, -3.491481338843133355E-15 ) ) ;
#50 = COORDINATED_UNIVERSAL_TIME_OFFSET ( 1, 0, .AHEAD. ) ;
#51 = FACE_BOUND ( 'NONE', #69, .T. ) ;
#52 = CONICAL_SURFACE ( 'NONE', #274, 1.619999999999999885, 1.047197551196602738 ) ;
#53 = FACE_OUTER_BOUND ( 'NONE', #217, .T. ) ;
#54 = PERSON_AND_ORGANIZATION_ROLE ( 'creator' ) ;
#55 = DIRECTION ( 'NONE',  ( 1.000000000000000000, 0.000000000000000000, -3.480155121558409533E-15 ) ) ;
#56 = AXIS2_PLACEMENT_3D ( 'NONE', #102, #67, #223 ) ;
#57 = ORIENTED_EDGE ( 'NONE', *, *, #354, .T. ) ;
#58 = DIRECTION ( 'NONE',  ( 3.491481338843133355E-15, -0.000000000000000000, 1.000000000000000000 ) ) ;
#59 = CARTESIAN_POINT ( 'NONE',  ( 1.906348811008350938E-13, 0.000000000000000000, 54.60000000000000142 ) ) ;
#60 = PRODUCT ( '961062', '961062', '', ( #345 ) ) ;
#61 = CC_DESIGN_DATE_AND_TIME_ASSIGNMENT ( #169, #47, ( #272 ) ) ;
#62 = DIRECTION ( 'NONE',  ( 3.491481338843133355E-15, -0.000000000000000000, 1.000000000000000000 ) ) ;
#63 = CARTESIAN_POINT ( 'NONE',  ( 5.542726625413474990E-15, 1.161728223830730711, 1.587500000000000133 ) ) ;
#64 = CYLINDRICAL_SURFACE ( 'NONE', #109, 0.9899999999999993250 ) ;
#65 = VERTEX_POINT ( 'NONE', #339 ) ;
#66 = EDGE_LOOP ( 'NONE', ( #161 ) ) ;
#67 = DIRECTION ( 'NONE',  ( 0.000000000000000000, 0.000000000000000000, 1.000000000000000000 ) ) ;
#68 = AXIS2_PLACEMENT_3D ( 'NONE', #112, #170, #358 ) ;
#69 = EDGE_LOOP ( 'NONE', ( #75 ) ) ;
#70 = ADVANCED_FACE ( 'NONE', ( #258, #18 ), #237, .T. ) ;
#71 = EDGE_LOOP ( 'NONE', ( #322 ) ) ;
#72 = AXIS2_PLACEMENT_3D ( 'NONE', #362, #176, #120 ) ;
#73 = CARTESIAN_POINT ( 'NONE',  ( 1.161728223830734708, 0.000000000000000000, 0.8929687499999965361 ) ) ;
#74 = COORDINATED_UNIVERSAL_TIME_OFFSET ( 1, 0, .AHEAD. ) ;
#75 = ORIENTED_EDGE ( 'NONE', *, *, #342, .T. ) ;
#76 = ADVANCED_FACE ( 'NONE', ( #85 ), #110, .F. ) ;
#77 = APPROVAL_ROLE ( '' ) ;
#78 = LOCAL_TIME ( 8, 25, 28.00000000000000000, #74 ) ;
#79 = AXIS2_PLACEMENT_3D ( 'NONE', #335, #393, #27 ) ;
#80 = FACE_OUTER_BOUND ( 'NONE', #280, .T. ) ;
#81 = APPLICATION_PROTOCOL_DEFINITION ( 'international standard', 'config_control_design', 1994, #38 ) ;
#82 = FACE_BOUND ( 'NONE', #158, .T. ) ;
#83 = CIRCLE ( 'NONE', #369, 1.619999999999999885 ) ;
#84 = COORDINATED_UNIVERSAL_TIME_OFFSET ( 1, 0, .AHEAD. ) ;
#85 = FACE_OUTER_BOUND ( 'NONE', #376, .T. ) ;
#86 = CYLINDRICAL_SURFACE ( 'NONE', #164, 1.161728223830730933 ) ;
#87 = DIRECTION ( 'NONE',  ( 1.000000000000000000, 0.000000000000000000, -3.453086492956608577E-15 ) ) ;
#88 = ADVANCED_FACE ( 'NONE', ( #235, #261 ), #327, .T. ) ;
#89 = DIRECTION ( 'NONE',  ( 1.000000000000000000, 0.000000000000000000, -3.480155121558409533E-15 ) ) ;
#90 = FACE_BOUND ( 'NONE', #347, .T. ) ;
#91 = DIRECTION ( 'NONE',  ( 1.000000000000000000, 0.000000000000000000, -3.453086492956604633E-15 ) ) ;
#92 = CARTESIAN_POINT ( 'NONE',  ( 1.161728223830732709, 0.000000000000000000, 0.6945312499999940492 ) ) ;
#93 = CARTESIAN_POINT ( 'NONE',  ( 1.620000000000004103, 0.000000000000000000, 1.157552083333326820 ) ) ;
#94 = EDGE_LOOP ( 'NONE', ( #155 ) ) ;
#95 = AXIS2_PLACEMENT_3D ( 'NONE', #175, #58, #308 ) ;
#96 = CARTESIAN_POINT ( 'NONE',  ( 1.600000000000195044, 0.000000000000000000, 54.99999999999999289 ) ) ;
#97 = EDGE_LOOP ( 'NONE', ( #349 ) ) ;
#98 = CC_DESIGN_PERSON_AND_ORGANIZATION_ASSIGNMENT ( #350, #357, ( #307 ) ) ;
#99 = VERTEX_POINT ( 'NONE', #221 ) ;
#100 = AXIS2_PLACEMENT_3D ( 'NONE', #138, #168, #326 ) ;
#101 = EDGE_LOOP ( 'NONE', ( #185 ) ) ;
#102 = CARTESIAN_POINT ( 'NONE',  ( 0.000000000000000000, 0.000000000000000000, 0.000000000000000000 ) ) ;
#103 = ORIENTED_EDGE ( 'NONE', *, *, #257, .F. ) ;
#104 = AXIS2_PLACEMENT_3D ( 'NONE', #206, #334, #91 ) ;
#105 = DIRECTION ( 'NONE',  ( 3.491481338843133355E-15, -0.000000000000000000, 1.000000000000000000 ) ) ;
#106 = PERSON_AND_ORGANIZATION_ROLE ( 'design_supplier' ) ;
#107 = CARTESIAN_POINT ( 'NONE',  ( 4.041571497697321767E-15, 0.000000000000000000, 1.157552083333332593 ) ) ;
#108 = COORDINATED_UNIVERSAL_TIME_OFFSET ( 1, 0, .AHEAD. ) ;
#109 = AXIS2_PLACEMENT_3D ( 'NONE', #277, #269, #241 ) ;
#110 = PLANE ( 'NONE',  #294 ) ;
#111 = DIRECTION ( 'NONE',  ( 3.491481338843133355E-15, -0.000000000000000000, 1.000000000000000000 ) ) ;
#112 = CARTESIAN_POINT ( 'NONE',  ( 1.501155127716147307E-15, 0.000000000000000000, 0.4299479166666661523 ) ) ;
#113 = CARTESIAN_POINT ( 'NONE',  ( 3.117783726795081063E-15, 0.000000000000000000, 0.8929687500000005329 ) ) ;
#114 = EDGE_CURVE ( 'NONE', #10, #10, #266, .T. ) ;
#115 = CONICAL_SURFACE ( 'NONE', #372, 1.161728223830731599, 1.047197551196602738 ) ;
#116 = DIRECTION ( 'NONE',  ( 1.000000000000000000, 0.000000000000000000, -5.972906366195211168E-15 ) ) ;
#117 = AXIS2_PLACEMENT_3D ( 'NONE', #107, #105, #389 ) ;
#118 = FACE_OUTER_BOUND ( 'NONE', #187, .T. ) ;
#119 = DIRECTION ( 'NONE',  ( 3.491481338843133355E-15, -0.000000000000000000, 1.000000000000000000 ) ) ;
#120 = DIRECTION ( 'NONE',  ( 1.000000000000000000, 0.000000000000000000, -3.546413154928404758E-15 ) ) ;
#121 = DIRECTION ( 'NONE',  ( 3.491481338843133355E-15, -0.000000000000000000, 1.000000000000000000 ) ) ;
#122 = CARTESIAN_POINT ( 'NONE',  ( 0.9900000000000056533, 0.000000000000000000, 1.587499999999995248 ) ) ;
#123 = EDGE_CURVE ( 'NONE', #189, #189, #156, .T. ) ;
#124 = ORIENTED_EDGE ( 'NONE', *, *, #299, .T. ) ;
#125 =( GEOMETRIC_REPRESENTATION_CONTEXT ( 3 ) GLOBAL_UNCERTAINTY_ASSIGNED_CONTEXT ( ( #213 ) ) GLOBAL_UNIT_ASSIGNED_CONTEXT ( ( #320, #247, #288 ) ) REPRESENTATION_CONTEXT ( 'NONE', 'WORKASPACE' ) );
#126 = VERTEX_POINT ( 'NONE', #154 ) ;
#127 = EDGE_LOOP ( 'NONE', ( #268 ) ) ;
#128 = CIRCLE ( 'NONE', #180, 2.000000000000000000 ) ;
#129 = ORIENTED_EDGE ( 'NONE', *, *, #123, .F. ) ;
#130 = ADVANCED_FACE ( 'NONE', ( #324, #51 ), #310, .T. ) ;
#131 = DIRECTION ( 'NONE',  ( -3.491481338843133355E-15, 0.000000000000000000, -1.000000000000000000 ) ) ;
#132 = EDGE_LOOP ( 'NONE', ( #226 ) ) ;
#133 = DIRECTION ( 'NONE',  ( 3.491481338843133355E-15, -0.000000000000000000, 1.000000000000000000 ) ) ;
#134 = ADVANCED_BREP_SHAPE_REPRESENTATION ( '961062', ( #287, #56 ), #125 ) ;
#135 = PERSON_AND_ORGANIZATION ( #298, #197 ) ;
#136 = CARTESIAN_POINT ( 'NONE',  ( 1.920314736363723472E-13, 0.000000000000000000, 55.00000000000000000 ) ) ;
#137 = COORDINATED_UNIVERSAL_TIME_OFFSET ( 1, 0, .AHEAD. ) ;
#138 = CARTESIAN_POINT ( 'NONE',  ( 1.920314736363723472E-13, 0.000000000000000000, 55.00000000000000000 ) ) ;
#139 = ADVANCED_FACE ( 'NONE', ( #229, #351 ), #52, .T. ) ;
#140 = AXIS2_PLACEMENT_3D ( 'NONE', #332, #273, #337 ) ;
#141 = CIRCLE ( 'NONE', #188, 1.161728223830730711 ) ;
#142 = CARTESIAN_POINT ( 'NONE',  ( 4.272518440422894663E-15, 0.000000000000000000, 1.223697916666668828 ) ) ;
#143 = CARTESIAN_POINT ( 'NONE',  ( 4.768951180661061278E-14, 0.000000000000000000, 13.65881904510251488 ) ) ;
#144 = AXIS2_PLACEMENT_3D ( 'NONE', #136, #133, #24 ) ;
#145 = ADVANCED_FACE ( 'NONE', ( #232, #263 ), #291, .T. ) ;
#146 = EDGE_LOOP ( 'NONE', ( #341 ) ) ;
#147 = DIRECTION ( 'NONE',  ( 1.000000000000000000, 0.000000000000000000, -3.546413154928407519E-15 ) ) ;
#148 = PLANE ( 'NONE',  #79 ) ;
#149 = CIRCLE ( 'NONE', #48, 1.999999999999995781 ) ;
#150 = DIRECTION ( 'NONE',  ( 3.491481338843133355E-15, -0.000000000000000000, 1.000000000000000000 ) ) ;
#151 = FACE_OUTER_BOUND ( 'NONE', #94, .T. ) ;
#152 = DIRECTION ( 'NONE',  ( 1.000000000000000000, 0.000000000000000000, -3.453086492956604633E-15 ) ) ;
#153 = LOCAL_TIME ( 8, 25, 28.00000000000000000, #137 ) ;
#154 = CARTESIAN_POINT ( 'NONE',  ( 2.000000000000186517, 0.000000000000000000, 54.59999999999999432 ) ) ;
#155 = ORIENTED_EDGE ( 'NONE', *, *, #304, .T. ) ;
#156 = CIRCLE ( 'NONE', #36, 1.024074173710928681 ) ;
#157 = ADVANCED_FACE ( 'NONE', ( #195, #80 ), #363, .F. ) ;
#158 = EDGE_LOOP ( 'NONE', ( #255 ) ) ;
#159 = CARTESIAN_POINT ( 'NONE',  ( 1.620000000000004325, 0.000000000000000000, 1.223697916666663277 ) ) ;
#160 = ORIENTED_EDGE ( 'NONE', *, *, #182, .T. ) ;
#161 = ORIENTED_EDGE ( 'NONE', *, *, #41, .T. ) ;
#162 = FACE_BOUND ( 'NONE', #321, .T. ) ;
#163 = DIRECTION ( 'NONE',  ( -3.491481338843133355E-15, 0.000000000000000000, -1.000000000000000000 ) ) ;
#164 = AXIS2_PLACEMENT_3D ( 'NONE', #365, #271, #116 ) ;
#165 = SECURITY_CLASSIFICATION_LEVEL ( 'unclassified' ) ;
#166 = CARTESIAN_POINT ( 'NONE',  ( 1.501155127716147307E-15, 0.000000000000000000, 0.4299479166666661523 ) ) ;
#167 = CC_DESIGN_PERSON_AND_ORGANIZATION_ASSIGNMENT ( #254, #54, ( #28 ) ) ;
#168 = DIRECTION ( 'NONE',  ( 3.491481338843133355E-15, -0.000000000000000000, 1.000000000000000000 ) ) ;
#169 = DATE_AND_TIME ( #20, #22 ) ;
#170 = DIRECTION ( 'NONE',  ( -3.491481338843133355E-15, 0.000000000000000000, -1.000000000000000000 ) ) ;
#171 = DATE_AND_TIME ( #355, #379 ) ;
#172 = CARTESIAN_POINT ( 'NONE',  ( -2.724613476195718452E-32, 0.000000000000000000, -7.803603146561543811E-18 ) ) ;
#173 = DIRECTION ( 'NONE',  ( 3.491481338843133355E-15, -0.000000000000000000, 1.000000000000000000 ) ) ;
#174 = CIRCLE ( 'NONE', #228, 0.9899999999999986589 ) ;
#175 = CARTESIAN_POINT ( 'NONE',  ( 1.920314736363723472E-13, 0.000000000000000000, 55.00000000000000000 ) ) ;
#176 = DIRECTION ( 'NONE',  ( 3.491481338843133355E-15, -0.000000000000000000, 1.000000000000000000 ) ) ;
#177 = CIRCLE ( 'NONE', #346, 1.619999999999999885 ) ;
#178 = DIRECTION ( 'NONE',  ( -3.491481338843133355E-15, 0.000000000000000000, -1.000000000000000000 ) ) ;
#179 = EDGE_CURVE ( 'NONE', #99, #99, #31, .T. ) ;
#180 = AXIS2_PLACEMENT_3D ( 'NONE', #212, #119, #338 ) ;
#181 = CARTESIAN_POINT ( 'NONE',  ( 1.270208184990599260E-15, 0.000000000000000000, 0.3638020833333366344 ) ) ;
#182 = EDGE_CURVE ( 'NONE', #34, #34, #128, .T. ) ;
#183 = CARTESIAN_POINT ( 'NONE',  ( 1.620000000000001217, 0.000000000000000000, 0.3638020833333309723 ) ) ;
#184 = ORIENTED_EDGE ( 'NONE', *, *, #179, .F. ) ;
#185 = ORIENTED_EDGE ( 'NONE', *, *, #329, .T. ) ;
#186 = VERTEX_POINT ( 'NONE', #96 ) ;
#187 = EDGE_LOOP ( 'NONE', ( #246 ) ) ;
#188 = AXIS2_PLACEMENT_3D ( 'NONE', #244, #364, #147 ) ;
#189 = VERTEX_POINT ( 'NONE', #373 ) ;
#190 = EDGE_LOOP ( 'NONE', ( #377 ) ) ;
#191 = PERSON_AND_ORGANIZATION ( #298, #197 ) ;
#192 = AXIS2_PLACEMENT_3D ( 'NONE', #143, #356, #383 ) ;
#193 = DIRECTION ( 'NONE',  ( 3.491481338843133355E-15, -0.000000000000000000, 1.000000000000000000 ) ) ;
#194 = APPROVAL_DATE_TIME ( #259, #209 ) ;
#195 = FACE_OUTER_BOUND ( 'NONE', #343, .T. ) ;
#196 = APPROVAL ( #301, 'UNSPECIFIED' ) ;
#197 = ORGANIZATION ( 'UNSPECIFIED', 'UNSPECIFIED', '' ) ;
#198 = DIRECTION ( 'NONE',  ( 3.491481338843133355E-15, -0.000000000000000000, 1.000000000000000000 ) ) ;
#199 = DATE_TIME_ROLE ( 'classification_date' ) ;
#200 = AXIS2_PLACEMENT_3D ( 'NONE', #236, #267, #49 ) ;
#201 = CARTESIAN_POINT ( 'NONE',  ( 4.272518440422894663E-15, 0.000000000000000000, 1.223697916666668828 ) ) ;
#202 = CARTESIAN_POINT ( 'NONE',  ( 1.920314736363723472E-13, 0.000000000000000000, 55.00000000000000000 ) ) ;
#203 = CC_DESIGN_PERSON_AND_ORGANIZATION_ASSIGNMENT ( #385, #295, ( #272 ) ) ;
#204 = APPROVAL_PERSON_ORGANIZATION ( #328, #209, #77 ) ;
#205 = FACE_OUTER_BOUND ( 'NONE', #71, .T. ) ;
#206 = CARTESIAN_POINT ( 'NONE',  ( 3.117783726795081063E-15, 0.000000000000000000, 0.8929687500000005329 ) ) ;
#207 = CONICAL_SURFACE ( 'NONE', #68, 1.619999999999999885, 1.047197551196603849 ) ;
#208 = DIRECTION ( 'NONE',  ( 3.491481338843133355E-15, -0.000000000000000000, 1.000000000000000000 ) ) ;
#209 = APPROVAL ( #296, 'UNSPECIFIED' ) ;
#210 = PLANE ( 'NONE',  #331 ) ;
#211 = CC_DESIGN_SECURITY_CLASSIFICATION ( #307, ( #28 ) ) ;
#212 = CARTESIAN_POINT ( 'NONE',  ( 6.040620178678040836E-14, 0.000000000000000000, 17.30102381323206373 ) ) ;
#213 = UNCERTAINTY_MEASURE_WITH_UNIT (LENGTH_MEASURE( 1.000000000000000082E-05 ), #320, 'distance_accuracy_value', 'NONE');
#214 = CIRCLE ( 'NONE', #144, 1.600000000000002975 ) ;
#215 = CARTESIAN_POINT ( 'NONE',  ( 2.000000000000060396, 0.000000000000000000, 17.30102381323205663 ) ) ;
#216 = CC_DESIGN_DATE_AND_TIME_ASSIGNMENT ( #171, #199, ( #307 ) ) ;
#217 = EDGE_LOOP ( 'NONE', ( #380 ) ) ;
#218 = APPLICATION_PROTOCOL_DEFINITION ( 'international standard', 'config_control_design', 1994, #253 ) ;
#219 = ORIENTED_EDGE ( 'NONE', *, *, #342, .F. ) ;
#220 = AXIS2_PLACEMENT_3D ( 'NONE', #202, #198, #359 ) ;
#221 = CARTESIAN_POINT ( 'NONE',  ( 1.620000000000001439, 0.000000000000000000, 0.4299479166666604901 ) ) ;
#222 = EDGE_LOOP ( 'NONE', ( #8 ) ) ;
#223 = DIRECTION ( 'NONE',  ( 1.000000000000000000, 0.000000000000000000, 0.000000000000000000 ) ) ;
#224 = AXIS2_PLACEMENT_3D ( 'NONE', #279, #131, #318 ) ;
#225 = APPROVAL_DATE_TIME ( #348, #30 ) ;
#226 = ORIENTED_EDGE ( 'NONE', *, *, #230, .F. ) ;
#227 = APPROVAL_STATUS ( 'not_yet_approved' ) ;
#228 = AXIS2_PLACEMENT_3D ( 'NONE', #6, #121, #390 ) ;
#229 = FACE_BOUND ( 'NONE', #249, .T. ) ;
#230 = EDGE_CURVE ( 'NONE', #368, #368, #141, .T. ) ;
#231 = CALENDAR_DATE ( 2023, 28, 9 ) ;
#232 = FACE_OUTER_BOUND ( 'NONE', #190, .T. ) ;
#233 = AXIS2_PLACEMENT_3D ( 'NONE', #281, #315, #312 ) ;
#234 = PERSON_AND_ORGANIZATION ( #298, #197 ) ;
#235 = FACE_OUTER_BOUND ( 'NONE', #314, .T. ) ;
#236 = CARTESIAN_POINT ( 'NONE',  ( 4.678584994049799958E-14, 0.000000000000000000, 13.40000000000000213 ) ) ;
#237 = CYLINDRICAL_SURFACE ( 'NONE', #220, 1.999999999999997780 ) ;
#238 = CARTESIAN_POINT ( 'NONE',  ( 5.542726625413469468E-15, 0.000000000000000000, 1.587499999999998579 ) ) ;
#239 = CARTESIAN_POINT ( 'NONE',  ( 2.424942898618388011E-15, 0.000000000000000000, 0.6945312499999980460 ) ) ;
#240 = CC_DESIGN_PERSON_AND_ORGANIZATION_ASSIGNMENT ( #234, #262, ( #60 ) ) ;
#241 = DIRECTION ( 'NONE',  ( 1.000000000000000000, 0.000000000000000000, 0.000000000000000000 ) ) ;
#242 = DIRECTION ( 'NONE',  ( 1.000000000000000000, 0.000000000000000000, -3.504491870660216560E-15 ) ) ;
#243 = PRODUCT_RELATED_PRODUCT_CATEGORY ( 'detail', '', ( #60 ) ) ;
#244 = CARTESIAN_POINT ( 'NONE',  ( 5.542726625413469468E-15, 0.000000000000000000, 1.587499999999998579 ) ) ;
#245 = VERTEX_POINT ( 'NONE', #5 ) ;
#246 = ORIENTED_EDGE ( 'NONE', *, *, #230, .T. ) ;
#247 =( NAMED_UNIT ( * ) PLANE_ANGLE_UNIT ( ) SI_UNIT ( $, .RADIAN. ) );
#248 = APPROVAL_PERSON_ORGANIZATION ( #378, #30, #323 ) ;
#249 = EDGE_LOOP ( 'NONE', ( #319 ) ) ;
#250 = VERTEX_POINT ( 'NONE', #159 ) ;
#251 = EDGE_LOOP ( 'NONE', ( #160 ) ) ;
#252 = AXIS2_PLACEMENT_3D ( 'NONE', #166, #111, #293 ) ;
#253 = APPLICATION_CONTEXT ( 'configuration controlled 3d designs of mechanical parts and assemblies' ) ;
#254 = PERSON_AND_ORGANIZATION ( #298, #197 ) ;
#255 = ORIENTED_EDGE ( 'NONE', *, *, #304, .F. ) ;
#256 = CC_DESIGN_APPROVAL ( #30, ( #28 ) ) ;
#257 = EDGE_CURVE ( 'NONE', #126, #126, #149, .T. ) ;
#258 = FACE_OUTER_BOUND ( 'NONE', #25, .T. ) ;
#259 = DATE_AND_TIME ( #231, #353 ) ;
#260 = AXIS2_PLACEMENT_3D ( 'NONE', #386, #45, #302 ) ;
#261 = FACE_BOUND ( 'NONE', #316, .T. ) ;
#262 = PERSON_AND_ORGANIZATION_ROLE ( 'design_owner' ) ;
#263 = FACE_OUTER_BOUND ( 'NONE', #127, .T. ) ;
#264 = CALENDAR_DATE ( 2023, 28, 9 ) ;
#265 = DIRECTION ( 'NONE',  ( -1.000000000000000000, 0.000000000000000000, 3.480155121558409533E-15 ) ) ;
#266 = CIRCLE ( 'NONE', #117, 1.619999999999999885 ) ;
#267 = DIRECTION ( 'NONE',  ( 3.491481338843133355E-15, -0.000000000000000000, 1.000000000000000000 ) ) ;
#268 = ORIENTED_EDGE ( 'NONE', *, *, #114, .T. ) ;
#269 = DIRECTION ( 'NONE',  ( 3.491481338843133355E-15, -0.000000000000000000, 1.000000000000000000 ) ) ;
#270 = CIRCLE ( 'NONE', #325, 0.9899999999999999911 ) ;
#271 = DIRECTION ( 'NONE',  ( 3.491481338843133355E-15, -0.000000000000000000, 1.000000000000000000 ) ) ;
#272 = PRODUCT_DEFINITION ( 'UNKNOWN', '', #28, #44 ) ;
#273 = DIRECTION ( 'NONE',  ( 3.491481338843133355E-15, -0.000000000000000000, 1.000000000000000000 ) ) ;
#274 = AXIS2_PLACEMENT_3D ( 'NONE', #142, #163, #265 ) ;
#275 = FACE_OUTER_BOUND ( 'NONE', #374, .T. ) ;
#276 = ADVANCED_FACE ( 'NONE', ( #3 ), #148, .F. ) ;
#277 = CARTESIAN_POINT ( 'NONE',  ( 1.920314736363723472E-13, 0.000000000000000000, 55.00000000000000000 ) ) ;
#278 = CC_DESIGN_APPROVAL ( #196, ( #272 ) ) ;
#279 = CARTESIAN_POINT ( 'NONE',  ( 1.906348811008350938E-13, 0.000000000000000000, 54.60000000000000142 ) ) ;
#280 = EDGE_LOOP ( 'NONE', ( #11 ) ) ;
#281 = CARTESIAN_POINT ( 'NONE',  ( 1.920314736363723472E-13, 0.000000000000000000, 55.00000000000000000 ) ) ;
#282 = EDGE_LOOP ( 'NONE', ( #289 ) ) ;
#283 = CARTESIAN_POINT ( 'NONE',  ( 1.161728223830736484, 0.000000000000000000, 1.587499999999994582 ) ) ;
#284 = ADVANCED_FACE ( 'NONE', ( #205, #29 ), #64, .T. ) ;
#285 = ORIENTED_EDGE ( 'NONE', *, *, #182, .F. ) ;
#286 = EDGE_LOOP ( 'NONE', ( #40 ) ) ;
#287 = MANIFOLD_SOLID_BREP ( 'Corps-Déplacer/Copier1', #19 ) ;
#288 =( NAMED_UNIT ( * ) SI_UNIT ( $, .STERADIAN. ) SOLID_ANGLE_UNIT ( ) );
#289 = ORIENTED_EDGE ( 'NONE', *, *, #299, .F. ) ;
#290 = ADVANCED_FACE ( 'NONE', ( #391, #151 ), #86, .T. ) ;
#291 = CYLINDRICAL_SURFACE ( 'NONE', #100, 1.619999999999999885 ) ;
#292 = APPROVAL_ROLE ( '' ) ;
#293 = DIRECTION ( 'NONE',  ( 1.000000000000000000, 0.000000000000000000, -3.480155121558409533E-15 ) ) ;
#294 = AXIS2_PLACEMENT_3D ( 'NONE', #172, #193, #381 ) ;
#295 = PERSON_AND_ORGANIZATION_ROLE ( 'creator' ) ;
#296 = APPROVAL_STATUS ( 'not_yet_approved' ) ;
#297 = DIRECTION ( 'NONE',  ( 3.491481338843133355E-15, -0.000000000000000000, 1.000000000000000000 ) ) ;
#298 = PERSON ( 'UNSPECIFIED', 'UNSPECIFIED', 'UNSPECIFIED', ('UNSPECIFIED'), ('UNSPECIFIED'), ('UNSPECIFIED') ) ;
#299 = EDGE_CURVE ( 'NONE', #7, #7, #177, .T. ) ;
#300 = CONICAL_SURFACE ( 'NONE', #224, 1.999999999999995781, 0.7853981633974423948 ) ;
#301 = APPROVAL_STATUS ( 'not_yet_approved' ) ;
#302 = DIRECTION ( 'NONE',  ( 1.000000000000000000, 0.000000000000000000, -3.491481338843133355E-15 ) ) ;
#303 = DIRECTION ( 'NONE',  ( 1.000000000000000000, 0.000000000000000000, -3.469446951953621683E-15 ) ) ;
#304 = EDGE_CURVE ( 'NONE', #344, #344, #392, .T. ) ;
#305 = PRODUCT_DEFINITION_SHAPE ( 'NONE', 'NONE',  #272 ) ;
#306 = FACE_OUTER_BOUND ( 'NONE', #222, .T. ) ;
#307 = SECURITY_CLASSIFICATION ( '', '', #165 ) ;
#308 = DIRECTION ( 'NONE',  ( 1.000000000000000000, 0.000000000000000000, -4.283267841918042199E-15 ) ) ;
#309 = DIRECTION ( 'NONE',  ( -1.000000000000000000, 0.000000000000000000, 3.491481338843133355E-15 ) ) ;
#310 = CONICAL_SURFACE ( 'NONE', #260, 0.9898763077672563249, 1.047197551196596299 ) ;
#311 = FACE_OUTER_BOUND ( 'NONE', #371, .T. ) ;
#312 = DIRECTION ( 'NONE',  ( 1.000000000000000000, 0.000000000000000000, -5.972906366195210380E-15 ) ) ;
#313 = CIRCLE ( 'NONE', #140, 0.9898763077672563249 ) ;
#314 = EDGE_LOOP ( 'NONE', ( #285 ) ) ;
#315 = DIRECTION ( 'NONE',  ( 3.491481338843133355E-15, -0.000000000000000000, 1.000000000000000000 ) ) ;
#316 = EDGE_LOOP ( 'NONE', ( #15 ) ) ;
#317 = ADVANCED_FACE ( 'NONE', ( #306, #90 ), #115, .T. ) ;
#318 = DIRECTION ( 'NONE',  ( -1.000000000000000000, 0.000000000000000000, 3.469446951953621683E-15 ) ) ;
#319 = ORIENTED_EDGE ( 'NONE', *, *, #333, .F. ) ;
#320 =( LENGTH_UNIT ( ) NAMED_UNIT ( * ) SI_UNIT ( .MILLI., .METRE. ) );
#321 = EDGE_LOOP ( 'NONE', ( #43 ) ) ;
#322 = ORIENTED_EDGE ( 'NONE', *, *, #4, .F. ) ;
#323 = APPROVAL_ROLE ( '' ) ;
#324 = FACE_OUTER_BOUND ( 'NONE', #282, .T. ) ;
#325 = AXIS2_PLACEMENT_3D ( 'NONE', #238, #173, #242 ) ;
#326 = DIRECTION ( 'NONE',  ( 1.000000000000000000, 0.000000000000000000, -4.283267841918042199E-15 ) ) ;
#327 = CONICAL_SURFACE ( 'NONE', #192, 1.024074173710928681, 0.2617993877991428020 ) ;
#328 = PERSON_AND_ORGANIZATION ( #298, #197 ) ;
#329 = EDGE_CURVE ( 'NONE', #14, #14, #270, .T. ) ;
#330 = CARTESIAN_POINT ( 'NONE',  ( 4.768951180661061278E-14, 0.000000000000000000, 13.65881904510251488 ) ) ;
#331 = AXIS2_PLACEMENT_3D ( 'NONE', #63, #178, #309 ) ;
#332 = CARTESIAN_POINT ( 'NONE',  ( 0.000000000000000000, 0.000000000000000000, 0.000000000000000000 ) ) ;
#333 = EDGE_CURVE ( 'NONE', #39, #39, #361, .T. ) ;
#334 = DIRECTION ( 'NONE',  ( 3.491481338843133355E-15, -0.000000000000000000, 1.000000000000000000 ) ) ;
#335 = CARTESIAN_POINT ( 'NONE',  ( 1.920314736363723472E-13, 1.600000000000002975, 55.00000000000000000 ) ) ;
#336 = APPROVAL_PERSON_ORGANIZATION ( #191, #196, #292 ) ;
#337 = DIRECTION ( 'NONE',  ( 1.000000000000000000, 0.000000000000000000, -3.491481338843133355E-15 ) ) ;
#338 = DIRECTION ( 'NONE',  ( 1.000000000000000000, 0.000000000000000000, -3.469446951953614189E-15 ) ) ;
#339 = CARTESIAN_POINT ( 'NONE',  ( 0.9898763077672563249, 0.000000000000000000, -3.456134656332317798E-15 ) ) ;
#340 = VERTEX_POINT ( 'NONE', #73 ) ;
#341 = ORIENTED_EDGE ( 'NONE', *, *, #257, .T. ) ;
#342 = EDGE_CURVE ( 'NONE', #65, #65, #313, .T. ) ;
#343 = EDGE_LOOP ( 'NONE', ( #129 ) ) ;
#344 = VERTEX_POINT ( 'NONE', #92 ) ;
#345 = MECHANICAL_CONTEXT ( 'NONE', #253, 'mechanical' ) ;
#346 = AXIS2_PLACEMENT_3D ( 'NONE', #181, #150, #89 ) ;
#347 = EDGE_LOOP ( 'NONE', ( #57 ) ) ;
#348 = DATE_AND_TIME ( #264, #78 ) ;
#349 = ORIENTED_EDGE ( 'NONE', *, *, #333, .T. ) ;
#350 = PERSON_AND_ORGANIZATION ( #298, #197 ) ;
#351 = FACE_OUTER_BOUND ( 'NONE', #42, .T. ) ;
#352 = DIRECTION ( 'NONE',  ( 3.491481338843133355E-15, -0.000000000000000000, 1.000000000000000000 ) ) ;
#353 = LOCAL_TIME ( 8, 25, 28.00000000000000000, #50 ) ;
#354 = EDGE_CURVE ( 'NONE', #340, #340, #9, .T. ) ;
#355 = CALENDAR_DATE ( 2023, 28, 9 ) ;
#356 = DIRECTION ( 'NONE',  ( 3.491481338843133355E-15, -0.000000000000000000, 1.000000000000000000 ) ) ;
#357 = PERSON_AND_ORGANIZATION_ROLE ( 'classification_officer' ) ;
#358 = DIRECTION ( 'NONE',  ( -1.000000000000000000, 0.000000000000000000, 3.480155121558409533E-15 ) ) ;
#359 = DIRECTION ( 'NONE',  ( 1.000000000000000000, 0.000000000000000000, -3.469446951953618133E-15 ) ) ;
#360 = ADVANCED_FACE ( 'NONE', ( #311, #275 ), #33, .T. ) ;
#361 = CIRCLE ( 'NONE', #72, 1.161728223830731599 ) ;
#362 = CARTESIAN_POINT ( 'NONE',  ( 5.196306211325134973E-15, 0.000000000000000000, 1.488281250000000888 ) ) ;
#363 = TOROIDAL_SURFACE ( 'NONE', #200, 1.989999999999998659, 0.9999999999999991118 ) ;
#364 = DIRECTION ( 'NONE',  ( 3.491481338843133355E-15, -0.000000000000000000, 1.000000000000000000 ) ) ;
#365 = CARTESIAN_POINT ( 'NONE',  ( 1.920314736363723472E-13, 0.000000000000000000, 55.00000000000000000 ) ) ;
#366 = ADVANCED_FACE ( 'NONE', ( #394, #118 ), #210, .F. ) ;
#367 = CYLINDRICAL_SURFACE ( 'NONE', #233, 1.161728223830731155 ) ;
#368 = VERTEX_POINT ( 'NONE', #283 ) ;
#369 = AXIS2_PLACEMENT_3D ( 'NONE', #201, #352, #55 ) ;
#370 = ADVANCED_FACE ( 'NONE', ( #32, #1 ), #367, .T. ) ;
#371 = EDGE_LOOP ( 'NONE', ( #184 ) ) ;
#372 = AXIS2_PLACEMENT_3D ( 'NONE', #113, #62, #152 ) ;
#373 = CARTESIAN_POINT ( 'NONE',  ( 1.024074173710976421, 0.000000000000000000, 13.65881904510251132 ) ) ;
#374 = EDGE_LOOP ( 'NONE', ( #124 ) ) ;
#375 = CARTESIAN_POINT ( 'NONE',  ( 1.161728223830736928, 0.000000000000000000, 1.488281249999996669 ) ) ;
#376 = EDGE_LOOP ( 'NONE', ( #219 ) ) ;
#377 = ORIENTED_EDGE ( 'NONE', *, *, #46, .F. ) ;
#378 = PERSON_AND_ORGANIZATION ( #298, #197 ) ;
#379 = LOCAL_TIME ( 8, 25, 28.00000000000000000, #108 ) ;
#380 = ORIENTED_EDGE ( 'NONE', *, *, #179, .T. ) ;
#381 = DIRECTION ( 'NONE',  ( 1.000000000000000000, 0.000000000000000000, -3.491481338843133355E-15 ) ) ;
#382 = CALENDAR_DATE ( 2023, 28, 9 ) ;
#383 = DIRECTION ( 'NONE',  ( 1.000000000000000000, 0.000000000000000000, -3.387886386570427386E-15 ) ) ;
#384 = CC_DESIGN_PERSON_AND_ORGANIZATION_ASSIGNMENT ( #135, #106, ( #28 ) ) ;
#385 = PERSON_AND_ORGANIZATION ( #298, #197 ) ;
#386 = CARTESIAN_POINT ( 'NONE',  ( 0.000000000000000000, 0.000000000000000000, 0.000000000000000000 ) ) ;
#387 = CC_DESIGN_APPROVAL ( #209, ( #307 ) ) ;
#388 = SHAPE_DEFINITION_REPRESENTATION ( #305, #134 ) ;
#389 = DIRECTION ( 'NONE',  ( 1.000000000000000000, 0.000000000000000000, -3.480155121558409533E-15 ) ) ;
#390 = DIRECTION ( 'NONE',  ( 1.000000000000000000, 0.000000000000000000, -3.504491870660221293E-15 ) ) ;
#391 = FACE_OUTER_BOUND ( 'NONE', #286, .T. ) ;
#392 = CIRCLE ( 'NONE', #2, 1.161728223830730267 ) ;
#393 = DIRECTION ( 'NONE',  ( -3.491481338843133355E-15, 0.000000000000000000, -1.000000000000000000 ) ) ;
#394 = FACE_BOUND ( 'NONE', #35, .T. ) ;
#395 = ADVANCED_FACE ( 'NONE', ( #162, #12 ), #300, .T. ) ;
ENDSEC;
END-ISO-10303-21;
