ISO-10303-21;
HEADER;
FILE_DESCRIPTION (( 'STEP AP203' ),
    '1' );
FILE_NAME ('961056.step',
    '2023-09-28T06:23:23',
    ( '' ),
    ( '' ),
    'SwSTEP 2.0',
    'SolidWorks 2022',
    '' );
FILE_SCHEMA (( 'CONFIG_CONTROL_DESIGN' ));
ENDSEC;

DATA;
#1 = CARTESIAN_POINT ( 'NONE',  ( 2.199633243471174140E-13, 3.199999999999990852, 63.00000000000000000 ) ) ;
#2 = PRODUCT_DEFINITION_SHAPE ( 'NONE', 'NONE',  #195 ) ;
#3 = ADVANCED_FACE ( 'NONE', ( #20, #247 ), #112, .T. ) ;
#4 = CARTESIAN_POINT ( 'NONE',  ( 1.108545325082693894E-14, 0.000000000000000000, 3.174999999999997158 ) ) ;
#5 = ADVANCED_FACE ( 'NONE', ( #55, #244 ), #117, .T. ) ;
#6 = FACE_OUTER_BOUND ( 'NONE', #228, .T. ) ;
#7 = CC_DESIGN_PERSON_AND_ORGANIZATION_ASSIGNMENT ( #170, #135, ( #195 ) ) ;
#8 = CIRCLE ( 'NONE', #347, 2.908456447661464050 ) ;
#9 = FACE_OUTER_BOUND ( 'NONE', #232, .T. ) ;
#10 = CARTESIAN_POINT ( 'NONE',  ( 1.108545325082694840E-14, 2.908456447661464050, 3.174999999999999822 ) ) ;
#11 = FACE_OUTER_BOUND ( 'NONE', #272, .T. ) ;
#12 = EDGE_LOOP ( 'NONE', ( #386 ) ) ;
#13 = PERSON_AND_ORGANIZATION_ROLE ( 'classification_officer' ) ;
#14 = CARTESIAN_POINT ( 'NONE',  ( 3.825000000000002842, 0.000000000000000000, 0.7276041666666529517 ) ) ;
#15 = CALENDAR_DATE ( 2023, 28, 9 ) ;
#16 = FACE_OUTER_BOUND ( 'NONE', #246, .T. ) ;
#17 = DATE_TIME_ROLE ( 'creation_date' ) ;
#18 = CALENDAR_DATE ( 2023, 28, 9 ) ;
#19 = FACE_OUTER_BOUND ( 'NONE', #54, .T. ) ;
#20 = FACE_OUTER_BOUND ( 'NONE', #307, .T. ) ;
#21 = EDGE_CURVE ( 'NONE', #197, #197, #98, .T. ) ;
#22 = SECURITY_CLASSIFICATION ( '', '', #45 ) ;
#23 = FACE_BOUND ( 'NONE', #33, .T. ) ;
#24 = DIRECTION ( 'NONE',  ( 3.491481338843133355E-15, -0.000000000000000000, 1.000000000000000000 ) ) ;
#25 = UNCERTAINTY_MEASURE_WITH_UNIT (LENGTH_MEASURE( 1.000000000000000082E-05 ), #153, 'distance_accuracy_value', 'NONE');
#26 = AXIS2_PLACEMENT_3D ( 'NONE', #4, #216, #61 ) ;
#27 = AXIS2_PLACEMENT_3D ( 'NONE', #147, #333, #302 ) ;
#28 = CARTESIAN_POINT ( 'NONE',  ( 8.545036880845764083E-15, 0.000000000000000000, 2.447395833333330994 ) ) ;
#29 = PERSON_AND_ORGANIZATION_ROLE ( 'design_owner' ) ;
#30 = DIRECTION ( 'NONE',  ( 1.000000000000000000, 0.000000000000000000, -3.429537339260052214E-15 ) ) ;
#31 = VERTEX_POINT ( 'NONE', #342 ) ;
#32 = CARTESIAN_POINT ( 'NONE',  ( 2.199633243471174140E-13, 0.000000000000000000, 63.00000000000000000 ) ) ;
#33 = EDGE_LOOP ( 'NONE', ( #158 ) ) ;
#34 = DIRECTION ( 'NONE',  ( 1.000000000000000000, 0.000000000000000000, -5.410443589791214312E-15 ) ) ;
#35 = DIRECTION ( 'NONE',  ( 3.491481338843133355E-15, -0.000000000000000000, 1.000000000000000000 ) ) ;
#36 = EDGE_CURVE ( 'NONE', #165, #165, #8, .T. ) ;
#37 = EDGE_LOOP ( 'NONE', ( #44 ) ) ;
#38 = PERSON ( 'UNSPECIFIED', 'UNSPECIFIED', 'UNSPECIFIED', ('UNSPECIFIED'), ('UNSPECIFIED'), ('UNSPECIFIED') ) ;
#39 = CARTESIAN_POINT ( 'NONE',  ( -2.244098364412928059E-32, 0.000000000000000000, -6.427353167972214186E-18 ) ) ;
#40 = CARTESIAN_POINT ( 'NONE',  ( 6.235567453590162125E-15, 0.000000000000000000, 1.785937500000001066 ) ) ;
#41 = AXIS2_PLACEMENT_3D ( 'NONE', #108, #301, #304 ) ;
#42 = CARTESIAN_POINT ( 'NONE',  ( 2.199633243471174140E-13, 0.000000000000000000, 63.00000000000000000 ) ) ;
#43 = CARTESIAN_POINT ( 'NONE',  ( 8.083142995394643533E-15, 0.000000000000000000, 2.315104166666665186 ) ) ;
#44 = ORIENTED_EDGE ( 'NONE', *, *, #363, .F. ) ;
#45 = SECURITY_CLASSIFICATION_LEVEL ( 'unclassified' ) ;
#46 = VERTEX_POINT ( 'NONE', #52 ) ;
#47 = EDGE_CURVE ( 'NONE', #261, #261, #233, .T. ) ;
#48 = DATE_AND_TIME ( #76, #101 ) ;
#49 = EDGE_LOOP ( 'NONE', ( #357 ) ) ;
#50 = CONICAL_SURFACE ( 'NONE', #163, 3.824999999999999734, 1.047197551196596299 ) ;
#51 = DIRECTION ( 'NONE',  ( -1.000000000000000000, 0.000000000000000000, 3.514799199691570360E-15 ) ) ;
#52 = CARTESIAN_POINT ( 'NONE',  ( 2.908456447661475153, 0.000000000000000000, 2.976562499999992006 ) ) ;
#53 = ORIENTED_EDGE ( 'NONE', *, *, #235, .F. ) ;
#54 = EDGE_LOOP ( 'NONE', ( #174 ) ) ;
#55 = FACE_OUTER_BOUND ( 'NONE', #99, .T. ) ;
#56 = EDGE_LOOP ( 'NONE', ( #292 ) ) ;
#57 = CIRCLE ( 'NONE', #320, 3.824999999999999734 ) ;
#58 = DIRECTION ( 'NONE',  ( 3.491481338843133355E-15, -0.000000000000000000, 1.000000000000000000 ) ) ;
#59 = EDGE_LOOP ( 'NONE', ( #196 ) ) ;
#60 = DIRECTION ( 'NONE',  ( 0.000000000000000000, 0.000000000000000000, 1.000000000000000000 ) ) ;
#61 = DIRECTION ( 'NONE',  ( 1.000000000000000000, 0.000000000000000000, -3.550603605800482297E-15 ) ) ;
#62 = CC_DESIGN_PERSON_AND_ORGANIZATION_ASSIGNMENT ( #198, #266, ( #340 ) ) ;
#63 = DIRECTION ( 'NONE',  ( 1.000000000000000000, 0.000000000000000000, 0.000000000000000000 ) ) ;
#64 = DIRECTION ( 'NONE',  ( 1.000000000000000000, 0.000000000000000000, -3.628179819036459803E-15 ) ) ;
#65 = EDGE_CURVE ( 'NONE', #96, #96, #57, .T. ) ;
#66 = DIRECTION ( 'NONE',  ( 1.000000000000000000, 0.000000000000000000, -3.491481338843133355E-15 ) ) ;
#67 = EDGE_CURVE ( 'NONE', #353, #353, #267, .T. ) ;
#68 = CC_DESIGN_PERSON_AND_ORGANIZATION_ASSIGNMENT ( #294, #13, ( #22 ) ) ;
#69 = FACE_BOUND ( 'NONE', #156, .T. ) ;
#70 = CIRCLE ( 'NONE', #175, 2.908456447661464050 ) ;
#71 = FACE_OUTER_BOUND ( 'NONE', #59, .T. ) ;
#72 = EDGE_LOOP ( 'NONE', ( #219 ) ) ;
#73 = APPROVAL_DATE_TIME ( #137, #140 ) ;
#74 = FACE_OUTER_BOUND ( 'NONE', #330, .T. ) ;
#75 = AXIS2_PLACEMENT_3D ( 'NONE', #218, #35, #341 ) ;
#76 = CALENDAR_DATE ( 2023, 28, 9 ) ;
#77 = CONICAL_SURFACE ( 'NONE', #379, 2.908456447661464495, 1.047197551196602072 ) ;
#78 = ORIENTED_EDGE ( 'NONE', *, *, #235, .T. ) ;
#79 = CARTESIAN_POINT ( 'NONE',  ( 2.199633243471174140E-13, 0.000000000000000000, 63.00000000000000000 ) ) ;
#80 = DIRECTION ( 'NONE',  ( 3.491481338843133355E-15, -0.000000000000000000, 1.000000000000000000 ) ) ;
#81 = DIRECTION ( 'NONE',  ( 3.491481338843133355E-15, -0.000000000000000000, 1.000000000000000000 ) ) ;
#82 = AXIS2_PLACEMENT_3D ( 'NONE', #245, #60, #63 ) ;
#83 = COORDINATED_UNIVERSAL_TIME_OFFSET ( 1, 0, .AHEAD. ) ;
#84 = ORIENTED_EDGE ( 'NONE', *, *, #21, .F. ) ;
#85 = DIRECTION ( 'NONE',  ( 1.000000000000000000, 0.000000000000000000, -3.491481338843132961E-15 ) ) ;
#86 = APPROVAL_STATUS ( 'not_yet_approved' ) ;
#87 = CYLINDRICAL_SURFACE ( 'NONE', #162, 3.824999999999999734 ) ;
#88 = ORIENTED_EDGE ( 'NONE', *, *, #293, .F. ) ;
#89 = EDGE_CURVE ( 'NONE', #204, #204, #287, .T. ) ;
#90 = APPROVAL_PERSON_ORGANIZATION ( #275, #314, #312 ) ;
#91 = CARTESIAN_POINT ( 'NONE',  ( 2.199633243471174140E-13, 0.000000000000000000, 63.00000000000000000 ) ) ;
#92 = DIRECTION ( 'NONE',  ( 1.000000000000000000, 0.000000000000000000, -4.336808689942030358E-15 ) ) ;
#93 = FACE_OUTER_BOUND ( 'NONE', #256, .T. ) ;
#94 = EDGE_CURVE ( 'NONE', #349, #349, #104, .T. ) ;
#95 = AXIS2_PLACEMENT_3D ( 'NONE', #42, #200, #322 ) ;
#96 = VERTEX_POINT ( 'NONE', #97 ) ;
#97 = CARTESIAN_POINT ( 'NONE',  ( 3.825000000000008615, 0.000000000000000000, 2.447395833333317672 ) ) ;
#98 = CIRCLE ( 'NONE', #181, 2.564752615534514835 ) ;
#99 = EDGE_LOOP ( 'NONE', ( #167 ) ) ;
#100 = DIRECTION ( 'NONE',  ( -1.000000000000000000, 0.000000000000000000, 3.491481338843133355E-15 ) ) ;
#101 = LOCAL_TIME ( 8, 23, 23.00000000000000000, #326 ) ;
#102 = MANIFOLD_SOLID_BREP ( 'Corps-Déplacer/Copier1', #280 ) ;
#103 = PRODUCT_RELATED_PRODUCT_CATEGORY ( 'detail', '', ( #120 ) ) ;
#104 = CIRCLE ( 'NONE', #27, 3.825000000000000178 ) ;
#105 = PERSON_AND_ORGANIZATION_ROLE ( 'design_supplier' ) ;
#106 = LOCAL_TIME ( 8, 23, 23.00000000000000000, #382 ) ;
#107 = DIRECTION ( 'NONE',  ( 3.491481338843133355E-15, -0.000000000000000000, 1.000000000000000000 ) ) ;
#108 = CARTESIAN_POINT ( 'NONE',  ( 0.000000000000000000, 0.000000000000000000, 0.000000000000000000 ) ) ;
#109 = APPROVAL_ROLE ( '' ) ;
#110 = DIRECTION ( 'NONE',  ( 3.491481338843133355E-15, -0.000000000000000000, 1.000000000000000000 ) ) ;
#111 = ADVANCED_FACE ( 'NONE', ( #19, #142 ), #273, .T. ) ;
#112 = CYLINDRICAL_SURFACE ( 'NONE', #350, 2.908456447661464495 ) ;
#113 = AXIS2_PLACEMENT_3D ( 'NONE', #10, #192, #100 ) ;
#114 = CARTESIAN_POINT ( 'NONE',  ( 4.000000000000126121, 0.000000000000000000, 35.98714540644887450 ) ) ;
#115 = EDGE_LOOP ( 'NONE', ( #125 ) ) ;
#116 = AXIS2_PLACEMENT_3D ( 'NONE', #1, #155, #185 ) ;
#117 = CONICAL_SURFACE ( 'NONE', #41, 2.564752615534514835, 1.047197551196599852 ) ;
#118 = DIRECTION ( 'NONE',  ( -1.000000000000000000, 0.000000000000000000, 3.469446951953617344E-15 ) ) ;
#119 = EDGE_LOOP ( 'NONE', ( #205 ) ) ;
#120 = PRODUCT ( '961056', '961056', '', ( #122 ) ) ;
#121 = FACE_OUTER_BOUND ( 'NONE', #164, .T. ) ;
#122 = MECHANICAL_CONTEXT ( 'NONE', #381, 'mechanical' ) ;
#123 = CC_DESIGN_APPROVAL ( #314, ( #195 ) ) ;
#124 = FACE_OUTER_BOUND ( 'NONE', #388, .T. ) ;
#125 = ORIENTED_EDGE ( 'NONE', *, *, #89, .F. ) ;
#126 = AXIS2_PLACEMENT_3D ( 'NONE', #315, #311, #34 ) ;
#127 = FACE_BOUND ( 'NONE', #12, .T. ) ;
#128 = AXIS2_PLACEMENT_3D ( 'NONE', #40, #289, #295 ) ;
#129 = EDGE_LOOP ( 'NONE', ( #392 ) ) ;
#130 = DIRECTION ( 'NONE',  ( 3.491481338843133355E-15, -0.000000000000000000, 1.000000000000000000 ) ) ;
#131 = VERTEX_POINT ( 'NONE', #260 ) ;
#132 = ORIENTED_EDGE ( 'NONE', *, *, #231, .T. ) ;
#133 = DIRECTION ( 'NONE',  ( 3.491481338843133355E-15, -0.000000000000000000, 1.000000000000000000 ) ) ;
#134 = VERTEX_POINT ( 'NONE', #308 ) ;
#135 = PERSON_AND_ORGANIZATION_ROLE ( 'creator' ) ;
#136 = DIRECTION ( 'NONE',  ( 1.000000000000000000, 0.000000000000000000, -3.504092498809183356E-15 ) ) ;
#137 = DATE_AND_TIME ( #15, #290 ) ;
#138 = CIRCLE ( 'NONE', #26, 2.564999999999999947 ) ;
#139 = AXIS2_PLACEMENT_3D ( 'NONE', #209, #180, #394 ) ;
#140 = APPROVAL ( #297, 'UNSPECIFIED' ) ;
#141 = PERSON_AND_ORGANIZATION ( #38, #160 ) ;
#142 = FACE_OUTER_BOUND ( 'NONE', #129, .T. ) ;
#143 = DATE_AND_TIME ( #300, #277 ) ;
#144 = APPLICATION_CONTEXT ( 'configuration controlled 3d designs of mechanical parts and assemblies' ) ;
#145 = ORIENTED_EDGE ( 'NONE', *, *, #89, .T. ) ;
#146 = FACE_BOUND ( 'NONE', #49, .T. ) ;
#147 = CARTESIAN_POINT ( 'NONE',  ( 2.540416369981174460E-15, 0.000000000000000000, 0.7276041666666663854 ) ) ;
#148 = CIRCLE ( 'NONE', #360, 2.908456447661464495 ) ;
#149 = FACE_OUTER_BOUND ( 'NONE', #72, .T. ) ;
#150 = APPLICATION_PROTOCOL_DEFINITION ( 'international standard', 'config_control_design', 1994, #144 ) ;
#151 = EDGE_LOOP ( 'NONE', ( #179 ) ) ;
#152 = DIRECTION ( 'NONE',  ( 1.000000000000000000, 0.000000000000000000, -4.771530211144419855E-15 ) ) ;
#153 =( LENGTH_UNIT ( ) NAMED_UNIT ( * ) SI_UNIT ( .MILLI., .METRE. ) );
#154 = ADVANCED_FACE ( 'NONE', ( #355, #149 ), #50, .T. ) ;
#155 = DIRECTION ( 'NONE',  ( -3.491481338843133355E-15, 0.000000000000000000, -1.000000000000000000 ) ) ;
#156 = EDGE_LOOP ( 'NONE', ( #53 ) ) ;
#157 = PLANE ( 'NONE',  #116 ) ;
#158 = ORIENTED_EDGE ( 'NONE', *, *, #67, .T. ) ;
#159 = CARTESIAN_POINT ( 'NONE',  ( 1.039261242265026995E-14, 0.000000000000000000, 2.976562500000001776 ) ) ;
#160 = ORGANIZATION ( 'UNSPECIFIED', 'UNSPECIFIED', '' ) ;
#161 = DIRECTION ( 'NONE',  ( 3.491481338843133355E-15, -0.000000000000000000, 1.000000000000000000 ) ) ;
#162 = AXIS2_PLACEMENT_3D ( 'NONE', #32, #130, #64 ) ;
#163 = AXIS2_PLACEMENT_3D ( 'NONE', #203, #390, #51 ) ;
#164 = EDGE_LOOP ( 'NONE', ( #78 ) ) ;
#165 = VERTEX_POINT ( 'NONE', #291 ) ;
#166 = DIRECTION ( 'NONE',  ( 3.491481338843133355E-15, -0.000000000000000000, 1.000000000000000000 ) ) ;
#167 = ORIENTED_EDGE ( 'NONE', *, *, #94, .F. ) ;
#168 = CARTESIAN_POINT ( 'NONE',  ( 2.599074173711033886, 0.000000000000000000, 30.75881904510250209 ) ) ;
#169 = AXIS2_PLACEMENT_3D ( 'NONE', #39, #161, #66 ) ;
#170 = PERSON_AND_ORGANIZATION ( #38, #160 ) ;
#171 = CYLINDRICAL_SURFACE ( 'NONE', #251, 2.908456447661464495 ) ;
#172 = ORIENTED_EDGE ( 'NONE', *, *, #363, .T. ) ;
#173 = PERSON_AND_ORGANIZATION ( #38, #160 ) ;
#174 = ORIENTED_EDGE ( 'NONE', *, *, #183, .F. ) ;
#175 = AXIS2_PLACEMENT_3D ( 'NONE', #263, #177, #321 ) ;
#176 = CARTESIAN_POINT ( 'NONE',  ( 3.002310255432294614E-15, 0.000000000000000000, 0.8598958333333323045 ) ) ;
#177 = DIRECTION ( 'NONE',  ( 3.491481338843133355E-15, -0.000000000000000000, 1.000000000000000000 ) ) ;
#178 = ORIENTED_EDGE ( 'NONE', *, *, #288, .F. ) ;
#179 = ORIENTED_EDGE ( 'NONE', *, *, #293, .T. ) ;
#180 = DIRECTION ( 'NONE',  ( 3.491481338843133355E-15, -0.000000000000000000, 1.000000000000000000 ) ) ;
#181 = AXIS2_PLACEMENT_3D ( 'NONE', #274, #201, #85 ) ;
#182 = DIRECTION ( 'NONE',  ( 3.491481338843133355E-15, -0.000000000000000000, 1.000000000000000000 ) ) ;
#183 = EDGE_CURVE ( 'NONE', #331, #331, #226, .T. ) ;
#184 = EDGE_LOOP ( 'NONE', ( #84 ) ) ;
#185 = DIRECTION ( 'NONE',  ( -1.000000000000000000, 0.000000000000000000, 3.491481338843133355E-15 ) ) ;
#186 = FACE_OUTER_BOUND ( 'NONE', #184, .T. ) ;
#187 = ADVANCED_FACE ( 'NONE', ( #339, #121 ), #279, .T. ) ;
#188 = AXIS2_PLACEMENT_3D ( 'NONE', #43, #107, #377 ) ;
#189 = APPROVAL ( #268, 'UNSPECIFIED' ) ;
#190 = DIRECTION ( 'NONE',  ( -3.491481338843133355E-15, 0.000000000000000000, -1.000000000000000000 ) ) ;
#191 = ADVANCED_FACE ( 'NONE', ( #127, #9 ), #211, .T. ) ;
#192 = DIRECTION ( 'NONE',  ( -3.491481338843133355E-15, 0.000000000000000000, -1.000000000000000000 ) ) ;
#193 = ORIENTED_EDGE ( 'NONE', *, *, #242, .F. ) ;
#194 = PLANE ( 'NONE',  #113 ) ;
#195 = PRODUCT_DEFINITION ( 'UNKNOWN', '', #340, #258 ) ;
#196 = ORIENTED_EDGE ( 'NONE', *, *, #47, .F. ) ;
#197 = VERTEX_POINT ( 'NONE', #237 ) ;
#198 = PERSON_AND_ORGANIZATION ( #38, #160 ) ;
#199 = AXIS2_PLACEMENT_3D ( 'NONE', #91, #370, #92 ) ;
#200 = DIRECTION ( 'NONE',  ( 3.491481338843133355E-15, -0.000000000000000000, 1.000000000000000000 ) ) ;
#201 = DIRECTION ( 'NONE',  ( 3.491481338843133355E-15, -0.000000000000000000, 1.000000000000000000 ) ) ;
#202 = APPROVAL_DATE_TIME ( #327, #189 ) ;
#203 = CARTESIAN_POINT ( 'NONE',  ( 8.545036880845764083E-15, 0.000000000000000000, 2.447395833333330994 ) ) ;
#204 = VERTEX_POINT ( 'NONE', #229 ) ;
#205 = ORIENTED_EDGE ( 'NONE', *, *, #222, .F. ) ;
#206 = DIRECTION ( 'NONE',  ( 1.000000000000000000, 0.000000000000000000, -4.057832692343413298E-15 ) ) ;
#207 = ADVANCED_FACE ( 'NONE', ( #281, #93 ), #87, .T. ) ;
#208 = ORIENTED_EDGE ( 'NONE', *, *, #67, .F. ) ;
#209 = CARTESIAN_POINT ( 'NONE',  ( 1.073938427008281932E-13, 0.000000000000000000, 30.75881904510251275 ) ) ;
#210 = ADVANCED_FACE ( 'NONE', ( #344 ), #157, .F. ) ;
#211 = CONICAL_SURFACE ( 'NONE', #217, 3.999999999999996447, 0.7853981633974504994 ) ;
#212 = AXIS2_PLACEMENT_3D ( 'NONE', #239, #24, #354 ) ;
#213 = DIRECTION ( 'NONE',  ( 1.000000000000000000, 0.000000000000000000, -3.491481338843132961E-15 ) ) ;
#214 = DIRECTION ( 'NONE',  ( 1.000000000000000000, 0.000000000000000000, -3.486454044855347507E-15 ) ) ;
#215 = APPLICATION_PROTOCOL_DEFINITION ( 'international standard', 'config_control_design', 1994, #381 ) ;
#216 = DIRECTION ( 'NONE',  ( 3.491481338843133355E-15, -0.000000000000000000, 1.000000000000000000 ) ) ;
#217 = AXIS2_PLACEMENT_3D ( 'NONE', #368, #373, #118 ) ;
#218 = CARTESIAN_POINT ( 'NONE',  ( 1.256484466248506791E-13, 0.000000000000000000, 35.98714540644888871 ) ) ;
#219 = ORIENTED_EDGE ( 'NONE', *, *, #65, .T. ) ;
#220 = DIRECTION ( 'NONE',  ( 1.000000000000000000, 0.000000000000000000, -3.429537339260051820E-15 ) ) ;
#221 = ADVANCED_BREP_SHAPE_REPRESENTATION ( '961056', ( #102, #82 ), #284 ) ;
#222 = EDGE_CURVE ( 'NONE', #46, #46, #148, .T. ) ;
#223 = FACE_OUTER_BOUND ( 'NONE', #151, .T. ) ;
#224 = DATE_AND_TIME ( #285, #236 ) ;
#225 = EDGE_LOOP ( 'NONE', ( #387 ) ) ;
#226 = CIRCLE ( 'NONE', #372, 3.825000000000000178 ) ;
#227 = CARTESIAN_POINT ( 'NONE',  ( 6.235567453590162125E-15, 0.000000000000000000, 1.785937500000001066 ) ) ;
#228 = EDGE_LOOP ( 'NONE', ( #375 ) ) ;
#229 = CARTESIAN_POINT ( 'NONE',  ( 2.565000000000103864, 0.000000000000000000, 30.49999999999998934 ) ) ;
#230 = COORDINATED_UNIVERSAL_TIME_OFFSET ( 1, 0, .AHEAD. ) ;
#231 = EDGE_CURVE ( 'NONE', #131, #131, #371, .T. ) ;
#232 = EDGE_LOOP ( 'NONE', ( #332 ) ) ;
#233 = CIRCLE ( 'NONE', #212, 3.999999999999996447 ) ;
#234 = SHAPE_DEFINITION_REPRESENTATION ( #2, #221 ) ;
#235 = EDGE_CURVE ( 'NONE', #134, #134, #138, .T. ) ;
#236 = LOCAL_TIME ( 8, 23, 23.00000000000000000, #83 ) ;
#237 = CARTESIAN_POINT ( 'NONE',  ( 2.564752615534514835, 0.000000000000000000, -8.954785895887875235E-15 ) ) ;
#238 = CC_DESIGN_DATE_AND_TIME_ASSIGNMENT ( #143, #384, ( #22 ) ) ;
#239 = CARTESIAN_POINT ( 'NONE',  ( 2.171701392760428821E-13, 0.000000000000000000, 62.19999999999999574 ) ) ;
#240 = CONICAL_SURFACE ( 'NONE', #248, 3.825000000000000178, 1.047197551196602516 ) ;
#241 = CARTESIAN_POINT ( 'NONE',  ( 2.199633243471174140E-13, 0.000000000000000000, 63.00000000000000000 ) ) ;
#242 = EDGE_CURVE ( 'NONE', #250, #250, #253, .T. ) ;
#243 = CIRCLE ( 'NONE', #188, 3.824999999999999734 ) ;
#244 = FACE_BOUND ( 'NONE', #336, .T. ) ;
#245 = CARTESIAN_POINT ( 'NONE',  ( 0.000000000000000000, 0.000000000000000000, 0.000000000000000000 ) ) ;
#246 = EDGE_LOOP ( 'NONE', ( #193 ) ) ;
#247 = FACE_OUTER_BOUND ( 'NONE', #56, .T. ) ;
#248 = AXIS2_PLACEMENT_3D ( 'NONE', #255, #190, #319 ) ;
#249 = VERTEX_POINT ( 'NONE', #391 ) ;
#250 = VERTEX_POINT ( 'NONE', #114 ) ;
#251 = AXIS2_PLACEMENT_3D ( 'NONE', #79, #133, #270 ) ;
#252 = CARTESIAN_POINT ( 'NONE',  ( 1.064901808347155610E-13, 0.000000000000000000, 30.50000000000000000 ) ) ;
#253 = CIRCLE ( 'NONE', #75, 4.000000000000000000 ) ;
#254 = CIRCLE ( 'NONE', #128, 2.908456447661464495 ) ;
#255 = CARTESIAN_POINT ( 'NONE',  ( 3.002310255432294614E-15, 0.000000000000000000, 0.8598958333333323045 ) ) ;
#256 = EDGE_LOOP ( 'NONE', ( #172 ) ) ;
#257 = DIRECTION ( 'NONE',  ( 3.491481338843133355E-15, -0.000000000000000000, 1.000000000000000000 ) ) ;
#258 = DESIGN_CONTEXT ( 'detailed design', #144, 'design' ) ;
#259 = CONICAL_SURFACE ( 'NONE', #356, 2.599074173710925972, 0.2617993877991427465 ) ;
#260 = CARTESIAN_POINT ( 'NONE',  ( 3.200000000000211120, 0.000000000000000000, 62.99999999999998579 ) ) ;
#261 = VERTEX_POINT ( 'NONE', #376 ) ;
#262 = COORDINATED_UNIVERSAL_TIME_OFFSET ( 1, 0, .AHEAD. ) ;
#263 = CARTESIAN_POINT ( 'NONE',  ( 4.849885797236776023E-15, 0.000000000000000000, 1.389062499999996092 ) ) ;
#264 = ADVANCED_FACE ( 'NONE', ( #283, #124 ), #306, .F. ) ;
#265 = ADVANCED_FACE ( 'NONE', ( #186 ), #317, .F. ) ;
#266 = PERSON_AND_ORGANIZATION_ROLE ( 'creator' ) ;
#267 = CIRCLE ( 'NONE', #139, 2.599074173710925972 ) ;
#268 = APPROVAL_STATUS ( 'not_yet_approved' ) ;
#269 = EDGE_LOOP ( 'NONE', ( #88 ) ) ;
#270 = DIRECTION ( 'NONE',  ( 1.000000000000000000, 0.000000000000000000, -4.771530211144419855E-15 ) ) ;
#271 = CC_DESIGN_SECURITY_CLASSIFICATION ( #22, ( #340 ) ) ;
#272 = EDGE_LOOP ( 'NONE', ( #335 ) ) ;
#273 = CYLINDRICAL_SURFACE ( 'NONE', #337, 3.825000000000000178 ) ;
#274 = CARTESIAN_POINT ( 'NONE',  ( 0.000000000000000000, 0.000000000000000000, 0.000000000000000000 ) ) ;
#275 = PERSON_AND_ORGANIZATION ( #38, #160 ) ;
#276 = ORIENTED_EDGE ( 'NONE', *, *, #242, .T. ) ;
#277 = LOCAL_TIME ( 8, 23, 23.00000000000000000, #230 ) ;
#278 = DIRECTION ( 'NONE',  ( 1.000000000000000000, 0.000000000000000000, -3.514799199691570360E-15 ) ) ;
#279 = CYLINDRICAL_SURFACE ( 'NONE', #126, 2.564999999999998614 ) ;
#280 = CLOSED_SHELL ( 'NONE', ( #265, #5, #111, #282, #348, #351, #207, #154, #3, #389, #187, #264, #305, #296, #191, #210 ) ) ;
#281 = FACE_OUTER_BOUND ( 'NONE', #225, .T. ) ;
#282 = ADVANCED_FACE ( 'NONE', ( #286, #6 ), #240, .T. ) ;
#283 = FACE_OUTER_BOUND ( 'NONE', #310, .T. ) ;
#284 =( GEOMETRIC_REPRESENTATION_CONTEXT ( 3 ) GLOBAL_UNCERTAINTY_ASSIGNED_CONTEXT ( ( #25 ) ) GLOBAL_UNIT_ASSIGNED_CONTEXT ( ( #153, #395, #367 ) ) REPRESENTATION_CONTEXT ( 'NONE', 'WORKASPACE' ) );
#285 = CALENDAR_DATE ( 2023, 28, 9 ) ;
#286 = FACE_BOUND ( 'NONE', #269, .T. ) ;
#287 = CIRCLE ( 'NONE', #362, 2.564999999999996838 ) ;
#288 = EDGE_CURVE ( 'NONE', #31, #31, #254, .T. ) ;
#289 = DIRECTION ( 'NONE',  ( 3.491481338843133355E-15, -0.000000000000000000, 1.000000000000000000 ) ) ;
#290 = LOCAL_TIME ( 8, 23, 23.00000000000000000, #262 ) ;
#291 = CARTESIAN_POINT ( 'NONE',  ( 2.908456447661475597, 0.000000000000000000, 3.174999999999987388 ) ) ;
#292 = ORIENTED_EDGE ( 'NONE', *, *, #222, .T. ) ;
#293 = EDGE_CURVE ( 'NONE', #358, #358, #70, .T. ) ;
#294 = PERSON_AND_ORGANIZATION ( #38, #160 ) ;
#295 = DIRECTION ( 'NONE',  ( 1.000000000000000000, 0.000000000000000000, -3.504092498809183356E-15 ) ) ;
#296 = ADVANCED_FACE ( 'NONE', ( #71, #74 ), #303, .T. ) ;
#297 = APPROVAL_STATUS ( 'not_yet_approved' ) ;
#298 = FACE_OUTER_BOUND ( 'NONE', #37, .T. ) ;
#299 = APPROVAL_ROLE ( '' ) ;
#300 = CALENDAR_DATE ( 2023, 28, 9 ) ;
#301 = DIRECTION ( 'NONE',  ( 3.491481338843133355E-15, -0.000000000000000000, 1.000000000000000000 ) ) ;
#302 = DIRECTION ( 'NONE',  ( 1.000000000000000000, 0.000000000000000000, -3.486454044855347507E-15 ) ) ;
#303 = CYLINDRICAL_SURFACE ( 'NONE', #95, 3.999999999999998224 ) ;
#304 = DIRECTION ( 'NONE',  ( 1.000000000000000000, 0.000000000000000000, -3.491481338843132961E-15 ) ) ;
#305 = ADVANCED_FACE ( 'NONE', ( #16, #23 ), #259, .T. ) ;
#306 = TOROIDAL_SURFACE ( 'NONE', #338, 3.564999999999996838, 1.000000000000001110 ) ;
#307 = EDGE_LOOP ( 'NONE', ( #316 ) ) ;
#308 = CARTESIAN_POINT ( 'NONE',  ( 2.565000000000011493, 0.000000000000000000, 3.174999999999988276 ) ) ;
#309 = CC_DESIGN_DATE_AND_TIME_ASSIGNMENT ( #48, #17, ( #195 ) ) ;
#310 = EDGE_LOOP ( 'NONE', ( #208 ) ) ;
#311 = DIRECTION ( 'NONE',  ( 3.491481338843133355E-15, -0.000000000000000000, 1.000000000000000000 ) ) ;
#312 = APPROVAL_ROLE ( '' ) ;
#313 = ORIENTED_EDGE ( 'NONE', *, *, #21, .T. ) ;
#314 = APPROVAL ( #86, 'UNSPECIFIED' ) ;
#315 = CARTESIAN_POINT ( 'NONE',  ( 2.199633243471174140E-13, 0.000000000000000000, 63.00000000000000000 ) ) ;
#316 = ORIENTED_EDGE ( 'NONE', *, *, #36, .F. ) ;
#317 = PLANE ( 'NONE',  #169 ) ;
#318 = APPROVAL_PERSON_ORGANIZATION ( #173, #140, #299 ) ;
#319 = DIRECTION ( 'NONE',  ( -1.000000000000000000, 0.000000000000000000, 3.486454044855347507E-15 ) ) ;
#320 = AXIS2_PLACEMENT_3D ( 'NONE', #28, #80, #278 ) ;
#321 = DIRECTION ( 'NONE',  ( 1.000000000000000000, 0.000000000000000000, -3.504092498809183750E-15 ) ) ;
#322 = DIRECTION ( 'NONE',  ( 1.000000000000000000, 0.000000000000000000, -3.469446951953615767E-15 ) ) ;
#323 = CARTESIAN_POINT ( 'NONE',  ( 3.825000000000003286, 0.000000000000000000, 0.8598958333333189819 ) ) ;
#324 = APPROVAL_DATE_TIME ( #224, #314 ) ;
#325 = CARTESIAN_POINT ( 'NONE',  ( 1.073938427008281932E-13, 0.000000000000000000, 30.75881904510251275 ) ) ;
#326 = COORDINATED_UNIVERSAL_TIME_OFFSET ( 1, 0, .AHEAD. ) ;
#327 = DATE_AND_TIME ( #18, #106 ) ;
#328 = CC_DESIGN_APPROVAL ( #189, ( #22 ) ) ;
#329 = CARTESIAN_POINT ( 'NONE',  ( 1.064901808347155610E-13, 0.000000000000000000, 30.50000000000000000 ) ) ;
#330 = EDGE_LOOP ( 'NONE', ( #276 ) ) ;
#331 = VERTEX_POINT ( 'NONE', #323 ) ;
#332 = ORIENTED_EDGE ( 'NONE', *, *, #47, .T. ) ;
#333 = DIRECTION ( 'NONE',  ( 3.491481338843133355E-15, -0.000000000000000000, 1.000000000000000000 ) ) ;
#334 = PERSON_AND_ORGANIZATION ( #38, #160 ) ;
#335 = ORIENTED_EDGE ( 'NONE', *, *, #36, .T. ) ;
#336 = EDGE_LOOP ( 'NONE', ( #313 ) ) ;
#337 = AXIS2_PLACEMENT_3D ( 'NONE', #241, #110, #383 ) ;
#338 = AXIS2_PLACEMENT_3D ( 'NONE', #252, #343, #213 ) ;
#339 = FACE_OUTER_BOUND ( 'NONE', #115, .T. ) ;
#340 = PRODUCT_DEFINITION_FORMATION_WITH_SPECIFIED_SOURCE ( 'ANY', '', #120, .NOT_KNOWN. ) ;
#341 = DIRECTION ( 'NONE',  ( 1.000000000000000000, 0.000000000000000000, -3.469446951953614189E-15 ) ) ;
#342 = CARTESIAN_POINT ( 'NONE',  ( 2.908456447661470712, 0.000000000000000000, 1.785937499999990852 ) ) ;
#343 = DIRECTION ( 'NONE',  ( 3.491481338843133355E-15, -0.000000000000000000, 1.000000000000000000 ) ) ;
#344 = FACE_OUTER_BOUND ( 'NONE', #359, .T. ) ;
#345 = APPROVAL_PERSON_ORGANIZATION ( #141, #189, #109 ) ;
#346 = DIRECTION ( 'NONE',  ( 1.000000000000000000, 0.000000000000000000, -4.004634019736320698E-15 ) ) ;
#347 = AXIS2_PLACEMENT_3D ( 'NONE', #352, #58, #30 ) ;
#348 = ADVANCED_FACE ( 'NONE', ( #385, #223 ), #171, .T. ) ;
#349 = VERTEX_POINT ( 'NONE', #14 ) ;
#350 = AXIS2_PLACEMENT_3D ( 'NONE', #361, #182, #152 ) ;
#351 = ADVANCED_FACE ( 'NONE', ( #298, #146 ), #77, .T. ) ;
#352 = CARTESIAN_POINT ( 'NONE',  ( 1.108545325082693894E-14, 0.000000000000000000, 3.174999999999997158 ) ) ;
#353 = VERTEX_POINT ( 'NONE', #168 ) ;
#354 = DIRECTION ( 'NONE',  ( 1.000000000000000000, 0.000000000000000000, -3.469446951953617344E-15 ) ) ;
#355 = FACE_BOUND ( 'NONE', #119, .T. ) ;
#356 = AXIS2_PLACEMENT_3D ( 'NONE', #325, #378, #346 ) ;
#357 = ORIENTED_EDGE ( 'NONE', *, *, #288, .T. ) ;
#358 = VERTEX_POINT ( 'NONE', #369 ) ;
#359 = EDGE_LOOP ( 'NONE', ( #132 ) ) ;
#360 = AXIS2_PLACEMENT_3D ( 'NONE', #159, #257, #220 ) ;
#361 = CARTESIAN_POINT ( 'NONE',  ( 2.199633243471174140E-13, 0.000000000000000000, 63.00000000000000000 ) ) ;
#362 = AXIS2_PLACEMENT_3D ( 'NONE', #329, #81, #206 ) ;
#363 = EDGE_CURVE ( 'NONE', #249, #249, #243, .T. ) ;
#364 = EDGE_LOOP ( 'NONE', ( #178 ) ) ;
#365 = CC_DESIGN_PERSON_AND_ORGANIZATION_ASSIGNMENT ( #380, #105, ( #340 ) ) ;
#366 = DIRECTION ( 'NONE',  ( 3.491481338843133355E-15, -0.000000000000000000, 1.000000000000000000 ) ) ;
#367 =( NAMED_UNIT ( * ) SI_UNIT ( $, .STERADIAN. ) SOLID_ANGLE_UNIT ( ) );
#368 = CARTESIAN_POINT ( 'NONE',  ( 2.171701392760428821E-13, 0.000000000000000000, 62.19999999999999574 ) ) ;
#369 = CARTESIAN_POINT ( 'NONE',  ( 2.908456447661468935, 0.000000000000000000, 1.389062499999986100 ) ) ;
#370 = DIRECTION ( 'NONE',  ( 3.491481338843133355E-15, -0.000000000000000000, 1.000000000000000000 ) ) ;
#371 = CIRCLE ( 'NONE', #199, 3.199999999999990852 ) ;
#372 = AXIS2_PLACEMENT_3D ( 'NONE', #176, #366, #214 ) ;
#373 = DIRECTION ( 'NONE',  ( -3.491481338843133355E-15, 0.000000000000000000, -1.000000000000000000 ) ) ;
#374 = CC_DESIGN_PERSON_AND_ORGANIZATION_ASSIGNMENT ( #334, #29, ( #120 ) ) ;
#375 = ORIENTED_EDGE ( 'NONE', *, *, #183, .T. ) ;
#376 = CARTESIAN_POINT ( 'NONE',  ( 4.000000000000213163, 0.000000000000000000, 62.19999999999998153 ) ) ;
#377 = DIRECTION ( 'NONE',  ( 1.000000000000000000, 0.000000000000000000, -3.514799199691570360E-15 ) ) ;
#378 = DIRECTION ( 'NONE',  ( 3.491481338843133355E-15, -0.000000000000000000, 1.000000000000000000 ) ) ;
#379 = AXIS2_PLACEMENT_3D ( 'NONE', #227, #166, #136 ) ;
#380 = PERSON_AND_ORGANIZATION ( #38, #160 ) ;
#381 = APPLICATION_CONTEXT ( 'configuration controlled 3d designs of mechanical parts and assemblies' ) ;
#382 = COORDINATED_UNIVERSAL_TIME_OFFSET ( 1, 0, .AHEAD. ) ;
#383 = DIRECTION ( 'NONE',  ( 1.000000000000000000, 0.000000000000000000, -3.628179819036459014E-15 ) ) ;
#384 = DATE_TIME_ROLE ( 'classification_date' ) ;
#385 = FACE_OUTER_BOUND ( 'NONE', #364, .T. ) ;
#386 = ORIENTED_EDGE ( 'NONE', *, *, #231, .F. ) ;
#387 = ORIENTED_EDGE ( 'NONE', *, *, #65, .F. ) ;
#388 = EDGE_LOOP ( 'NONE', ( #145 ) ) ;
#389 = ADVANCED_FACE ( 'NONE', ( #69, #11 ), #194, .F. ) ;
#390 = DIRECTION ( 'NONE',  ( -3.491481338843133355E-15, 0.000000000000000000, -1.000000000000000000 ) ) ;
#391 = CARTESIAN_POINT ( 'NONE',  ( 3.825000000000008171, 0.000000000000000000, 2.315104166666651420 ) ) ;
#392 = ORIENTED_EDGE ( 'NONE', *, *, #94, .T. ) ;
#393 = CC_DESIGN_APPROVAL ( #140, ( #340 ) ) ;
#394 = DIRECTION ( 'NONE',  ( 1.000000000000000000, 0.000000000000000000, -4.004634019736320698E-15 ) ) ;
#395 =( NAMED_UNIT ( * ) PLANE_ANGLE_UNIT ( ) SI_UNIT ( $, .RADIAN. ) );
ENDSEC;
END-ISO-10303-21;
