ISO-10303-21;
HEADER;
FILE_DESCRIPTION (( 'STEP AP203' ),
    '1' );
FILE_NAME ('961055.step',
    '2023-09-28T06:23:22',
    ( '' ),
    ( '' ),
    'SwSTEP 2.0',
    'SolidWorks 2022',
    '' );
FILE_SCHEMA (( 'CONFIG_CONTROL_DESIGN' ));
ENDSEC;

DATA;
#1 = EDGE_LOOP ( 'NONE', ( #126 ) ) ;
#2 = DIRECTION ( 'NONE',  ( 1.000000000000000000, 0.000000000000000000, -3.450356787862660370E-15 ) ) ;
#3 = ORIENTED_EDGE ( 'NONE', *, *, #184, .T. ) ;
#4 = CC_DESIGN_PERSON_AND_ORGANIZATION_ASSIGNMENT ( #107, #105, ( #276 ) ) ;
#5 = CARTESIAN_POINT ( 'NONE',  ( 2.668720227050923638E-15, 0.000000000000000000, 0.7643518518518493954 ) ) ;
#6 = ORIENTED_EDGE ( 'NONE', *, *, #253, .T. ) ;
#7 = VERTEX_POINT ( 'NONE', #260 ) ;
#8 = ORIENTED_EDGE ( 'NONE', *, *, #216, .F. ) ;
#9 = CARTESIAN_POINT ( 'NONE',  ( 2.199633243471174140E-13, 0.000000000000000000, 63.00000000000000000 ) ) ;
#10 = CC_DESIGN_PERSON_AND_ORGANIZATION_ASSIGNMENT ( #137, #111, ( #392 ) ) ;
#11 = EDGE_LOOP ( 'NONE', ( #92 ) ) ;
#12 = APPROVAL_DATE_TIME ( #326, #212 ) ;
#13 = CIRCLE ( 'NONE', #277, 3.999999999999996447 ) ;
#14 = VERTEX_POINT ( 'NONE', #164 ) ;
#15 = CARTESIAN_POINT ( 'NONE',  ( 9.237877709022456740E-15, 0.000000000000000000, 2.645833333333333481 ) ) ;
#16 = PERSON_AND_ORGANIZATION_ROLE ( 'creator' ) ;
#17 = CARTESIAN_POINT ( 'NONE',  ( 7.595588338529573859E-15, 0.000000000000000000, 2.175462962962962266 ) ) ;
#18 = CALENDAR_DATE ( 2023, 28, 9 ) ;
#19 = DIRECTION ( 'NONE',  ( 3.491481338843133355E-15, -0.000000000000000000, 1.000000000000000000 ) ) ;
#20 = CC_DESIGN_PERSON_AND_ORGANIZATION_ASSIGNMENT ( #382, #292, ( #336 ) ) ;
#21 = APPROVAL_STATUS ( 'not_yet_approved' ) ;
#22 = EDGE_CURVE ( 'NONE', #229, #229, #224, .T. ) ;
#23 = DIRECTION ( 'NONE',  ( -1.000000000000000000, 0.000000000000000000, 3.491481338843133355E-15 ) ) ;
#24 = APPROVAL_PERSON_ORGANIZATION ( #135, #87, #176 ) ;
#25 = DIRECTION ( 'NONE',  ( 1.000000000000000000, 0.000000000000000000, -4.419677645800781869E-15 ) ) ;
#26 = CIRCLE ( 'NONE', #144, 2.054074173710927820 ) ;
#27 = DIRECTION ( 'NONE',  ( 1.000000000000000000, 0.000000000000000000, -3.491481338843132961E-15 ) ) ;
#28 = DIRECTION ( 'NONE',  ( 1.000000000000000000, 0.000000000000000000, -3.450356787862660764E-15 ) ) ;
#29 = ORIENTED_EDGE ( 'NONE', *, *, #75, .F. ) ;
#30 = CARTESIAN_POINT ( 'NONE',  ( 7.185015995906353138E-15, 0.000000000000000000, 2.057870370370369795 ) ) ;
#31 = ORIENTED_EDGE ( 'NONE', *, *, #321, .T. ) ;
#32 = FACE_OUTER_BOUND ( 'NONE', #308, .T. ) ;
#33 = EDGE_LOOP ( 'NONE', ( #262 ) ) ;
#34 = CARTESIAN_POINT ( 'NONE',  ( 3.200000000000211120, 0.000000000000000000, 62.99999999999998579 ) ) ;
#35 = ORIENTED_EDGE ( 'NONE', *, *, #353, .T. ) ;
#36 = VERTEX_POINT ( 'NONE', #289 ) ;
#37 = ORIENTED_EDGE ( 'NONE', *, *, #116, .F. ) ;
#38 = EDGE_CURVE ( 'NONE', #342, #342, #217, .T. ) ;
#39 = CARTESIAN_POINT ( 'NONE',  ( 2.325294620143532498, 0.000000000000000000, 2.645833333333325044 ) ) ;
#40 = DIRECTION ( 'NONE',  ( -3.491481338843133355E-15, 0.000000000000000000, -1.000000000000000000 ) ) ;
#41 = DIRECTION ( 'NONE',  ( -1.000000000000000000, 0.000000000000000000, 3.491481338843133355E-15 ) ) ;
#42 = ORIENTED_EDGE ( 'NONE', *, *, #327, .F. ) ;
#43 = CIRCLE ( 'NONE', #211, 3.140000000000000124 ) ;
#44 = APPROVAL_DATE_TIME ( #317, #87 ) ;
#45 = ADVANCED_FACE ( 'NONE', ( #234, #200 ), #256, .T. ) ;
#46 = APPLICATION_CONTEXT ( 'configuration controlled 3d designs of mechanical parts and assemblies' ) ;
#47 = DIRECTION ( 'NONE',  ( 1.000000000000000000, 0.000000000000000000, 0.000000000000000000 ) ) ;
#48 = PERSON ( 'UNSPECIFIED', 'UNSPECIFIED', 'UNSPECIFIED', ('UNSPECIFIED'), ('UNSPECIFIED'), ('UNSPECIFIED') ) ;
#49 = AXIS2_PLACEMENT_3D ( 'NONE', #227, #196, #2 ) ;
#50 = SECURITY_CLASSIFICATION ( '', '', #270 ) ;
#51 = CARTESIAN_POINT ( 'NONE',  ( 0.000000000000000000, 0.000000000000000000, 0.000000000000000000 ) ) ;
#52 = CARTESIAN_POINT ( 'NONE',  ( 2.199633243471174140E-13, 0.000000000000000000, 63.00000000000000000 ) ) ;
#53 = CIRCLE ( 'NONE', #49, 2.325294620143523616 ) ;
#54 = DIRECTION ( 'NONE',  ( 3.491481338843133355E-15, -0.000000000000000000, 1.000000000000000000 ) ) ;
#55 = CARTESIAN_POINT ( 'NONE',  ( 9.853736222957276776E-15, 0.000000000000000000, 2.822222222222218857 ) ) ;
#56 = FACE_OUTER_BOUND ( 'NONE', #221, .T. ) ;
#57 = CONICAL_SURFACE ( 'NONE', #108, 3.140000000000000124, 1.047197551196599630 ) ;
#58 = DIRECTION ( 'NONE',  ( 3.491481338843133355E-15, -0.000000000000000000, 1.000000000000000000 ) ) ;
#59 = EDGE_LOOP ( 'NONE', ( #29 ) ) ;
#60 = CARTESIAN_POINT ( 'NONE',  ( 3.140000000000007230, 0.000000000000000000, 2.057870370370358692 ) ) ;
#61 = ORIENTED_EDGE ( 'NONE', *, *, #253, .F. ) ;
#62 = DIRECTION ( 'NONE',  ( 3.491481338843133355E-15, -0.000000000000000000, 1.000000000000000000 ) ) ;
#63 = ADVANCED_FACE ( 'NONE', ( #316, #232 ), #362, .T. ) ;
#64 = ORIENTED_EDGE ( 'NONE', *, *, #353, .F. ) ;
#65 =( GEOMETRIC_REPRESENTATION_CONTEXT ( 3 ) GLOBAL_UNCERTAINTY_ASSIGNED_CONTEXT ( ( #302 ) ) GLOBAL_UNIT_ASSIGNED_CONTEXT ( ( #99, #266, #202 ) ) REPRESENTATION_CONTEXT ( 'NONE', 'WORKASPACE' ) );
#66 = DIRECTION ( 'NONE',  ( 3.491481338843133355E-15, -0.000000000000000000, 1.000000000000000000 ) ) ;
#67 = EDGE_LOOP ( 'NONE', ( #42 ) ) ;
#68 = CIRCLE ( 'NONE', #258, 2.325294620143523172 ) ;
#69 = DIRECTION ( 'NONE',  ( 1.000000000000000000, 0.000000000000000000, -3.491481338843132961E-15 ) ) ;
#70 = CALENDAR_DATE ( 2023, 28, 9 ) ;
#71 = LOCAL_TIME ( 8, 23, 22.00000000000000000, #101 ) ;
#72 = EDGE_LOOP ( 'NONE', ( #31 ) ) ;
#73 = AXIS2_PLACEMENT_3D ( 'NONE', #51, #269, #69 ) ;
#74 = PERSON_AND_ORGANIZATION ( #48, #263 ) ;
#75 = EDGE_CURVE ( 'NONE', #14, #14, #26, .T. ) ;
#76 = CALENDAR_DATE ( 2023, 28, 9 ) ;
#77 = AXIS2_PLACEMENT_3D ( 'NONE', #388, #118, #222 ) ;
#78 = FACE_OUTER_BOUND ( 'NONE', #189, .T. ) ;
#79 = DIRECTION ( 'NONE',  ( 1.000000000000000000, 0.000000000000000000, -3.491481338843133355E-15 ) ) ;
#80 = CC_DESIGN_DATE_AND_TIME_ASSIGNMENT ( #142, #235, ( #336 ) ) ;
#81 = DIRECTION ( 'NONE',  ( 3.491481338843133355E-15, -0.000000000000000000, 1.000000000000000000 ) ) ;
#82 = CIRCLE ( 'NONE', #119, 2.019780102697346091 ) ;
#83 = DIRECTION ( 'NONE',  ( 3.491481338843133355E-15, -0.000000000000000000, 1.000000000000000000 ) ) ;
#84 = EDGE_LOOP ( 'NONE', ( #3 ) ) ;
#85 = CARTESIAN_POINT ( 'NONE',  ( 8.868362600661558722E-14, 0.000000000000000000, 25.39999999999999858 ) ) ;
#86 = EDGE_LOOP ( 'NONE', ( #314 ) ) ;
#87 = APPROVAL ( #205, 'UNSPECIFIED' ) ;
#88 = CARTESIAN_POINT ( 'NONE',  ( 5.542726625413469468E-15, 0.000000000000000000, 1.587499999999998579 ) ) ;
#89 = CC_DESIGN_APPROVAL ( #122, ( #336 ) ) ;
#90 = ORIENTED_EDGE ( 'NONE', *, *, #22, .T. ) ;
#91 = DIRECTION ( 'NONE',  ( -3.491481338843133355E-15, 0.000000000000000000, -1.000000000000000000 ) ) ;
#92 = ORIENTED_EDGE ( 'NONE', *, *, #274, .T. ) ;
#93 = CARTESIAN_POINT ( 'NONE',  ( 2.020000000000010232, 0.000000000000000000, 2.822222222222212196 ) ) ;
#94 = ADVANCED_FACE ( 'NONE', ( #271, #166 ), #244, .T. ) ;
#95 = EDGE_LOOP ( 'NONE', ( #8 ) ) ;
#96 = CARTESIAN_POINT ( 'NONE',  ( 4.000000000000213163, 0.000000000000000000, 62.19999999999998153 ) ) ;
#97 = DIRECTION ( 'NONE',  ( -3.491481338843133355E-15, 0.000000000000000000, -1.000000000000000000 ) ) ;
#98 = CIRCLE ( 'NONE', #134, 3.140000000000000124 ) ;
#99 =( LENGTH_UNIT ( ) NAMED_UNIT ( * ) SI_UNIT ( .MILLI., .METRE. ) );
#100 = FACE_OUTER_BOUND ( 'NONE', #84, .T. ) ;
#101 = COORDINATED_UNIVERSAL_TIME_OFFSET ( 1, 0, .AHEAD. ) ;
#102 = VERTEX_POINT ( 'NONE', #130 ) ;
#103 = CARTESIAN_POINT ( 'NONE',  ( 2.171701392760428821E-13, 0.000000000000000000, 62.19999999999999574 ) ) ;
#104 = CC_DESIGN_PERSON_AND_ORGANIZATION_ASSIGNMENT ( #240, #16, ( #276 ) ) ;
#105 = PERSON_AND_ORGANIZATION_ROLE ( 'design_supplier' ) ;
#106 = MANIFOLD_SOLID_BREP ( 'Corps-Déplacer/Copier1', #206 ) ;
#107 = PERSON_AND_ORGANIZATION ( #48, #263 ) ;
#108 = AXIS2_PLACEMENT_3D ( 'NONE', #252, #273, #117 ) ;
#109 = CALENDAR_DATE ( 2023, 28, 9 ) ;
#110 = ADVANCED_FACE ( 'NONE', ( #377, #100 ), #319, .T. ) ;
#111 = PERSON_AND_ORGANIZATION_ROLE ( 'design_owner' ) ;
#112 = AXIS2_PLACEMENT_3D ( 'NONE', #52, #331, #25 ) ;
#113 = DIRECTION ( 'NONE',  ( 3.491481338843133355E-15, -0.000000000000000000, 1.000000000000000000 ) ) ;
#114 = FACE_BOUND ( 'NONE', #192, .T. ) ;
#115 = AXIS2_PLACEMENT_3D ( 'NONE', #329, #298, #23 ) ;
#116 = EDGE_CURVE ( 'NONE', #102, #102, #68, .T. ) ;
#117 = DIRECTION ( 'NONE',  ( -1.000000000000000000, 0.000000000000000000, 3.487401892389679659E-15 ) ) ;
#118 = DIRECTION ( 'NONE',  ( 3.491481338843133355E-15, -0.000000000000000000, 1.000000000000000000 ) ) ;
#119 = AXIS2_PLACEMENT_3D ( 'NONE', #218, #363, #27 ) ;
#120 = AXIS2_PLACEMENT_3D ( 'NONE', #15, #19, #197 ) ;
#121 = CYLINDRICAL_SURFACE ( 'NONE', #290, 2.325294620143523172 ) ;
#122 = APPROVAL ( #21, 'UNSPECIFIED' ) ;
#123 = CARTESIAN_POINT ( 'NONE',  ( 5.542726625413469468E-15, 0.000000000000000000, 1.587499999999998579 ) ) ;
#124 = ORIENTED_EDGE ( 'NONE', *, *, #216, .T. ) ;
#125 = FACE_OUTER_BOUND ( 'NONE', #259, .T. ) ;
#126 = ORIENTED_EDGE ( 'NONE', *, *, #376, .T. ) ;
#127 = VERTEX_POINT ( 'NONE', #93 ) ;
#128 = EDGE_LOOP ( 'NONE', ( #37 ) ) ;
#129 = AXIS2_PLACEMENT_3D ( 'NONE', #17, #40, #264 ) ;
#130 = CARTESIAN_POINT ( 'NONE',  ( 2.325294620143533386, 0.000000000000000000, 2.822222222222210863 ) ) ;
#131 = ORIENTED_EDGE ( 'NONE', *, *, #75, .T. ) ;
#132 = CYLINDRICAL_SURFACE ( 'NONE', #170, 3.140000000000000124 ) ;
#133 = EDGE_LOOP ( 'NONE', ( #219 ) ) ;
#134 = AXIS2_PLACEMENT_3D ( 'NONE', #30, #58, #249 ) ;
#135 = PERSON_AND_ORGANIZATION ( #48, #263 ) ;
#136 = CARTESIAN_POINT ( 'NONE',  ( 1.149434520306323625E-13, 0.000000000000000000, 32.92111309657398976 ) ) ;
#137 = PERSON_AND_ORGANIZATION ( #48, #263 ) ;
#138 = ADVANCED_BREP_SHAPE_REPRESENTATION ( '961055', ( #106, #146 ), #65 ) ;
#139 = ORIENTED_EDGE ( 'NONE', *, *, #22, .F. ) ;
#140 = AXIS2_PLACEMENT_3D ( 'NONE', #88, #157, #245 ) ;
#141 = DIRECTION ( 'NONE',  ( 1.000000000000000000, 0.000000000000000000, -3.378112627438032512E-15 ) ) ;
#142 = DATE_AND_TIME ( #18, #391 ) ;
#143 = ADVANCED_FACE ( 'NONE', ( #356, #78 ), #373, .F. ) ;
#144 = AXIS2_PLACEMENT_3D ( 'NONE', #213, #325, #141 ) ;
#145 = APPROVAL_ROLE ( '' ) ;
#146 = AXIS2_PLACEMENT_3D ( 'NONE', #381, #201, #47 ) ;
#147 = DIRECTION ( 'NONE',  ( 1.000000000000000000, 0.000000000000000000, -3.469446951953614189E-15 ) ) ;
#148 = AXIS2_PLACEMENT_3D ( 'NONE', #136, #174, #147 ) ;
#149 = DIRECTION ( 'NONE',  ( 1.000000000000000000, 0.000000000000000000, -5.968184714140817489E-15 ) ) ;
#150 = CARTESIAN_POINT ( 'NONE',  ( 2.171701392760428821E-13, 0.000000000000000000, 62.19999999999999574 ) ) ;
#151 = CIRCLE ( 'NONE', #140, 2.325294620143523172 ) ;
#152 = ADVANCED_FACE ( 'NONE', ( #267, #379 ), #387, .T. ) ;
#153 = FACE_OUTER_BOUND ( 'NONE', #59, .T. ) ;
#154 = AXIS2_PLACEMENT_3D ( 'NONE', #282, #62, #236 ) ;
#155 = ORIENTED_EDGE ( 'NONE', *, *, #310, .T. ) ;
#156 = PRODUCT_DEFINITION_SHAPE ( 'NONE', 'NONE',  #336 ) ;
#157 = DIRECTION ( 'NONE',  ( 3.491481338843133355E-15, -0.000000000000000000, 1.000000000000000000 ) ) ;
#158 = CIRCLE ( 'NONE', #183, 2.020000000000000018 ) ;
#159 = ORIENTED_EDGE ( 'NONE', *, *, #184, .F. ) ;
#160 = CARTESIAN_POINT ( 'NONE',  ( 7.595588338529573859E-15, 0.000000000000000000, 2.175462962962962266 ) ) ;
#161 = EDGE_LOOP ( 'NONE', ( #155 ) ) ;
#162 = VERTEX_POINT ( 'NONE', #60 ) ;
#163 = AXIS2_PLACEMENT_3D ( 'NONE', #371, #91, #41 ) ;
#164 = CARTESIAN_POINT ( 'NONE',  ( 2.054074173711017526, 0.000000000000000000, 25.65881904510251132 ) ) ;
#165 = VERTEX_POINT ( 'NONE', #34 ) ;
#166 = FACE_OUTER_BOUND ( 'NONE', #350, .T. ) ;
#167 = DATE_AND_TIME ( #76, #359 ) ;
#168 = DIRECTION ( 'NONE',  ( 1.000000000000000000, 0.000000000000000000, -3.487401892389679659E-15 ) ) ;
#169 = DIRECTION ( 'NONE',  ( 1.000000000000000000, 0.000000000000000000, -6.870191984066567077E-15 ) ) ;
#170 = AXIS2_PLACEMENT_3D ( 'NONE', #9, #66, #254 ) ;
#171 = APPLICATION_PROTOCOL_DEFINITION ( 'international standard', 'config_control_design', 1994, #366 ) ;
#172 = DIRECTION ( 'NONE',  ( 3.491481338843133355E-15, -0.000000000000000000, 1.000000000000000000 ) ) ;
#173 = SHAPE_DEFINITION_REPRESENTATION ( #156, #138 ) ;
#174 = DIRECTION ( 'NONE',  ( 3.491481338843133355E-15, -0.000000000000000000, 1.000000000000000000 ) ) ;
#175 = ADVANCED_FACE ( 'NONE', ( #357 ), #303, .F. ) ;
#176 = APPROVAL_ROLE ( '' ) ;
#177 = MECHANICAL_CONTEXT ( 'NONE', #46, 'mechanical' ) ;
#178 = AXIS2_PLACEMENT_3D ( 'NONE', #103, #97, #237 ) ;
#179 = CC_DESIGN_DATE_AND_TIME_ASSIGNMENT ( #167, #238, ( #50 ) ) ;
#180 = CARTESIAN_POINT ( 'NONE',  ( 8.958728787272821936E-14, 0.000000000000000000, 25.65881904510251843 ) ) ;
#181 = CARTESIAN_POINT ( 'NONE',  ( 2.199633243471174140E-13, 0.000000000000000000, 63.00000000000000000 ) ) ;
#182 = FACE_OUTER_BOUND ( 'NONE', #338, .T. ) ;
#183 = AXIS2_PLACEMENT_3D ( 'NONE', #55, #81, #334 ) ;
#184 = EDGE_CURVE ( 'NONE', #127, #127, #158, .T. ) ;
#185 = FACE_OUTER_BOUND ( 'NONE', #207, .T. ) ;
#186 = FACE_BOUND ( 'NONE', #279, .T. ) ;
#187 = AXIS2_PLACEMENT_3D ( 'NONE', #395, #278, #333 ) ;
#188 = FACE_OUTER_BOUND ( 'NONE', #1, .T. ) ;
#189 = EDGE_LOOP ( 'NONE', ( #195 ) ) ;
#190 = VERTEX_POINT ( 'NONE', #193 ) ;
#191 = ADVANCED_FACE ( 'NONE', ( #390, #114 ), #384, .T. ) ;
#192 = EDGE_LOOP ( 'NONE', ( #124 ) ) ;
#193 = CARTESIAN_POINT ( 'NONE',  ( 3.140000000000002345, 0.000000000000000000, 0.6467592592592457112 ) ) ;
#194 = CC_DESIGN_APPROVAL ( #87, ( #50 ) ) ;
#195 = ORIENTED_EDGE ( 'NONE', *, *, #116, .T. ) ;
#196 = DIRECTION ( 'NONE',  ( 3.491481338843133355E-15, -0.000000000000000000, 1.000000000000000000 ) ) ;
#197 = DIRECTION ( 'NONE',  ( 1.000000000000000000, 0.000000000000000000, -3.543609674021111247E-15 ) ) ;
#198 = DESIGN_CONTEXT ( 'detailed design', #366, 'design' ) ;
#199 = PLANE ( 'NONE',  #163 ) ;
#200 = FACE_BOUND ( 'NONE', #161, .T. ) ;
#201 = DIRECTION ( 'NONE',  ( 0.000000000000000000, 0.000000000000000000, 1.000000000000000000 ) ) ;
#202 =( NAMED_UNIT ( * ) SI_UNIT ( $, .STERADIAN. ) SOLID_ANGLE_UNIT ( ) );
#203 = ORIENTED_EDGE ( 'NONE', *, *, #38, .F. ) ;
#204 = CC_DESIGN_APPROVAL ( #212, ( #276 ) ) ;
#205 = APPROVAL_STATUS ( 'not_yet_approved' ) ;
#206 = CLOSED_SHELL ( 'NONE', ( #175, #45, #330, #286, #261, #191, #230, #94, #297, #143, #110, #246, #63, #361, #152, #389 ) ) ;
#207 = EDGE_LOOP ( 'NONE', ( #6 ) ) ;
#208 = COORDINATED_UNIVERSAL_TIME_OFFSET ( 1, 0, .AHEAD. ) ;
#209 = APPROVAL_ROLE ( '' ) ;
#210 = AXIS2_PLACEMENT_3D ( 'NONE', #123, #365, #28 ) ;
#211 = AXIS2_PLACEMENT_3D ( 'NONE', #5, #320, #168 ) ;
#212 = APPROVAL ( #295, 'UNSPECIFIED' ) ;
#213 = CARTESIAN_POINT ( 'NONE',  ( 8.958728787272821936E-14, 0.000000000000000000, 25.65881904510251843 ) ) ;
#214 = CYLINDRICAL_SURFACE ( 'NONE', #112, 3.140000000000000124 ) ;
#215 = DIRECTION ( 'NONE',  ( 3.491481338843133355E-15, -0.000000000000000000, 1.000000000000000000 ) ) ;
#216 = EDGE_CURVE ( 'NONE', #340, #340, #151, .T. ) ;
#217 = CIRCLE ( 'NONE', #120, 2.325294620143523172 ) ;
#218 = CARTESIAN_POINT ( 'NONE',  ( 0.000000000000000000, 0.000000000000000000, 0.000000000000000000 ) ) ;
#219 = ORIENTED_EDGE ( 'NONE', *, *, #306, .F. ) ;
#220 = DIRECTION ( 'NONE',  ( 3.491481338843133355E-15, -0.000000000000000000, 1.000000000000000000 ) ) ;
#221 = EDGE_LOOP ( 'NONE', ( #294 ) ) ;
#222 = DIRECTION ( 'NONE',  ( 1.000000000000000000, 0.000000000000000000, -3.491481338843132961E-15 ) ) ;
#223 = CIRCLE ( 'NONE', #187, 3.199999999999990852 ) ;
#224 = CIRCLE ( 'NONE', #148, 4.000000000000000000 ) ;
#225 = CARTESIAN_POINT ( 'NONE',  ( 2.325294620143528945, 0.000000000000000000, 1.587499999999990585 ) ) ;
#226 = EDGE_LOOP ( 'NONE', ( #372 ) ) ;
#227 = CARTESIAN_POINT ( 'NONE',  ( 4.311009597543806519E-15, 0.000000000000000000, 1.234722222222220278 ) ) ;
#228 = EDGE_LOOP ( 'NONE', ( #283 ) ) ;
#229 = VERTEX_POINT ( 'NONE', #349 ) ;
#230 = ADVANCED_FACE ( 'NONE', ( #32, #185 ), #214, .T. ) ;
#231 = TOROIDAL_SURFACE ( 'NONE', #77, 3.019999999999997353, 1.000000000000000000 ) ;
#232 = FACE_BOUND ( 'NONE', #335, .T. ) ;
#233 = CARTESIAN_POINT ( 'NONE',  ( 2.020000000000086171, 0.000000000000000000, 25.39999999999999147 ) ) ;
#234 = FACE_OUTER_BOUND ( 'NONE', #133, .T. ) ;
#235 = DATE_TIME_ROLE ( 'creation_date' ) ;
#236 = DIRECTION ( 'NONE',  ( 1.000000000000000000, 0.000000000000000000, -3.469446951953615767E-15 ) ) ;
#237 = DIRECTION ( 'NONE',  ( -1.000000000000000000, 0.000000000000000000, 3.469446951953617344E-15 ) ) ;
#238 = DATE_TIME_ROLE ( 'classification_date' ) ;
#239 = CC_DESIGN_PERSON_AND_ORGANIZATION_ASSIGNMENT ( #268, #354, ( #50 ) ) ;
#240 = PERSON_AND_ORGANIZATION ( #48, #263 ) ;
#241 = PRODUCT_RELATED_PRODUCT_CATEGORY ( 'detail', '', ( #392 ) ) ;
#242 = APPROVAL_PERSON_ORGANIZATION ( #74, #122, #145 ) ;
#243 = DIRECTION ( 'NONE',  ( 1.000000000000000000, 0.000000000000000000, -3.543609674021111247E-15 ) ) ;
#244 = CONICAL_SURFACE ( 'NONE', #129, 3.140000000000000124, 1.047197551196599852 ) ;
#245 = DIRECTION ( 'NONE',  ( 1.000000000000000000, 0.000000000000000000, -3.450356787862660764E-15 ) ) ;
#246 = ADVANCED_FACE ( 'NONE', ( #153, #182 ), #231, .F. ) ;
#247 = FACE_OUTER_BOUND ( 'NONE', #226, .T. ) ;
#248 = AXIS2_PLACEMENT_3D ( 'NONE', #85, #220, #337 ) ;
#249 = DIRECTION ( 'NONE',  ( 1.000000000000000000, 0.000000000000000000, -3.452873160781861205E-15 ) ) ;
#250 = AXIS2_PLACEMENT_3D ( 'NONE', #385, #293, #169 ) ;
#251 = CARTESIAN_POINT ( 'NONE',  ( 2.258147884427702917E-15, 0.000000000000000000, 0.6467592592592565914 ) ) ;
#252 = CARTESIAN_POINT ( 'NONE',  ( 2.668720227050923638E-15, 0.000000000000000000, 0.7643518518518493954 ) ) ;
#253 = EDGE_CURVE ( 'NONE', #162, #162, #98, .T. ) ;
#254 = DIRECTION ( 'NONE',  ( 1.000000000000000000, 0.000000000000000000, -4.419677645800781869E-15 ) ) ;
#255 = ORIENTED_EDGE ( 'NONE', *, *, #347, .T. ) ;
#256 = CONICAL_SURFACE ( 'NONE', #73, 2.019780102697346091, 1.047197551196601406 ) ;
#257 = DIRECTION ( 'NONE',  ( 3.491481338843133355E-15, -0.000000000000000000, 1.000000000000000000 ) ) ;
#258 = AXIS2_PLACEMENT_3D ( 'NONE', #291, #113, #243 ) ;
#259 = EDGE_LOOP ( 'NONE', ( #90 ) ) ;
#260 = CARTESIAN_POINT ( 'NONE',  ( 3.140000000000002789, 0.000000000000000000, 0.7643518518518384042 ) ) ;
#261 = ADVANCED_FACE ( 'NONE', ( #280, #304 ), #393, .T. ) ;
#262 = ORIENTED_EDGE ( 'NONE', *, *, #310, .F. ) ;
#263 = ORGANIZATION ( 'UNSPECIFIED', 'UNSPECIFIED', '' ) ;
#264 = DIRECTION ( 'NONE',  ( -1.000000000000000000, 0.000000000000000000, 3.452873160781861205E-15 ) ) ;
#265 = COORDINATED_UNIVERSAL_TIME_OFFSET ( 1, 0, .AHEAD. ) ;
#266 =( NAMED_UNIT ( * ) PLANE_ANGLE_UNIT ( ) SI_UNIT ( $, .RADIAN. ) );
#267 = FACE_BOUND ( 'NONE', #228, .T. ) ;
#268 = PERSON_AND_ORGANIZATION ( #48, #263 ) ;
#269 = DIRECTION ( 'NONE',  ( 3.491481338843133355E-15, -0.000000000000000000, 1.000000000000000000 ) ) ;
#270 = SECURITY_CLASSIFICATION_LEVEL ( 'unclassified' ) ;
#271 = FACE_BOUND ( 'NONE', #367, .T. ) ;
#272 = DIRECTION ( 'NONE',  ( 1.000000000000000000, 0.000000000000000000, -5.968184714140819067E-15 ) ) ;
#273 = DIRECTION ( 'NONE',  ( -3.491481338843133355E-15, 0.000000000000000000, -1.000000000000000000 ) ) ;
#274 = EDGE_CURVE ( 'NONE', #165, #165, #223, .T. ) ;
#275 = DIRECTION ( 'NONE',  ( 1.000000000000000000, 0.000000000000000000, -3.469446951953617344E-15 ) ) ;
#276 = PRODUCT_DEFINITION_FORMATION_WITH_SPECIFIED_SOURCE ( 'ANY', '', #392, .NOT_KNOWN. ) ;
#277 = AXIS2_PLACEMENT_3D ( 'NONE', #150, #386, #275 ) ;
#278 = DIRECTION ( 'NONE',  ( 3.491481338843133355E-15, -0.000000000000000000, 1.000000000000000000 ) ) ;
#279 = EDGE_LOOP ( 'NONE', ( #341 ) ) ;
#280 = FACE_OUTER_BOUND ( 'NONE', #95, .T. ) ;
#281 = EDGE_LOOP ( 'NONE', ( #255 ) ) ;
#282 = CARTESIAN_POINT ( 'NONE',  ( 2.199633243471174140E-13, 0.000000000000000000, 63.00000000000000000 ) ) ;
#283 = ORIENTED_EDGE ( 'NONE', *, *, #274, .F. ) ;
#284 = VERTEX_POINT ( 'NONE', #96 ) ;
#285 = EDGE_LOOP ( 'NONE', ( #370 ) ) ;
#286 = ADVANCED_FACE ( 'NONE', ( #186, #188 ), #57, .T. ) ;
#287 = CARTESIAN_POINT ( 'NONE',  ( 3.140000000000007674, 0.000000000000000000, 2.175462962962951607 ) ) ;
#288 = VERTEX_POINT ( 'NONE', #287 ) ;
#289 = CARTESIAN_POINT ( 'NONE',  ( 2.325294620143528057, 0.000000000000000000, 1.234722222222212284 ) ) ;
#290 = AXIS2_PLACEMENT_3D ( 'NONE', #307, #215, #272 ) ;
#291 = CARTESIAN_POINT ( 'NONE',  ( 9.853736222957276776E-15, 0.000000000000000000, 2.822222222222218857 ) ) ;
#292 = PERSON_AND_ORGANIZATION_ROLE ( 'creator' ) ;
#293 = DIRECTION ( 'NONE',  ( 3.491481338843133355E-15, -0.000000000000000000, 1.000000000000000000 ) ) ;
#294 = ORIENTED_EDGE ( 'NONE', *, *, #376, .F. ) ;
#295 = APPROVAL_STATUS ( 'not_yet_approved' ) ;
#296 = AXIS2_PLACEMENT_3D ( 'NONE', #181, #360, #149 ) ;
#297 = ADVANCED_FACE ( 'NONE', ( #339, #247 ), #121, .T. ) ;
#298 = DIRECTION ( 'NONE',  ( -3.491481338843133355E-15, 0.000000000000000000, -1.000000000000000000 ) ) ;
#299 = CC_DESIGN_SECURITY_CLASSIFICATION ( #50, ( #276 ) ) ;
#300 = CARTESIAN_POINT ( 'NONE',  ( -2.003450906260967430E-32, 0.000000000000000000, -5.738111454219572948E-18 ) ) ;
#301 = AXIS2_PLACEMENT_3D ( 'NONE', #180, #172, #323 ) ;
#302 = UNCERTAINTY_MEASURE_WITH_UNIT (LENGTH_MEASURE( 1.000000000000000082E-05 ), #99, 'distance_accuracy_value', 'NONE');
#303 = PLANE ( 'NONE',  #394 ) ;
#304 = FACE_OUTER_BOUND ( 'NONE', #281, .T. ) ;
#305 = LOCAL_TIME ( 8, 23, 22.00000000000000000, #208 ) ;
#306 = EDGE_CURVE ( 'NONE', #190, #190, #313, .T. ) ;
#307 = CARTESIAN_POINT ( 'NONE',  ( 2.199633243471174140E-13, 0.000000000000000000, 63.00000000000000000 ) ) ;
#308 = EDGE_LOOP ( 'NONE', ( #64 ) ) ;
#309 = VERTEX_POINT ( 'NONE', #312 ) ;
#310 = EDGE_CURVE ( 'NONE', #309, #309, #82, .T. ) ;
#311 = EDGE_LOOP ( 'NONE', ( #61 ) ) ;
#312 = CARTESIAN_POINT ( 'NONE',  ( 2.019780102697346091, 0.000000000000000000, -7.052024537134450661E-15 ) ) ;
#313 = CIRCLE ( 'NONE', #355, 3.140000000000000124 ) ;
#314 = ORIENTED_EDGE ( 'NONE', *, *, #321, .F. ) ;
#315 = CYLINDRICAL_SURFACE ( 'NONE', #154, 3.999999999999998224 ) ;
#316 = FACE_OUTER_BOUND ( 'NONE', #343, .T. ) ;
#317 = DATE_AND_TIME ( #324, #71 ) ;
#318 = VERTEX_POINT ( 'NONE', #233 ) ;
#319 = CYLINDRICAL_SURFACE ( 'NONE', #250, 2.019999999999998685 ) ;
#320 = DIRECTION ( 'NONE',  ( 3.491481338843133355E-15, -0.000000000000000000, 1.000000000000000000 ) ) ;
#321 = EDGE_CURVE ( 'NONE', #284, #284, #13, .T. ) ;
#322 = APPROVAL_PERSON_ORGANIZATION ( #380, #212, #209 ) ;
#323 = DIRECTION ( 'NONE',  ( 1.000000000000000000, 0.000000000000000000, -3.378112627438032512E-15 ) ) ;
#324 = CALENDAR_DATE ( 2023, 28, 9 ) ;
#325 = DIRECTION ( 'NONE',  ( 3.491481338843133355E-15, -0.000000000000000000, 1.000000000000000000 ) ) ;
#326 = DATE_AND_TIME ( #109, #368 ) ;
#327 = EDGE_CURVE ( 'NONE', #318, #318, #332, .T. ) ;
#328 = CIRCLE ( 'NONE', #374, 3.140000000000000124 ) ;
#329 = CARTESIAN_POINT ( 'NONE',  ( 9.853736222957287820E-15, 2.325294620143523172, 2.822222222222221966 ) ) ;
#330 = ADVANCED_FACE ( 'NONE', ( #56, #344 ), #132, .T. ) ;
#331 = DIRECTION ( 'NONE',  ( 3.491481338843133355E-15, -0.000000000000000000, 1.000000000000000000 ) ) ;
#332 = CIRCLE ( 'NONE', #248, 2.019999999999997353 ) ;
#333 = DIRECTION ( 'NONE',  ( 1.000000000000000000, 0.000000000000000000, -4.336808689942030358E-15 ) ) ;
#334 = DIRECTION ( 'NONE',  ( 1.000000000000000000, 0.000000000000000000, -3.435095992033281172E-15 ) ) ;
#335 = EDGE_LOOP ( 'NONE', ( #131 ) ) ;
#336 = PRODUCT_DEFINITION ( 'UNKNOWN', '', #276, #198 ) ;
#337 = DIRECTION ( 'NONE',  ( 1.000000000000000000, 0.000000000000000000, -3.435095992033285905E-15 ) ) ;
#338 = EDGE_LOOP ( 'NONE', ( #364 ) ) ;
#339 = FACE_OUTER_BOUND ( 'NONE', #128, .T. ) ;
#340 = VERTEX_POINT ( 'NONE', #225 ) ;
#341 = ORIENTED_EDGE ( 'NONE', *, *, #347, .F. ) ;
#342 = VERTEX_POINT ( 'NONE', #39 ) ;
#343 = EDGE_LOOP ( 'NONE', ( #139 ) ) ;
#344 = FACE_OUTER_BOUND ( 'NONE', #285, .T. ) ;
#345 = EDGE_LOOP ( 'NONE', ( #159 ) ) ;
#346 = DIRECTION ( 'NONE',  ( 1.000000000000000000, 0.000000000000000000, -3.452873160781861205E-15 ) ) ;
#347 = EDGE_CURVE ( 'NONE', #36, #36, #53, .T. ) ;
#348 = APPROVAL_DATE_TIME ( #378, #122 ) ;
#349 = CARTESIAN_POINT ( 'NONE',  ( 4.000000000000115463, 0.000000000000000000, 32.92111309657397555 ) ) ;
#350 = EDGE_LOOP ( 'NONE', ( #35 ) ) ;
#351 = COORDINATED_UNIVERSAL_TIME_OFFSET ( 1, 0, .AHEAD. ) ;
#352 = COORDINATED_UNIVERSAL_TIME_OFFSET ( 1, 0, .AHEAD. ) ;
#353 = EDGE_CURVE ( 'NONE', #288, #288, #328, .T. ) ;
#354 = PERSON_AND_ORGANIZATION_ROLE ( 'classification_officer' ) ;
#355 = AXIS2_PLACEMENT_3D ( 'NONE', #251, #54, #358 ) ;
#356 = FACE_BOUND ( 'NONE', #345, .T. ) ;
#357 = FACE_OUTER_BOUND ( 'NONE', #33, .T. ) ;
#358 = DIRECTION ( 'NONE',  ( 1.000000000000000000, 0.000000000000000000, -3.487401892389679659E-15 ) ) ;
#359 = LOCAL_TIME ( 8, 23, 22.00000000000000000, #265 ) ;
#360 = DIRECTION ( 'NONE',  ( 3.491481338843133355E-15, -0.000000000000000000, 1.000000000000000000 ) ) ;
#361 = ADVANCED_FACE ( 'NONE', ( #375, #125 ), #315, .T. ) ;
#362 = CONICAL_SURFACE ( 'NONE', #301, 2.054074173710927820, 0.2617993877991424689 ) ;
#363 = DIRECTION ( 'NONE',  ( 3.491481338843133355E-15, -0.000000000000000000, 1.000000000000000000 ) ) ;
#364 = ORIENTED_EDGE ( 'NONE', *, *, #327, .T. ) ;
#365 = DIRECTION ( 'NONE',  ( 3.491481338843133355E-15, -0.000000000000000000, 1.000000000000000000 ) ) ;
#366 = APPLICATION_CONTEXT ( 'configuration controlled 3d designs of mechanical parts and assemblies' ) ;
#367 = EDGE_LOOP ( 'NONE', ( #203 ) ) ;
#368 = LOCAL_TIME ( 8, 23, 22.00000000000000000, #351 ) ;
#369 = FACE_OUTER_BOUND ( 'NONE', #11, .T. ) ;
#370 = ORIENTED_EDGE ( 'NONE', *, *, #306, .T. ) ;
#371 = CARTESIAN_POINT ( 'NONE',  ( 2.199633243471174140E-13, 3.199999999999990852, 63.00000000000000000 ) ) ;
#372 = ORIENTED_EDGE ( 'NONE', *, *, #38, .T. ) ;
#373 = PLANE ( 'NONE',  #115 ) ;
#374 = AXIS2_PLACEMENT_3D ( 'NONE', #160, #257, #346 ) ;
#375 = FACE_OUTER_BOUND ( 'NONE', #86, .T. ) ;
#376 = EDGE_CURVE ( 'NONE', #7, #7, #43, .T. ) ;
#377 = FACE_OUTER_BOUND ( 'NONE', #67, .T. ) ;
#378 = DATE_AND_TIME ( #70, #305 ) ;
#379 = FACE_OUTER_BOUND ( 'NONE', #72, .T. ) ;
#380 = PERSON_AND_ORGANIZATION ( #48, #263 ) ;
#381 = CARTESIAN_POINT ( 'NONE',  ( 0.000000000000000000, 0.000000000000000000, 0.000000000000000000 ) ) ;
#382 = PERSON_AND_ORGANIZATION ( #48, #263 ) ;
#383 = APPLICATION_PROTOCOL_DEFINITION ( 'international standard', 'config_control_design', 1994, #46 ) ;
#384 = CONICAL_SURFACE ( 'NONE', #210, 2.325294620143523172, 1.047197551196599852 ) ;
#385 = CARTESIAN_POINT ( 'NONE',  ( 2.199633243471174140E-13, 0.000000000000000000, 63.00000000000000000 ) ) ;
#386 = DIRECTION ( 'NONE',  ( 3.491481338843133355E-15, -0.000000000000000000, 1.000000000000000000 ) ) ;
#387 = CONICAL_SURFACE ( 'NONE', #178, 3.999999999999996447, 0.7853981633974504994 ) ;
#388 = CARTESIAN_POINT ( 'NONE',  ( 8.868362600661558722E-14, 0.000000000000000000, 25.39999999999999858 ) ) ;
#389 = ADVANCED_FACE ( 'NONE', ( #369 ), #199, .F. ) ;
#390 = FACE_OUTER_BOUND ( 'NONE', #311, .T. ) ;
#391 = LOCAL_TIME ( 8, 23, 22.00000000000000000, #352 ) ;
#392 = PRODUCT ( '961055', '961055', '', ( #177 ) ) ;
#393 = CYLINDRICAL_SURFACE ( 'NONE', #296, 2.325294620143523616 ) ;
#394 = AXIS2_PLACEMENT_3D ( 'NONE', #300, #83, #79 ) ;
#395 = CARTESIAN_POINT ( 'NONE',  ( 2.199633243471174140E-13, 0.000000000000000000, 63.00000000000000000 ) ) ;
ENDSEC;
END-ISO-10303-21;
