ISO-10303-21;
HEADER;
FILE_DESCRIPTION (( 'STEP AP203' ),
    '1' );
FILE_NAME ('961054.step',
    '2023-09-28T06:23:22',
    ( '' ),
    ( '' ),
    'SwSTEP 2.0',
    'SolidWorks 2022',
    '' );
FILE_SCHEMA (( 'CONFIG_CONTROL_DESIGN' ));
ENDSEC;

DATA;
#1 = EDGE_LOOP ( 'NONE', ( #70 ) ) ;
#2 = PERSON_AND_ORGANIZATION ( #58, #263 ) ;
#3 = AXIS2_PLACEMENT_3D ( 'NONE', #155, #303, #363 ) ;
#4 = EDGE_LOOP ( 'NONE', ( #11 ) ) ;
#5 = EDGE_CURVE ( 'NONE', #271, #271, #160, .T. ) ;
#6 = COORDINATED_UNIVERSAL_TIME_OFFSET ( 1, 0, .AHEAD. ) ;
#7 = UNCERTAINTY_MEASURE_WITH_UNIT (LENGTH_MEASURE( 1.000000000000000082E-05 ), #369, 'distance_accuracy_value', 'NONE');
#8 = EDGE_LOOP ( 'NONE', ( #302 ) ) ;
#9 = EDGE_LOOP ( 'NONE', ( #343 ) ) ;
#10 = PERSON_AND_ORGANIZATION_ROLE ( 'design_owner' ) ;
#11 = ORIENTED_EDGE ( 'NONE', *, *, #5, .T. ) ;
#12 = ORIENTED_EDGE ( 'NONE', *, *, #115, .T. ) ;
#13 = COORDINATED_UNIVERSAL_TIME_OFFSET ( 1, 0, .AHEAD. ) ;
#14 = AXIS2_PLACEMENT_3D ( 'NONE', #197, #252, #23 ) ;
#15 = APPROVAL_PERSON_ORGANIZATION ( #2, #223, #335 ) ;
#16 = FACE_OUTER_BOUND ( 'NONE', #243, .T. ) ;
#17 = DIRECTION ( 'NONE',  ( 1.000000000000000000, 0.000000000000000000, -3.533809063218636801E-15 ) ) ;
#18 = ORIENTED_EDGE ( 'NONE', *, *, #110, .F. ) ;
#19 = FACE_OUTER_BOUND ( 'NONE', #104, .T. ) ;
#20 = ADVANCED_FACE ( 'NONE', ( #69, #314 ), #352, .T. ) ;
#21 = DIRECTION ( 'NONE',  ( 3.491481338843133355E-15, -0.000000000000000000, 1.000000000000000000 ) ) ;
#22 = CONICAL_SURFACE ( 'NONE', #33, 2.390000000000000124, 1.047197551196595411 ) ;
#23 = DIRECTION ( 'NONE',  ( 1.000000000000000000, 0.000000000000000000, -3.402927246062392075E-15 ) ) ;
#24 = CARTESIAN_POINT ( 'NONE',  ( 1.990144363140586139E-13, 0.000000000000000000, 57.00000000000000000 ) ) ;
#25 = EDGE_CURVE ( 'NONE', #157, #157, #199, .T. ) ;
#26 = DIRECTION ( 'NONE',  ( -3.491481338843133355E-15, 0.000000000000000000, -1.000000000000000000 ) ) ;
#27 = CIRCLE ( 'NONE', #312, 1.429999999999997717 ) ;
#28 = FACE_OUTER_BOUND ( 'NONE', #215, .T. ) ;
#29 = FACE_BOUND ( 'NONE', #189, .T. ) ;
#30 = CC_DESIGN_PERSON_AND_ORGANIZATION_ASSIGNMENT ( #190, #122, ( #54 ) ) ;
#31 = FACE_BOUND ( 'NONE', #8, .T. ) ;
#32 = CARTESIAN_POINT ( 'NONE',  ( 0.000000000000000000, 0.000000000000000000, 0.000000000000000000 ) ) ;
#33 = AXIS2_PLACEMENT_3D ( 'NONE', #357, #26, #179 ) ;
#34 = LOCAL_TIME ( 8, 23, 22.00000000000000000, #395 ) ;
#35 = EDGE_LOOP ( 'NONE', ( #355 ) ) ;
#36 = APPROVAL_STATUS ( 'not_yet_approved' ) ;
#37 = DIRECTION ( 'NONE',  ( 1.000000000000000000, 0.000000000000000000, -3.533809063218636801E-15 ) ) ;
#38 = CARTESIAN_POINT ( 'NONE',  ( 1.656765158129175353, 0.000000000000000000, 1.111249999999995186 ) ) ;
#39 = CC_DESIGN_DATE_AND_TIME_ASSIGNMENT ( #187, #241, ( #202 ) ) ;
#40 = ORIENTED_EDGE ( 'NONE', *, *, #25, .T. ) ;
#41 = DIRECTION ( 'NONE',  ( 3.491481338843133355E-15, -0.000000000000000000, 1.000000000000000000 ) ) ;
#42 = VERTEX_POINT ( 'NONE', #71 ) ;
#43 = EDGE_LOOP ( 'NONE', ( #159 ) ) ;
#44 = VERTEX_POINT ( 'NONE', #38 ) ;
#45 = ORIENTED_EDGE ( 'NONE', *, *, #120, .T. ) ;
#46 = CC_DESIGN_DATE_AND_TIME_ASSIGNMENT ( #167, #76, ( #248 ) ) ;
#47 = PERSON_AND_ORGANIZATION ( #58, #263 ) ;
#48 = DIRECTION ( 'NONE',  ( 1.000000000000000000, 0.000000000000000000, -2.903302888664112114E-15 ) ) ;
#49 = CIRCLE ( 'NONE', #183, 2.390000000000000124 ) ;
#50 = CALENDAR_DATE ( 2023, 28, 9 ) ;
#51 = EDGE_CURVE ( 'NONE', #339, #339, #127, .T. ) ;
#52 = DIRECTION ( 'NONE',  ( 1.000000000000000000, 0.000000000000000000, -3.493036287924009911E-15 ) ) ;
#53 = AXIS2_PLACEMENT_3D ( 'NONE', #205, #386, #57 ) ;
#54 = PRODUCT_DEFINITION_FORMATION_WITH_SPECIFIED_SOURCE ( 'ANY', '', #336, .NOT_KNOWN. ) ;
#55 = CARTESIAN_POINT ( 'NONE',  ( 6.836029504676607322E-15, 0.000000000000000000, 1.957916666666663419 ) ) ;
#56 = CC_DESIGN_PERSON_AND_ORGANIZATION_ASSIGNMENT ( #393, #337, ( #202 ) ) ;
#57 = DIRECTION ( 'NONE',  ( 1.000000000000000000, 0.000000000000000000, -3.491481338843133355E-15 ) ) ;
#58 = PERSON ( 'UNSPECIFIED', 'UNSPECIFIED', 'UNSPECIFIED', ('UNSPECIFIED'), ('UNSPECIFIED'), ('UNSPECIFIED') ) ;
#59 = DIRECTION ( 'NONE',  ( 3.491481338843133355E-15, -0.000000000000000000, 1.000000000000000000 ) ) ;
#60 = AXIS2_PLACEMENT_3D ( 'NONE', #219, #315, #52 ) ;
#61 = DIRECTION ( 'NONE',  ( -1.000000000000000000, 0.000000000000000000, 3.493036287924009911E-15 ) ) ;
#62 = FACE_OUTER_BOUND ( 'NONE', #277, .T. ) ;
#63 = CARTESIAN_POINT ( 'NONE',  ( 1.464074173710999238, 0.000000000000000000, 20.55881904510251346 ) ) ;
#64 = VERTEX_POINT ( 'NONE', #182 ) ;
#65 = AXIS2_PLACEMENT_3D ( 'NONE', #300, #365, #273 ) ;
#66 = CALENDAR_DATE ( 2023, 28, 9 ) ;
#67 = ADVANCED_FACE ( 'NONE', ( #351, #19 ), #136, .T. ) ;
#68 = ORIENTED_EDGE ( 'NONE', *, *, #5, .F. ) ;
#69 = FACE_OUTER_BOUND ( 'NONE', #247, .T. ) ;
#70 = ORIENTED_EDGE ( 'NONE', *, *, #89, .F. ) ;
#71 = CARTESIAN_POINT ( 'NONE',  ( 2.390000000000002789, 0.000000000000000000, 0.6879166666666616248 ) ) ;
#72 = EDGE_LOOP ( 'NONE', ( #123 ) ) ;
#73 = VERTEX_POINT ( 'NONE', #298 ) ;
#74 = EDGE_LOOP ( 'NONE', ( #18 ) ) ;
#75 = DIRECTION ( 'NONE',  ( 3.491481338843133355E-15, -0.000000000000000000, 1.000000000000000000 ) ) ;
#76 = DATE_TIME_ROLE ( 'classification_date' ) ;
#77 = DESIGN_CONTEXT ( 'detailed design', #257, 'design' ) ;
#78 = CIRCLE ( 'NONE', #344, 1.656765158129171356 ) ;
#79 = EDGE_LOOP ( 'NONE', ( #12 ) ) ;
#80 = CLOSED_SHELL ( 'NONE', ( #245, #330, #304, #235, #139, #389, #20, #227, #67, #103, #323, #283, #299, #108, #255, #358 ) ) ;
#81 = CARTESIAN_POINT ( 'NONE',  ( 8.868362600661559985E-15, 1.656765158129170912, 2.540000000000000036 ) ) ;
#82 = AXIS2_PLACEMENT_3D ( 'NONE', #291, #90, #61 ) ;
#83 = CC_DESIGN_APPROVAL ( #316, ( #248 ) ) ;
#84 = DIRECTION ( 'NONE',  ( 3.491481338843133355E-15, -0.000000000000000000, 1.000000000000000000 ) ) ;
#85 = FACE_OUTER_BOUND ( 'NONE', #72, .T. ) ;
#86 = FACE_OUTER_BOUND ( 'NONE', #74, .T. ) ;
#87 = CIRCLE ( 'NONE', #366, 1.656765158129171356 ) ;
#88 = LOCAL_TIME ( 8, 23, 22.00000000000000000, #13 ) ;
#89 = EDGE_CURVE ( 'NONE', #392, #392, #376, .T. ) ;
#90 = DIRECTION ( 'NONE',  ( -3.491481338843133355E-15, 0.000000000000000000, -1.000000000000000000 ) ) ;
#91 = CARTESIAN_POINT ( 'NONE',  ( 3.000000000000091926, 0.000000000000000000, 26.29097226547068544 ) ) ;
#92 = ORIENTED_EDGE ( 'NONE', *, *, #25, .F. ) ;
#93 = CARTESIAN_POINT ( 'NONE',  ( 2.400000000000189093, 0.000000000000000000, 56.99999999999999289 ) ) ;
#94 = COORDINATED_UNIVERSAL_TIME_OFFSET ( 1, 0, .AHEAD. ) ;
#95 = ORIENTED_EDGE ( 'NONE', *, *, #194, .T. ) ;
#96 = DIRECTION ( 'NONE',  ( 3.491481338843133355E-15, -0.000000000000000000, 1.000000000000000000 ) ) ;
#97 = CARTESIAN_POINT ( 'NONE',  ( 1.656765158129179571, 0.000000000000000000, 2.381249999999995648 ) ) ;
#98 = EDGE_LOOP ( 'NONE', ( #239 ) ) ;
#99 = APPLICATION_PROTOCOL_DEFINITION ( 'international standard', 'config_control_design', 1994, #257 ) ;
#100 = CARTESIAN_POINT ( 'NONE',  ( 1.969195475107527212E-13, 0.000000000000000000, 56.39999999999999858 ) ) ;
#101 = FACE_BOUND ( 'NONE', #156, .T. ) ;
#102 = CALENDAR_DATE ( 2023, 28, 9 ) ;
#103 = ADVANCED_FACE ( 'NONE', ( #378, #379 ), #281, .F. ) ;
#104 = EDGE_LOOP ( 'NONE', ( #95 ) ) ;
#105 = CIRCLE ( 'NONE', #318, 1.381802092427611317 ) ;
#106 = AXIS2_PLACEMENT_3D ( 'NONE', #55, #177, #226 ) ;
#107 = DIRECTION ( 'NONE',  ( 3.491481338843133355E-15, -0.000000000000000000, 1.000000000000000000 ) ) ;
#108 = ADVANCED_FACE ( 'NONE', ( #16, #317 ), #140, .T. ) ;
#109 = DIRECTION ( 'NONE',  ( 3.491481338843133355E-15, -0.000000000000000000, 1.000000000000000000 ) ) ;
#110 = EDGE_CURVE ( 'NONE', #328, #328, #253, .T. ) ;
#111 = DIRECTION ( 'NONE',  ( 3.491481338843133355E-15, -0.000000000000000000, 1.000000000000000000 ) ) ;
#112 = AXIS2_PLACEMENT_3D ( 'NONE', #254, #111, #135 ) ;
#113 = FACE_OUTER_BOUND ( 'NONE', #9, .T. ) ;
#114 = CARTESIAN_POINT ( 'NONE',  ( 6.466514396315710567E-15, 0.000000000000000000, 1.852083333333330639 ) ) ;
#115 = EDGE_CURVE ( 'NONE', #367, #367, #105, .T. ) ;
#116 = FACE_OUTER_BOUND ( 'NONE', #272, .T. ) ;
#117 = CIRCLE ( 'NONE', #150, 2.399999999999990141 ) ;
#118 = DIRECTION ( 'NONE',  ( 1.000000000000000000, 0.000000000000000000, -3.491481338843133355E-15 ) ) ;
#119 = PERSON_AND_ORGANIZATION ( #58, #263 ) ;
#120 = EDGE_CURVE ( 'NONE', #232, #232, #117, .T. ) ;
#121 = EDGE_LOOP ( 'NONE', ( #130 ) ) ;
#122 = PERSON_AND_ORGANIZATION_ROLE ( 'creator' ) ;
#123 = ORIENTED_EDGE ( 'NONE', *, *, #170, .T. ) ;
#124 = CARTESIAN_POINT ( 'NONE',  ( 0.000000000000000000, 0.000000000000000000, 0.000000000000000000 ) ) ;
#125 = CALENDAR_DATE ( 2023, 28, 9 ) ;
#126 = APPROVAL_DATE_TIME ( #332, #223 ) ;
#127 = CIRCLE ( 'NONE', #14, 1.656765158129170912 ) ;
#128 = EDGE_LOOP ( 'NONE', ( #296 ) ) ;
#129 =( NAMED_UNIT ( * ) PLANE_ANGLE_UNIT ( ) SI_UNIT ( $, .RADIAN. ) );
#130 = ORIENTED_EDGE ( 'NONE', *, *, #134, .F. ) ;
#131 = ORIENTED_EDGE ( 'NONE', *, *, #134, .T. ) ;
#132 = ORIENTED_EDGE ( 'NONE', *, *, #213, .T. ) ;
#133 = DIRECTION ( 'NONE',  ( 1.000000000000000000, 0.000000000000000000, -3.491481338843132961E-15 ) ) ;
#134 = EDGE_CURVE ( 'NONE', #64, #64, #87, .T. ) ;
#135 = DIRECTION ( 'NONE',  ( 1.000000000000000000, 0.000000000000000000, -2.369720752029763604E-15 ) ) ;
#136 = CYLINDRICAL_SURFACE ( 'NONE', #142, 1.656765158129171134 ) ;
#137 = AXIS2_PLACEMENT_3D ( 'NONE', #124, #147, #185 ) ;
#138 = DIRECTION ( 'NONE',  ( 1.000000000000000000, 0.000000000000000000, -4.625929269271488478E-15 ) ) ;
#139 = ADVANCED_FACE ( 'NONE', ( #250, #288 ), #361, .T. ) ;
#140 = CYLINDRICAL_SURFACE ( 'NONE', #319, 2.999999999999998224 ) ;
#141 = DIRECTION ( 'NONE',  ( 3.491481338843133355E-15, -0.000000000000000000, 1.000000000000000000 ) ) ;
#142 = AXIS2_PLACEMENT_3D ( 'NONE', #380, #109, #164 ) ;
#143 = FACE_OUTER_BOUND ( 'NONE', #279, .T. ) ;
#144 = PRODUCT_RELATED_PRODUCT_CATEGORY ( 'detail', '', ( #336 ) ) ;
#145 = DIRECTION ( 'NONE',  ( 1.000000000000000000, 0.000000000000000000, -3.533809063218636801E-15 ) ) ;
#146 = DIRECTION ( 'NONE',  ( 1.000000000000000000, 0.000000000000000000, -2.426186679687846056E-15 ) ) ;
#147 = DIRECTION ( 'NONE',  ( 3.491481338843133355E-15, -0.000000000000000000, 1.000000000000000000 ) ) ;
#148 = FACE_BOUND ( 'NONE', #128, .T. ) ;
#149 = DIRECTION ( 'NONE',  ( 1.000000000000000000, 0.000000000000000000, -3.639280019531763168E-15 ) ) ;
#150 = AXIS2_PLACEMENT_3D ( 'NONE', #249, #107, #311 ) ;
#151 = APPROVAL_PERSON_ORGANIZATION ( #195, #316, #370 ) ;
#152 = VERTEX_POINT ( 'NONE', #278 ) ;
#153 = EDGE_CURVE ( 'NONE', #297, #297, #49, .T. ) ;
#154 = EDGE_LOOP ( 'NONE', ( #364 ) ) ;
#155 = CARTESIAN_POINT ( 'NONE',  ( 1.990144363140586139E-13, 2.399999999999990141, 57.00000000000000000 ) ) ;
#156 = EDGE_LOOP ( 'NONE', ( #131 ) ) ;
#157 = VERTEX_POINT ( 'NONE', #91 ) ;
#158 = CONICAL_SURFACE ( 'NONE', #381, 1.464074173710927518, 0.2617993877991428575 ) ;
#159 = ORIENTED_EDGE ( 'NONE', *, *, #153, .T. ) ;
#160 = CIRCLE ( 'NONE', #168, 2.999999999999996447 ) ;
#161 = EDGE_LOOP ( 'NONE', ( #309 ) ) ;
#162 = SECURITY_CLASSIFICATION_LEVEL ( 'unclassified' ) ;
#163 = AXIS2_PLACEMENT_3D ( 'NONE', #287, #220, #284 ) ;
#164 = DIRECTION ( 'NONE',  ( 1.000000000000000000, 0.000000000000000000, -4.188218148999866744E-15 ) ) ;
#165 = AXIS2_PLACEMENT_3D ( 'NONE', #32, #216, #265 ) ;
#166 = DIRECTION ( 'NONE',  ( 3.491481338843133355E-15, -0.000000000000000000, 1.000000000000000000 ) ) ;
#167 = DATE_AND_TIME ( #50, #88 ) ;
#168 = AXIS2_PLACEMENT_3D ( 'NONE', #100, #338, #191 ) ;
#169 = CARTESIAN_POINT ( 'NONE',  ( 1.990144363140586139E-13, 0.000000000000000000, 57.00000000000000000 ) ) ;
#170 = EDGE_CURVE ( 'NONE', #275, #275, #27, .T. ) ;
#171 = DIRECTION ( 'NONE',  ( -1.000000000000000000, 0.000000000000000000, 3.491481338843133355E-15 ) ) ;
#172 = CONICAL_SURFACE ( 'NONE', #82, 2.390000000000000124, 1.047197551196602516 ) ;
#173 = PLANE ( 'NONE',  #53 ) ;
#174 = DIRECTION ( 'NONE',  ( -3.491481338843133355E-15, 0.000000000000000000, -1.000000000000000000 ) ) ;
#175 = APPROVAL ( #36, 'UNSPECIFIED' ) ;
#176 = DIRECTION ( 'NONE',  ( 3.491481338843133355E-15, -0.000000000000000000, 1.000000000000000000 ) ) ;
#177 = DIRECTION ( 'NONE',  ( 3.491481338843133355E-15, -0.000000000000000000, 1.000000000000000000 ) ) ;
#178 = CARTESIAN_POINT ( 'NONE',  ( 1.656765158129179794, 0.000000000000000000, 2.539999999999995151 ) ) ;
#179 = DIRECTION ( 'NONE',  ( -1.000000000000000000, 0.000000000000000000, 3.447672180288633036E-15 ) ) ;
#180 = CC_DESIGN_PERSON_AND_ORGANIZATION_ASSIGNMENT ( #310, #280, ( #248 ) ) ;
#181 = FACE_OUTER_BOUND ( 'NONE', #340, .T. ) ;
#182 = CARTESIAN_POINT ( 'NONE',  ( 1.656765158129176241, 0.000000000000000000, 1.428749999999993525 ) ) ;
#183 = AXIS2_PLACEMENT_3D ( 'NONE', #114, #225, #290 ) ;
#184 = EDGE_LOOP ( 'NONE', ( #266 ) ) ;
#185 = DIRECTION ( 'NONE',  ( 1.000000000000000000, 0.000000000000000000, -3.491481338843132961E-15 ) ) ;
#186 = SHAPE_DEFINITION_REPRESENTATION ( #373, #325 ) ;
#187 = DATE_AND_TIME ( #102, #377 ) ;
#188 = CC_DESIGN_PERSON_AND_ORGANIZATION_ASSIGNMENT ( #47, #193, ( #54 ) ) ;
#189 = EDGE_LOOP ( 'NONE', ( #308 ) ) ;
#190 = PERSON_AND_ORGANIZATION ( #58, #263 ) ;
#191 = DIRECTION ( 'NONE',  ( 1.000000000000000000, 0.000000000000000000, -4.625929269271490844E-15 ) ) ;
#192 = ORIENTED_EDGE ( 'NONE', *, *, #89, .T. ) ;
#193 = PERSON_AND_ORGANIZATION_ROLE ( 'design_supplier' ) ;
#194 = EDGE_CURVE ( 'NONE', #301, #301, #306, .T. ) ;
#195 = PERSON_AND_ORGANIZATION ( #58, #263 ) ;
#196 = LOCAL_TIME ( 8, 23, 22.00000000000000000, #94 ) ;
#197 = CARTESIAN_POINT ( 'NONE',  ( 8.868362600661559985E-15, 0.000000000000000000, 2.540000000000000480 ) ) ;
#198 = DIRECTION ( 'NONE',  ( -3.491481338843133355E-15, 0.000000000000000000, -1.000000000000000000 ) ) ;
#199 = CIRCLE ( 'NONE', #163, 3.000000000000000000 ) ;
#200 = CYLINDRICAL_SURFACE ( 'NONE', #274, 2.390000000000000124 ) ;
#201 = CARTESIAN_POINT ( 'NONE',  ( 1.990144363140586139E-13, 0.000000000000000000, 57.00000000000000000 ) ) ;
#202 = PRODUCT_DEFINITION ( 'UNKNOWN', '', #54, #77 ) ;
#203 = CARTESIAN_POINT ( 'NONE',  ( 1.990144363140586139E-13, 0.000000000000000000, 57.00000000000000000 ) ) ;
#204 = CARTESIAN_POINT ( 'NONE',  ( 1.969195475107527212E-13, 0.000000000000000000, 56.39999999999999858 ) ) ;
#205 = CARTESIAN_POINT ( 'NONE',  ( 1.344019700645769416E-32, 0.000000000000000000, 3.849425416350919459E-18 ) ) ;
#206 = CARTESIAN_POINT ( 'NONE',  ( 2.390000000000002345, 0.000000000000000000, 0.5820833333333219617 ) ) ;
#207 = ORIENTED_EDGE ( 'NONE', *, *, #269, .T. ) ;
#208 = FACE_BOUND ( 'NONE', #79, .T. ) ;
#209 =( GEOMETRIC_REPRESENTATION_CONTEXT ( 3 ) GLOBAL_UNCERTAINTY_ASSIGNED_CONTEXT ( ( #7 ) ) GLOBAL_UNIT_ASSIGNED_CONTEXT ( ( #369, #129, #375 ) ) REPRESENTATION_CONTEXT ( 'NONE', 'WORKASPACE' ) );
#210 = MECHANICAL_CONTEXT ( 'NONE', #349, 'mechanical' ) ;
#211 = ORIENTED_EDGE ( 'NONE', *, *, #115, .F. ) ;
#212 = APPLICATION_PROTOCOL_DEFINITION ( 'international standard', 'config_control_design', 1994, #349 ) ;
#213 = EDGE_CURVE ( 'NONE', #44, #44, #78, .T. ) ;
#214 = CALENDAR_DATE ( 2023, 28, 9 ) ;
#215 = EDGE_LOOP ( 'NONE', ( #92 ) ) ;
#216 = DIRECTION ( 'NONE',  ( 0.000000000000000000, 0.000000000000000000, 1.000000000000000000 ) ) ;
#217 = CONICAL_SURFACE ( 'NONE', #360, 1.656765158129171356, 1.047197551196602516 ) ;
#218 = CIRCLE ( 'NONE', #65, 2.390000000000000124 ) ;
#219 = CARTESIAN_POINT ( 'NONE',  ( 2.032333095984929786E-15, 0.000000000000000000, 0.5820833333333302884 ) ) ;
#220 = DIRECTION ( 'NONE',  ( 3.491481338843133355E-15, -0.000000000000000000, 1.000000000000000000 ) ) ;
#221 = CARTESIAN_POINT ( 'NONE',  ( 0.000000000000000000, 0.000000000000000000, 0.000000000000000000 ) ) ;
#222 = CONICAL_SURFACE ( 'NONE', #137, 1.381802092427611317, 1.047197551196602072 ) ;
#223 = APPROVAL ( #347, 'UNSPECIFIED' ) ;
#224 = CARTESIAN_POINT ( 'NONE',  ( 7.087707117851562604E-14, 0.000000000000000000, 20.30000000000000426 ) ) ;
#225 = DIRECTION ( 'NONE',  ( 3.491481338843133355E-15, -0.000000000000000000, 1.000000000000000000 ) ) ;
#226 = DIRECTION ( 'NONE',  ( 1.000000000000000000, 0.000000000000000000, -3.447672180288633036E-15 ) ) ;
#227 = ADVANCED_FACE ( 'NONE', ( #31, #143 ), #22, .T. ) ;
#228 = CONICAL_SURFACE ( 'NONE', #350, 2.999999999999996447, 0.7853981633974508325 ) ;
#229 = FACE_OUTER_BOUND ( 'NONE', #184, .T. ) ;
#230 = APPROVAL_PERSON_ORGANIZATION ( #119, #175, #268 ) ;
#231 = DIRECTION ( 'NONE',  ( 1.000000000000000000, 0.000000000000000000, -2.369720752029763604E-15 ) ) ;
#232 = VERTEX_POINT ( 'NONE', #93 ) ;
#233 = DATE_AND_TIME ( #125, #295 ) ;
#234 = DATE_AND_TIME ( #214, #34 ) ;
#235 = ADVANCED_FACE ( 'NONE', ( #29, #229 ), #172, .T. ) ;
#236 = CARTESIAN_POINT ( 'NONE',  ( 3.000000000000193623, 0.000000000000000000, 56.39999999999998437 ) ) ;
#237 = AXIS2_PLACEMENT_3D ( 'NONE', #356, #176, #292 ) ;
#238 = CARTESIAN_POINT ( 'NONE',  ( 1.430000000000068550, 0.000000000000000000, 20.30000000000000071 ) ) ;
#239 = ORIENTED_EDGE ( 'NONE', *, *, #51, .F. ) ;
#240 = PLANE ( 'NONE',  #3 ) ;
#241 = DATE_TIME_ROLE ( 'creation_date' ) ;
#242 = ORIENTED_EDGE ( 'NONE', *, *, #382, .F. ) ;
#243 = EDGE_LOOP ( 'NONE', ( #68 ) ) ;
#244 = COORDINATED_UNIVERSAL_TIME_OFFSET ( 1, 0, .AHEAD. ) ;
#245 = ADVANCED_FACE ( 'NONE', ( #62 ), #173, .F. ) ;
#246 = ORIENTED_EDGE ( 'NONE', *, *, #51, .T. ) ;
#247 = EDGE_LOOP ( 'NONE', ( #374 ) ) ;
#248 = SECURITY_CLASSIFICATION ( '', '', #162 ) ;
#249 = CARTESIAN_POINT ( 'NONE',  ( 1.990144363140586139E-13, 0.000000000000000000, 57.00000000000000000 ) ) ;
#250 = FACE_OUTER_BOUND ( 'NONE', #121, .T. ) ;
#251 = MANIFOLD_SOLID_BREP ( 'Corps-Déplacer/Copier1', #80 ) ;
#252 = DIRECTION ( 'NONE',  ( 3.491481338843133355E-15, -0.000000000000000000, 1.000000000000000000 ) ) ;
#253 = CIRCLE ( 'NONE', #112, 1.464074173710927518 ) ;
#254 = CARTESIAN_POINT ( 'NONE',  ( 7.178073304462824556E-14, 0.000000000000000000, 20.55881904510251701 ) ) ;
#255 = ADVANCED_FACE ( 'NONE', ( #148, #327 ), #228, .T. ) ;
#256 = CARTESIAN_POINT ( 'NONE',  ( 7.178073304462824556E-14, 0.000000000000000000, 20.55881904510251701 ) ) ;
#257 = APPLICATION_CONTEXT ( 'configuration controlled 3d designs of mechanical parts and assemblies' ) ;
#258 = CIRCLE ( 'NONE', #106, 2.390000000000000124 ) ;
#259 = FACE_BOUND ( 'NONE', #161, .T. ) ;
#260 = DIRECTION ( 'NONE',  ( -1.000000000000000000, 0.000000000000000000, 4.625929269271490844E-15 ) ) ;
#261 = AXIS2_PLACEMENT_3D ( 'NONE', #203, #322, #387 ) ;
#262 = CARTESIAN_POINT ( 'NONE',  ( 7.087707117851561342E-14, 0.000000000000000000, 20.30000000000000071 ) ) ;
#263 = ORGANIZATION ( 'UNSPECIFIED', 'UNSPECIFIED', '' ) ;
#264 = CARTESIAN_POINT ( 'NONE',  ( 4.988453962872124336E-15, 0.000000000000000000, 1.428749999999999520 ) ) ;
#265 = DIRECTION ( 'NONE',  ( 1.000000000000000000, 0.000000000000000000, 0.000000000000000000 ) ) ;
#266 = ORIENTED_EDGE ( 'NONE', *, *, #371, .T. ) ;
#267 = FACE_OUTER_BOUND ( 'NONE', #1, .T. ) ;
#268 = APPROVAL_ROLE ( '' ) ;
#269 = EDGE_CURVE ( 'NONE', #152, #152, #258, .T. ) ;
#270 = EDGE_LOOP ( 'NONE', ( #40 ) ) ;
#271 = VERTEX_POINT ( 'NONE', #236 ) ;
#272 = EDGE_LOOP ( 'NONE', ( #192 ) ) ;
#273 = DIRECTION ( 'NONE',  ( 1.000000000000000000, 0.000000000000000000, -3.493036287924009911E-15 ) ) ;
#274 = AXIS2_PLACEMENT_3D ( 'NONE', #201, #321, #320 ) ;
#275 = VERTEX_POINT ( 'NONE', #238 ) ;
#276 = ORIENTED_EDGE ( 'NONE', *, *, #170, .F. ) ;
#277 = EDGE_LOOP ( 'NONE', ( #211 ) ) ;
#278 = CARTESIAN_POINT ( 'NONE',  ( 2.390000000000007230, 0.000000000000000000, 1.957916666666655203 ) ) ;
#279 = EDGE_LOOP ( 'NONE', ( #207 ) ) ;
#280 = PERSON_AND_ORGANIZATION_ROLE ( 'classification_officer' ) ;
#281 = PLANE ( 'NONE',  #286 ) ;
#282 = CC_DESIGN_SECURITY_CLASSIFICATION ( #248, ( #54 ) ) ;
#283 = ADVANCED_FACE ( 'NONE', ( #86, #85 ), #294, .F. ) ;
#284 = DIRECTION ( 'NONE',  ( 1.000000000000000000, 0.000000000000000000, -3.469446951953614189E-15 ) ) ;
#285 = CARTESIAN_POINT ( 'NONE',  ( 1.990144363140586139E-13, 0.000000000000000000, 57.00000000000000000 ) ) ;
#286 = AXIS2_PLACEMENT_3D ( 'NONE', #81, #198, #171 ) ;
#287 = CARTESIAN_POINT ( 'NONE',  ( 9.179443904493331058E-14, 0.000000000000000000, 26.29097226547069610 ) ) ;
#288 = FACE_OUTER_BOUND ( 'NONE', #345, .T. ) ;
#289 = FACE_OUTER_BOUND ( 'NONE', #305, .T. ) ;
#290 = DIRECTION ( 'NONE',  ( 1.000000000000000000, 0.000000000000000000, -3.447672180288633036E-15 ) ) ;
#291 = CARTESIAN_POINT ( 'NONE',  ( 2.401848204345850601E-15, 0.000000000000000000, 0.6879166666666700625 ) ) ;
#292 = DIRECTION ( 'NONE',  ( 1.000000000000000000, 0.000000000000000000, -3.402927246062391286E-15 ) ) ;
#293 = CARTESIAN_POINT ( 'NONE',  ( 1.381802092427611317, 0.000000000000000000, -4.824536219685399105E-15 ) ) ;
#294 = TOROIDAL_SURFACE ( 'NONE', #390, 2.429999999999997495, 1.000000000000000444 ) ;
#295 = LOCAL_TIME ( 8, 23, 22.00000000000000000, #6 ) ;
#296 = ORIENTED_EDGE ( 'NONE', *, *, #120, .F. ) ;
#297 = VERTEX_POINT ( 'NONE', #394 ) ;
#298 = CARTESIAN_POINT ( 'NONE',  ( 1.430000000000008820, 0.000000000000000000, 2.539999999999995595 ) ) ;
#299 = ADVANCED_FACE ( 'NONE', ( #28, #259 ), #158, .T. ) ;
#300 = CARTESIAN_POINT ( 'NONE',  ( 2.401848204345850601E-15, 0.000000000000000000, 0.6879166666666700625 ) ) ;
#301 = VERTEX_POINT ( 'NONE', #97 ) ;
#302 = ORIENTED_EDGE ( 'NONE', *, *, #194, .F. ) ;
#303 = DIRECTION ( 'NONE',  ( -3.491481338843133355E-15, 0.000000000000000000, -1.000000000000000000 ) ) ;
#304 = ADVANCED_FACE ( 'NONE', ( #388, #116 ), #200, .T. ) ;
#305 = EDGE_LOOP ( 'NONE', ( #276 ) ) ;
#306 = CIRCLE ( 'NONE', #237, 1.656765158129171356 ) ;
#307 = PERSON_AND_ORGANIZATION ( #58, #263 ) ;
#308 = ORIENTED_EDGE ( 'NONE', *, *, #213, .F. ) ;
#309 = ORIENTED_EDGE ( 'NONE', *, *, #110, .T. ) ;
#310 = PERSON_AND_ORGANIZATION ( #58, #263 ) ;
#311 = DIRECTION ( 'NONE',  ( 1.000000000000000000, 0.000000000000000000, -2.891205793294690455E-15 ) ) ;
#312 = AXIS2_PLACEMENT_3D ( 'NONE', #224, #326, #146 ) ;
#313 = APPROVAL_STATUS ( 'not_yet_approved' ) ;
#314 = FACE_OUTER_BOUND ( 'NONE', #43, .T. ) ;
#315 = DIRECTION ( 'NONE',  ( 3.491481338843133355E-15, -0.000000000000000000, 1.000000000000000000 ) ) ;
#316 = APPROVAL ( #313, 'UNSPECIFIED' ) ;
#317 = FACE_OUTER_BOUND ( 'NONE', #270, .T. ) ;
#318 = AXIS2_PLACEMENT_3D ( 'NONE', #221, #353, #133 ) ;
#319 = AXIS2_PLACEMENT_3D ( 'NONE', #285, #21, #138 ) ;
#320 = DIRECTION ( 'NONE',  ( 1.000000000000000000, 0.000000000000000000, -2.903302888664112114E-15 ) ) ;
#321 = DIRECTION ( 'NONE',  ( 3.491481338843133355E-15, -0.000000000000000000, 1.000000000000000000 ) ) ;
#322 = DIRECTION ( 'NONE',  ( 3.491481338843133355E-15, -0.000000000000000000, 1.000000000000000000 ) ) ;
#323 = ADVANCED_FACE ( 'NONE', ( #289, #113 ), #384, .T. ) ;
#324 = CIRCLE ( 'NONE', #333, 1.429999999999999938 ) ;
#325 = ADVANCED_BREP_SHAPE_REPRESENTATION ( '961054', ( #251, #165 ), #209 ) ;
#326 = DIRECTION ( 'NONE',  ( 3.491481338843133355E-15, -0.000000000000000000, 1.000000000000000000 ) ) ;
#327 = FACE_OUTER_BOUND ( 'NONE', #4, .T. ) ;
#328 = VERTEX_POINT ( 'NONE', #63 ) ;
#329 = EDGE_LOOP ( 'NONE', ( #246 ) ) ;
#330 = ADVANCED_FACE ( 'NONE', ( #267, #208 ), #222, .T. ) ;
#331 = FACE_OUTER_BOUND ( 'NONE', #35, .T. ) ;
#332 = DATE_AND_TIME ( #66, #196 ) ;
#333 = AXIS2_PLACEMENT_3D ( 'NONE', #334, #96, #149 ) ;
#334 = CARTESIAN_POINT ( 'NONE',  ( 8.868362600661559985E-15, 0.000000000000000000, 2.540000000000000480 ) ) ;
#335 = APPROVAL_ROLE ( '' ) ;
#336 = PRODUCT ( '961054', '961054', '', ( #210 ) ) ;
#337 = PERSON_AND_ORGANIZATION_ROLE ( 'creator' ) ;
#338 = DIRECTION ( 'NONE',  ( 3.491481338843133355E-15, -0.000000000000000000, 1.000000000000000000 ) ) ;
#339 = VERTEX_POINT ( 'NONE', #178 ) ;
#340 = EDGE_LOOP ( 'NONE', ( #45 ) ) ;
#341 = APPROVAL_DATE_TIME ( #234, #175 ) ;
#342 = CC_DESIGN_PERSON_AND_ORGANIZATION_ASSIGNMENT ( #307, #10, ( #336 ) ) ;
#343 = ORIENTED_EDGE ( 'NONE', *, *, #382, .T. ) ;
#344 = AXIS2_PLACEMENT_3D ( 'NONE', #362, #359, #145 ) ;
#345 = EDGE_LOOP ( 'NONE', ( #132 ) ) ;
#346 = CC_DESIGN_APPROVAL ( #175, ( #54 ) ) ;
#347 = APPROVAL_STATUS ( 'not_yet_approved' ) ;
#348 = CARTESIAN_POINT ( 'NONE',  ( 4.988453962872124336E-15, 0.000000000000000000, 1.428749999999999520 ) ) ;
#349 = APPLICATION_CONTEXT ( 'configuration controlled 3d designs of mechanical parts and assemblies' ) ;
#350 = AXIS2_PLACEMENT_3D ( 'NONE', #204, #174, #260 ) ;
#351 = FACE_OUTER_BOUND ( 'NONE', #98, .T. ) ;
#352 = CYLINDRICAL_SURFACE ( 'NONE', #385, 2.390000000000000124 ) ;
#353 = DIRECTION ( 'NONE',  ( 3.491481338843133355E-15, -0.000000000000000000, 1.000000000000000000 ) ) ;
#354 = AXIS2_PLACEMENT_3D ( 'NONE', #24, #141, #391 ) ;
#355 = ORIENTED_EDGE ( 'NONE', *, *, #153, .F. ) ;
#356 = CARTESIAN_POINT ( 'NONE',  ( 8.314089938120215641E-15, 0.000000000000000000, 2.381250000000001421 ) ) ;
#357 = CARTESIAN_POINT ( 'NONE',  ( 6.836029504676607322E-15, 0.000000000000000000, 1.957916666666663419 ) ) ;
#358 = ADVANCED_FACE ( 'NONE', ( #181 ), #240, .F. ) ;
#359 = DIRECTION ( 'NONE',  ( 3.491481338843133355E-15, -0.000000000000000000, 1.000000000000000000 ) ) ;
#360 = AXIS2_PLACEMENT_3D ( 'NONE', #264, #41, #37 ) ;
#361 = CYLINDRICAL_SURFACE ( 'NONE', #354, 1.656765158129171356 ) ;
#362 = CARTESIAN_POINT ( 'NONE',  ( 3.879908637789436438E-15, 0.000000000000000000, 1.111250000000001181 ) ) ;
#363 = DIRECTION ( 'NONE',  ( -1.000000000000000000, 0.000000000000000000, 3.491481338843133355E-15 ) ) ;
#364 = ORIENTED_EDGE ( 'NONE', *, *, #371, .F. ) ;
#365 = DIRECTION ( 'NONE',  ( 3.491481338843133355E-15, -0.000000000000000000, 1.000000000000000000 ) ) ;
#366 = AXIS2_PLACEMENT_3D ( 'NONE', #348, #166, #17 ) ;
#367 = VERTEX_POINT ( 'NONE', #293 ) ;
#368 = APPROVAL_DATE_TIME ( #233, #316 ) ;
#369 =( LENGTH_UNIT ( ) NAMED_UNIT ( * ) SI_UNIT ( .MILLI., .METRE. ) );
#370 = APPROVAL_ROLE ( '' ) ;
#371 = EDGE_CURVE ( 'NONE', #42, #42, #218, .T. ) ;
#372 = EDGE_LOOP ( 'NONE', ( #242 ) ) ;
#373 = PRODUCT_DEFINITION_SHAPE ( 'NONE', 'NONE',  #202 ) ;
#374 = ORIENTED_EDGE ( 'NONE', *, *, #269, .F. ) ;
#375 =( NAMED_UNIT ( * ) SI_UNIT ( $, .STERADIAN. ) SOLID_ANGLE_UNIT ( ) );
#376 = CIRCLE ( 'NONE', #60, 2.390000000000000124 ) ;
#377 = LOCAL_TIME ( 8, 23, 22.00000000000000000, #244 ) ;
#378 = FACE_BOUND ( 'NONE', #372, .T. ) ;
#379 = FACE_OUTER_BOUND ( 'NONE', #329, .T. ) ;
#380 = CARTESIAN_POINT ( 'NONE',  ( 1.990144363140586139E-13, 0.000000000000000000, 57.00000000000000000 ) ) ;
#381 = AXIS2_PLACEMENT_3D ( 'NONE', #256, #84, #231 ) ;
#382 = EDGE_CURVE ( 'NONE', #73, #73, #324, .T. ) ;
#383 = CC_DESIGN_APPROVAL ( #223, ( #202 ) ) ;
#384 = CYLINDRICAL_SURFACE ( 'NONE', #261, 1.429999999999998828 ) ;
#385 = AXIS2_PLACEMENT_3D ( 'NONE', #169, #75, #48 ) ;
#386 = DIRECTION ( 'NONE',  ( 3.491481338843133355E-15, -0.000000000000000000, 1.000000000000000000 ) ) ;
#387 = DIRECTION ( 'NONE',  ( 1.000000000000000000, 0.000000000000000000, -4.852373359375688169E-15 ) ) ;
#388 = FACE_OUTER_BOUND ( 'NONE', #154, .T. ) ;
#389 = ADVANCED_FACE ( 'NONE', ( #331, #101 ), #217, .T. ) ;
#390 = AXIS2_PLACEMENT_3D ( 'NONE', #262, #59, #118 ) ;
#391 = DIRECTION ( 'NONE',  ( 1.000000000000000000, 0.000000000000000000, -4.188218148999865956E-15 ) ) ;
#392 = VERTEX_POINT ( 'NONE', #206 ) ;
#393 = PERSON_AND_ORGANIZATION ( #58, #263 ) ;
#394 = CARTESIAN_POINT ( 'NONE',  ( 2.390000000000006786, 0.000000000000000000, 1.852083333333322424 ) ) ;
#395 = COORDINATED_UNIVERSAL_TIME_OFFSET ( 1, 0, .AHEAD. ) ;
ENDSEC;
END-ISO-10303-21;
