ISO-10303-21;
HEADER;
FILE_DESCRIPTION (( 'STEP AP203' ),
    '1' );
FILE_NAME ('961052.step',
    '2023-09-28T06:23:21',
    ( '' ),
    ( '' ),
    'SwSTEP 2.0',
    'SolidWorks 2022',
    '' );
FILE_SCHEMA (( 'CONFIG_CONTROL_DESIGN' ));
ENDSEC;

DATA;
#1 = CARTESIAN_POINT ( 'NONE',  ( 7.390302167217963498E-15, 1.188970965107642108, 2.116666666666665808 ) ) ;
#2 = EDGE_CURVE ( 'NONE', #118, #118, #184, .T. ) ;
#3 = EDGE_LOOP ( 'NONE', ( #156 ) ) ;
#4 = DIRECTION ( 'NONE',  ( 3.491481338843133355E-15, -0.000000000000000000, 1.000000000000000000 ) ) ;
#5 = CC_DESIGN_DATE_AND_TIME_ASSIGNMENT ( #376, #346, ( #128 ) ) ;
#6 = APPROVAL_PERSON_ORGANIZATION ( #307, #203, #11 ) ;
#7 = ORIENTED_EDGE ( 'NONE', *, *, #330, .T. ) ;
#8 = CARTESIAN_POINT ( 'NONE',  ( 7.390302167217950877E-15, 0.000000000000000000, 2.116666666666662699 ) ) ;
#9 = ORIENTED_EDGE ( 'NONE', *, *, #311, .F. ) ;
#10 = EDGE_LOOP ( 'NONE', ( #15 ) ) ;
#11 = APPROVAL_ROLE ( '' ) ;
#12 = ORIENTED_EDGE ( 'NONE', *, *, #285, .F. ) ;
#13 = CIRCLE ( 'NONE', #230, 1.800000000000000044 ) ;
#14 = EDGE_LOOP ( 'NONE', ( #117 ) ) ;
#15 = ORIENTED_EDGE ( 'NONE', *, *, #383, .F. ) ;
#16 = LOCAL_TIME ( 8, 23, 21.00000000000000000, #305 ) ;
#17 = DIRECTION ( 'NONE',  ( -3.491481338843133355E-15, 0.000000000000000000, -1.000000000000000000 ) ) ;
#18 = PERSON_AND_ORGANIZATION_ROLE ( 'creator' ) ;
#19 = FACE_OUTER_BOUND ( 'NONE', #93, .T. ) ;
#20 = PERSON_AND_ORGANIZATION ( #104, #314 ) ;
#21 = FACE_OUTER_BOUND ( 'NONE', #302, .T. ) ;
#22 = APPLICATION_CONTEXT ( 'configuration controlled 3d designs of mechanical parts and assemblies' ) ;
#23 = CIRCLE ( 'NONE', #217, 0.9649999999999999689 ) ;
#24 = FACE_OUTER_BOUND ( 'NONE', #65, .T. ) ;
#25 = PRODUCT ( '961052', '961052', '', ( #313 ) ) ;
#26 = FACE_OUTER_BOUND ( 'NONE', #192, .T. ) ;
#27 = CARTESIAN_POINT ( 'NONE',  ( 1.920314736363723472E-13, 1.599999999999988542, 55.00000000000000000 ) ) ;
#28 = CARTESIAN_POINT ( 'NONE',  ( 1.920314736363723472E-13, 0.000000000000000000, 55.00000000000000000 ) ) ;
#29 = CARTESIAN_POINT ( 'NONE',  ( 5.411796075206856701E-14, 0.000000000000000000, 15.50000000000000000 ) ) ;
#30 = DIRECTION ( 'NONE',  ( 1.000000000000000000, 0.000000000000000000, -3.493540333564403220E-15 ) ) ;
#31 = CC_DESIGN_APPROVAL ( #322, ( #347 ) ) ;
#32 = VERTEX_POINT ( 'NONE', #152 ) ;
#33 = VERTEX_POINT ( 'NONE', #365 ) ;
#34 = ORIENTED_EDGE ( 'NONE', *, *, #225, .T. ) ;
#35 = CONICAL_SURFACE ( 'NONE', #108, 0.9598350770230098528, 1.047197551196599630 ) ;
#36 = DATE_AND_TIME ( #350, #165 ) ;
#37 = UNCERTAINTY_MEASURE_WITH_UNIT (LENGTH_MEASURE( 1.000000000000000082E-05 ), #318, 'distance_accuracy_value', 'NONE');
#38 = APPROVAL_STATUS ( 'not_yet_approved' ) ;
#39 = EDGE_LOOP ( 'NONE', ( #81 ) ) ;
#40 = APPLICATION_CONTEXT ( 'configuration controlled 3d designs of mechanical parts and assemblies' ) ;
#41 = CARTESIAN_POINT ( 'NONE',  ( 3.233257198157867116E-15, 0.000000000000000000, 0.9260416666666687613 ) ) ;
#42 = DIRECTION ( 'NONE',  ( 1.000000000000000000, 0.000000000000000000, -3.493540333564403220E-15 ) ) ;
#43 = CIRCLE ( 'NONE', #272, 1.800000000000000044 ) ;
#44 = AXIS2_PLACEMENT_3D ( 'NONE', #255, #380, #68 ) ;
#45 = COORDINATED_UNIVERSAL_TIME_OFFSET ( 1, 0, .AHEAD. ) ;
#46 = CARTESIAN_POINT ( 'NONE',  ( 5.502162261818121176E-14, 0.000000000000000000, 15.75881904510251985 ) ) ;
#47 = DIRECTION ( 'NONE',  ( 3.491481338843133355E-15, -0.000000000000000000, 1.000000000000000000 ) ) ;
#48 = FACE_OUTER_BOUND ( 'NONE', #276, .T. ) ;
#49 = CARTESIAN_POINT ( 'NONE',  ( 5.411796075206856701E-14, 0.000000000000000000, 15.50000000000000000 ) ) ;
#50 = DIRECTION ( 'NONE',  ( 1.000000000000000000, 0.000000000000000000, -3.595281815495973404E-15 ) ) ;
#51 = FACE_OUTER_BOUND ( 'NONE', #277, .T. ) ;
#52 = DIRECTION ( 'NONE',  ( 3.491481338843133355E-15, -0.000000000000000000, 1.000000000000000000 ) ) ;
#53 = DIRECTION ( 'NONE',  ( 3.491481338843133355E-15, -0.000000000000000000, 1.000000000000000000 ) ) ;
#54 = CARTESIAN_POINT ( 'NONE',  ( 0.9650000000000522604, 0.000000000000000000, 15.49999999999999645 ) ) ;
#55 = AXIS2_PLACEMENT_3D ( 'NONE', #170, #174, #235 ) ;
#56 = ORIENTED_EDGE ( 'NONE', *, *, #296, .F. ) ;
#57 = VERTEX_POINT ( 'NONE', #180 ) ;
#58 = ADVANCED_FACE ( 'NONE', ( #64, #279 ), #130, .T. ) ;
#59 = EDGE_CURVE ( 'NONE', #84, #84, #43, .T. ) ;
#60 = CARTESIAN_POINT ( 'NONE',  ( 1.188970965107646327, 0.000000000000000000, 1.190624999999996492 ) ) ;
#61 = ADVANCED_FACE ( 'NONE', ( #387, #169 ), #35, .T. ) ;
#62 = EDGE_LOOP ( 'NONE', ( #163 ) ) ;
#63 = CARTESIAN_POINT ( 'NONE',  ( 4.157044969060107820E-15, 0.000000000000000000, 1.190625000000000711 ) ) ;
#64 = FACE_OUTER_BOUND ( 'NONE', #153, .T. ) ;
#65 = EDGE_LOOP ( 'NONE', ( #185 ) ) ;
#66 = AXIS2_PLACEMENT_3D ( 'NONE', #131, #258, #97 ) ;
#67 = PERSON_AND_ORGANIZATION_ROLE ( 'creator' ) ;
#68 = DIRECTION ( 'NONE',  ( -1.000000000000000000, 0.000000000000000000, 3.493540333564403220E-15 ) ) ;
#69 = SECURITY_CLASSIFICATION ( '', '', #162 ) ;
#70 = DIRECTION ( 'NONE',  ( -1.000000000000000000, 0.000000000000000000, 3.493540333564403220E-15 ) ) ;
#71 = AXIS2_PLACEMENT_3D ( 'NONE', #8, #293, #208 ) ;
#72 = DIRECTION ( 'NONE',  ( 3.491481338843133355E-15, -0.000000000000000000, 1.000000000000000000 ) ) ;
#73 = FACE_OUTER_BOUND ( 'NONE', #164, .T. ) ;
#74 = SHAPE_DEFINITION_REPRESENTATION ( #112, #268 ) ;
#75 = DIRECTION ( 'NONE',  ( 1.000000000000000000, 0.000000000000000000, -3.472662033757527052E-15 ) ) ;
#76 = LOCAL_TIME ( 8, 23, 21.00000000000000000, #121 ) ;
#77 = DIRECTION ( 'NONE',  ( 1.000000000000000000, 0.000000000000000000, 0.000000000000000000 ) ) ;
#78 = CYLINDRICAL_SURFACE ( 'NONE', #143, 1.999999999999997335 ) ;
#79 = FACE_OUTER_BOUND ( 'NONE', #3, .T. ) ;
#80 = CC_DESIGN_PERSON_AND_ORGANIZATION_ASSIGNMENT ( #371, #381, ( #347 ) ) ;
#81 = ORIENTED_EDGE ( 'NONE', *, *, #160, .T. ) ;
#82 = VERTEX_POINT ( 'NONE', #241 ) ;
#83 = CONICAL_SURFACE ( 'NONE', #242, 1.999999999999994893, 0.7853981633974591592 ) ;
#84 = VERTEX_POINT ( 'NONE', #107 ) ;
#85 = ADVANCED_FACE ( 'NONE', ( #110, #325 ), #294, .T. ) ;
#86 = CIRCLE ( 'NONE', #326, 1.800000000000000044 ) ;
#87 = ORIENTED_EDGE ( 'NONE', *, *, #201, .F. ) ;
#88 = DIRECTION ( 'NONE',  ( 3.491481338843133355E-15, -0.000000000000000000, 1.000000000000000000 ) ) ;
#89 = DATE_AND_TIME ( #132, #171 ) ;
#90 = AXIS2_PLACEMENT_3D ( 'NONE', #351, #315, #70 ) ;
#91 =( NAMED_UNIT ( * ) PLANE_ANGLE_UNIT ( ) SI_UNIT ( $, .RADIAN. ) );
#92 = EDGE_LOOP ( 'NONE', ( #34 ) ) ;
#93 = EDGE_LOOP ( 'NONE', ( #7 ) ) ;
#94 = ADVANCED_FACE ( 'NONE', ( #289, #51 ), #297, .F. ) ;
#95 = ORIENTED_EDGE ( 'NONE', *, *, #330, .F. ) ;
#96 = CALENDAR_DATE ( 2023, 28, 9 ) ;
#97 = DIRECTION ( 'NONE',  ( 1.000000000000000000, 0.000000000000000000, -3.854941057726237900E-15 ) ) ;
#98 = MANIFOLD_SOLID_BREP ( 'Corps-Déplacer/Copier1', #338 ) ;
#99 = CARTESIAN_POINT ( 'NONE',  ( 1.920314736363723472E-13, 0.000000000000000000, 55.00000000000000000 ) ) ;
#100 = DIRECTION ( 'NONE',  ( 3.491481338843133355E-15, -0.000000000000000000, 1.000000000000000000 ) ) ;
#101 = COORDINATED_UNIVERSAL_TIME_OFFSET ( 1, 0, .AHEAD. ) ;
#102 = CARTESIAN_POINT ( 'NONE',  ( 6.806407224210704237E-14, 0.000000000000000000, 19.49432508342129111 ) ) ;
#103 = AXIS2_PLACEMENT_3D ( 'NONE', #46, #146, #75 ) ;
#104 = PERSON ( 'UNSPECIFIED', 'UNSPECIFIED', 'UNSPECIFIED', ('UNSPECIFIED'), ('UNSPECIFIED'), ('UNSPECIFIED') ) ;
#105 = DIRECTION ( 'NONE',  ( 1.000000000000000000, 0.000000000000000000, -3.472662033757527052E-15 ) ) ;
#106 = DIRECTION ( 'NONE',  ( -1.000000000000000000, 0.000000000000000000, 3.491481338843133355E-15 ) ) ;
#107 = CARTESIAN_POINT ( 'NONE',  ( 1.800000000000005373, 0.000000000000000000, 1.543402777777772572 ) ) ;
#108 = AXIS2_PLACEMENT_3D ( 'NONE', #114, #328, #357 ) ;
#109 = CONICAL_SURFACE ( 'NONE', #44, 1.800000000000000044, 1.047197551196608512 ) ;
#110 = FACE_OUTER_BOUND ( 'NONE', #251, .T. ) ;
#111 = CC_DESIGN_DATE_AND_TIME_ASSIGNMENT ( #36, #216, ( #69 ) ) ;
#112 = PRODUCT_DEFINITION_SHAPE ( 'NONE', 'NONE',  #128 ) ;
#113 = CARTESIAN_POINT ( 'NONE',  ( 2.000000000000067946, 0.000000000000000000, 19.49432508342128401 ) ) ;
#114 = CARTESIAN_POINT ( 'NONE',  ( 0.000000000000000000, 0.000000000000000000, 0.000000000000000000 ) ) ;
#115 = EDGE_LOOP ( 'NONE', ( #273 ) ) ;
#116 = FACE_OUTER_BOUND ( 'NONE', #342, .T. ) ;
#117 = ORIENTED_EDGE ( 'NONE', *, *, #373, .T. ) ;
#118 = VERTEX_POINT ( 'NONE', #390 ) ;
#119 = CARTESIAN_POINT ( 'NONE',  ( 0.000000000000000000, 0.000000000000000000, 0.000000000000000000 ) ) ;
#120 = EDGE_LOOP ( 'NONE', ( #249 ) ) ;
#121 = COORDINATED_UNIVERSAL_TIME_OFFSET ( 1, 0, .AHEAD. ) ;
#122 = CIRCLE ( 'NONE', #247, 1.188970965107642108 ) ;
#123 = CC_DESIGN_PERSON_AND_ORGANIZATION_ASSIGNMENT ( #166, #196, ( #69 ) ) ;
#124 = ORIENTED_EDGE ( 'NONE', *, *, #373, .F. ) ;
#125 = EDGE_LOOP ( 'NONE', ( #95 ) ) ;
#126 = ADVANCED_FACE ( 'NONE', ( #48, #24 ), #252, .F. ) ;
#127 = EDGE_LOOP ( 'NONE', ( #246 ) ) ;
#128 = PRODUCT_DEFINITION ( 'UNKNOWN', '', #347, #190 ) ;
#129 = DATE_AND_TIME ( #256, #154 ) ;
#130 = CONICAL_SURFACE ( 'NONE', #148, 1.188970965107642108, 1.047197551196599852 ) ;
#131 = CARTESIAN_POINT ( 'NONE',  ( 1.920314736363723472E-13, 0.000000000000000000, 55.00000000000000000 ) ) ;
#132 = CALENDAR_DATE ( 2023, 28, 9 ) ;
#133 = CARTESIAN_POINT ( 'NONE',  ( 4.157044969060107820E-15, 0.000000000000000000, 1.190625000000000711 ) ) ;
#134 = FACE_OUTER_BOUND ( 'NONE', #304, .T. ) ;
#135 = PERSON_AND_ORGANIZATION ( #104, #314 ) ;
#136 = DIRECTION ( 'NONE',  ( 3.491481338843133355E-15, -0.000000000000000000, 1.000000000000000000 ) ) ;
#137 = CARTESIAN_POINT ( 'NONE',  ( 1.920314736363723472E-13, 0.000000000000000000, 55.00000000000000000 ) ) ;
#138 = CC_DESIGN_SECURITY_CLASSIFICATION ( #69, ( #347 ) ) ;
#139 = DIRECTION ( 'NONE',  ( 3.491481338843133355E-15, -0.000000000000000000, 1.000000000000000000 ) ) ;
#140 = DIRECTION ( 'NONE',  ( 3.491481338843133355E-15, -0.000000000000000000, 1.000000000000000000 ) ) ;
#141 = CIRCLE ( 'NONE', #341, 1.599999999999988542 ) ;
#142 = CARTESIAN_POINT ( 'NONE',  ( 1.693610913320783104E-15, 0.000000000000000000, 0.4850694444444442199 ) ) ;
#143 = AXIS2_PLACEMENT_3D ( 'NONE', #336, #4, #204 ) ;
#144 = DIRECTION ( 'NONE',  ( 3.491481338843133355E-15, -0.000000000000000000, 1.000000000000000000 ) ) ;
#145 = APPROVAL ( #245, 'UNSPECIFIED' ) ;
#146 = DIRECTION ( 'NONE',  ( 3.491481338843133355E-15, -0.000000000000000000, 1.000000000000000000 ) ) ;
#147 = CC_DESIGN_APPROVAL ( #145, ( #128 ) ) ;
#148 = AXIS2_PLACEMENT_3D ( 'NONE', #133, #379, #221 ) ;
#149 = AXIS2_PLACEMENT_3D ( 'NONE', #198, #321, #105 ) ;
#150 = DIRECTION ( 'NONE',  ( 3.491481338843133355E-15, -0.000000000000000000, 1.000000000000000000 ) ) ;
#151 = ADVANCED_FACE ( 'NONE', ( #176, #259 ), #392, .T. ) ;
#152 = CARTESIAN_POINT ( 'NONE',  ( 1.800000000000001599, 0.000000000000000000, 0.4850694444444379472 ) ) ;
#153 = EDGE_LOOP ( 'NONE', ( #270 ) ) ;
#154 = LOCAL_TIME ( 8, 23, 21.00000000000000000, #337 ) ;
#155 = FACE_OUTER_BOUND ( 'NONE', #125, .T. ) ;
#156 = ORIENTED_EDGE ( 'NONE', *, *, #59, .T. ) ;
#157 = PERSON_AND_ORGANIZATION ( #104, #314 ) ;
#158 = AXIS2_PLACEMENT_3D ( 'NONE', #384, #47, #288 ) ;
#159 = APPROVAL_ROLE ( '' ) ;
#160 = EDGE_CURVE ( 'NONE', #238, #238, #23, .T. ) ;
#161 = EDGE_LOOP ( 'NONE', ( #250 ) ) ;
#162 = SECURITY_CLASSIFICATION_LEVEL ( 'unclassified' ) ;
#163 = ORIENTED_EDGE ( 'NONE', *, *, #394, .F. ) ;
#164 = EDGE_LOOP ( 'NONE', ( #9 ) ) ;
#165 = LOCAL_TIME ( 8, 23, 21.00000000000000000, #101 ) ;
#166 = PERSON_AND_ORGANIZATION ( #104, #314 ) ;
#167 = PLANE ( 'NONE',  #55 ) ;
#168 = APPROVAL_DATE_TIME ( #228, #203 ) ;
#169 = FACE_BOUND ( 'NONE', #310, .T. ) ;
#170 = CARTESIAN_POINT ( 'NONE',  ( 7.807657573790164235E-34, 0.000000000000000000, 2.236202005987851279E-19 ) ) ;
#171 = LOCAL_TIME ( 8, 23, 21.00000000000000000, #45 ) ;
#172 = FACE_BOUND ( 'NONE', #375, .T. ) ;
#173 = FACE_OUTER_BOUND ( 'NONE', #14, .T. ) ;
#174 = DIRECTION ( 'NONE',  ( 3.491481338843133355E-15, -0.000000000000000000, 1.000000000000000000 ) ) ;
#175 = CARTESIAN_POINT ( 'NONE',  ( 5.696691253897192621E-15, 0.000000000000000000, 1.631597222222225252 ) ) ;
#176 = FACE_OUTER_BOUND ( 'NONE', #362, .T. ) ;
#177 = AXIS2_PLACEMENT_3D ( 'NONE', #262, #213, #181 ) ;
#178 = VERTEX_POINT ( 'NONE', #299 ) ;
#179 = EDGE_LOOP ( 'NONE', ( #56 ) ) ;
#180 = CARTESIAN_POINT ( 'NONE',  ( 2.000000000000185629, 0.000000000000000000, 54.59999999999999432 ) ) ;
#181 = DIRECTION ( 'NONE',  ( 1.000000000000000000, 0.000000000000000000, -5.836049918409088293E-15 ) ) ;
#182 =( NAMED_UNIT ( * ) SI_UNIT ( $, .STERADIAN. ) SOLID_ANGLE_UNIT ( ) );
#183 = ADVANCED_FACE ( 'NONE', ( #173 ), #292, .F. ) ;
#184 = CIRCLE ( 'NONE', #298, 1.188970965107641886 ) ;
#185 = ORIENTED_EDGE ( 'NONE', *, *, #285, .T. ) ;
#186 = APPROVAL_ROLE ( '' ) ;
#187 = PRODUCT_RELATED_PRODUCT_CATEGORY ( 'detail', '', ( #25 ) ) ;
#188 = ADVANCED_FACE ( 'NONE', ( #360, #79 ), #205, .T. ) ;
#189 = ORIENTED_EDGE ( 'NONE', *, *, #311, .T. ) ;
#190 = DESIGN_CONTEXT ( 'detailed design', #40, 'design' ) ;
#191 = AXIS2_PLACEMENT_3D ( 'NONE', #261, #53, #77 ) ;
#192 = EDGE_LOOP ( 'NONE', ( #87 ) ) ;
#193 = CIRCLE ( 'NONE', #378, 1.999999999999994893 ) ;
#194 = FACE_OUTER_BOUND ( 'NONE', #215, .T. ) ;
#195 = APPROVAL_PERSON_ORGANIZATION ( #281, #145, #159 ) ;
#196 = PERSON_AND_ORGANIZATION_ROLE ( 'classification_officer' ) ;
#197 = AXIS2_PLACEMENT_3D ( 'NONE', #27, #263, #391 ) ;
#198 = CARTESIAN_POINT ( 'NONE',  ( 5.502162261818121176E-14, 0.000000000000000000, 15.75881904510251985 ) ) ;
#199 = DIRECTION ( 'NONE',  ( 3.491481338843133355E-15, -0.000000000000000000, 1.000000000000000000 ) ) ;
#200 = EDGE_CURVE ( 'NONE', #303, #303, #306, .T. ) ;
#201 = EDGE_CURVE ( 'NONE', #327, #327, #13, .T. ) ;
#202 = CYLINDRICAL_SURFACE ( 'NONE', #283, 1.188970965107642108 ) ;
#203 = APPROVAL ( #38, 'UNSPECIFIED' ) ;
#204 = DIRECTION ( 'NONE',  ( 1.000000000000000000, 0.000000000000000000, -3.469446951953618922E-15 ) ) ;
#205 = CYLINDRICAL_SURFACE ( 'NONE', #349, 1.800000000000000044 ) ;
#206 = DIRECTION ( 'NONE',  ( 3.491481338843133355E-15, -0.000000000000000000, 1.000000000000000000 ) ) ;
#207 = VERTEX_POINT ( 'NONE', #54 ) ;
#208 = DIRECTION ( 'NONE',  ( 1.000000000000000000, 0.000000000000000000, -3.647531199005679591E-15 ) ) ;
#209 = AXIS2_PLACEMENT_3D ( 'NONE', #102, #348, #355 ) ;
#210 = ORIENTED_EDGE ( 'NONE', *, *, #200, .F. ) ;
#211 = CARTESIAN_POINT ( 'NONE',  ( 1.600000000000180611, 0.000000000000000000, 54.99999999999999289 ) ) ;
#212 = ADVANCED_FACE ( 'NONE', ( #226 ), #167, .F. ) ;
#213 = DIRECTION ( 'NONE',  ( 3.491481338843133355E-15, -0.000000000000000000, 1.000000000000000000 ) ) ;
#214 = CC_DESIGN_PERSON_AND_ORGANIZATION_ASSIGNMENT ( #135, #67, ( #347 ) ) ;
#215 = EDGE_LOOP ( 'NONE', ( #370 ) ) ;
#216 = DATE_TIME_ROLE ( 'classification_date' ) ;
#217 = AXIS2_PLACEMENT_3D ( 'NONE', #324, #150, #50 ) ;
#218 = CIRCLE ( 'NONE', #158, 1.188970965107642108 ) ;
#219 = ADVANCED_FACE ( 'NONE', ( #172, #19 ), #83, .T. ) ;
#220 = ORIENTED_EDGE ( 'NONE', *, *, #296, .T. ) ;
#221 = DIRECTION ( 'NONE',  ( 1.000000000000000000, 0.000000000000000000, -3.465154639055395336E-15 ) ) ;
#222 = ADVANCED_FACE ( 'NONE', ( #26, #345 ), #286, .T. ) ;
#223 = EDGE_LOOP ( 'NONE', ( #210 ) ) ;
#224 = APPROVAL_STATUS ( 'not_yet_approved' ) ;
#225 = EDGE_CURVE ( 'NONE', #295, #295, #290, .T. ) ;
#226 = FACE_OUTER_BOUND ( 'NONE', #223, .T. ) ;
#227 = DIRECTION ( 'NONE',  ( 1.000000000000000000, 0.000000000000000000, 0.000000000000000000 ) ) ;
#228 = DATE_AND_TIME ( #248, #76 ) ;
#229 = APPLICATION_PROTOCOL_DEFINITION ( 'international standard', 'config_control_design', 1994, #22 ) ;
#230 = AXIS2_PLACEMENT_3D ( 'NONE', #291, #139, #42 ) ;
#231 = DIRECTION ( 'NONE',  ( -1.000000000000000000, 0.000000000000000000, 3.469446951953622866E-15 ) ) ;
#232 = DIRECTION ( 'NONE',  ( 1.000000000000000000, 0.000000000000000000, -3.493540333564403220E-15 ) ) ;
#233 = CARTESIAN_POINT ( 'NONE',  ( 0.000000000000000000, 0.000000000000000000, 0.000000000000000000 ) ) ;
#234 = EDGE_CURVE ( 'NONE', #361, #361, #343, .T. ) ;
#235 = DIRECTION ( 'NONE',  ( 1.000000000000000000, 0.000000000000000000, -3.491481338843133355E-15 ) ) ;
#236 = CARTESIAN_POINT ( 'NONE',  ( 0.9650000000000072964, 0.000000000000000000, 2.116666666666659147 ) ) ;
#237 = AXIS2_PLACEMENT_3D ( 'NONE', #29, #140, #354 ) ;
#238 = VERTEX_POINT ( 'NONE', #236 ) ;
#239 = FACE_OUTER_BOUND ( 'NONE', #62, .T. ) ;
#240 = ORIENTED_EDGE ( 'NONE', *, *, #287, .F. ) ;
#241 = CARTESIAN_POINT ( 'NONE',  ( 1.188970965107649436, 0.000000000000000000, 2.116666666666658259 ) ) ;
#242 = AXIS2_PLACEMENT_3D ( 'NONE', #377, #17, #231 ) ;
#243 = ADVANCED_FACE ( 'NONE', ( #353, #134 ), #109, .T. ) ;
#244 = DIRECTION ( 'NONE',  ( 1.000000000000000000, 0.000000000000000000, -3.465154639055395336E-15 ) ) ;
#245 = APPROVAL_STATUS ( 'not_yet_approved' ) ;
#246 = ORIENTED_EDGE ( 'NONE', *, *, #160, .F. ) ;
#247 = AXIS2_PLACEMENT_3D ( 'NONE', #63, #363, #244 ) ;
#248 = CALENDAR_DATE ( 2023, 28, 9 ) ;
#249 = ORIENTED_EDGE ( 'NONE', *, *, #2, .F. ) ;
#250 = ORIENTED_EDGE ( 'NONE', *, *, #394, .T. ) ;
#251 = EDGE_LOOP ( 'NONE', ( #12 ) ) ;
#252 = TOROIDAL_SURFACE ( 'NONE', #237, 1.964999999999998082, 1.000000000000000444 ) ;
#253 = APPROVAL_DATE_TIME ( #129, #145 ) ;
#254 = APPLICATION_PROTOCOL_DEFINITION ( 'international standard', 'config_control_design', 1994, #40 ) ;
#255 = CARTESIAN_POINT ( 'NONE',  ( 5.696691253897192621E-15, 0.000000000000000000, 1.631597222222225252 ) ) ;
#256 = CALENDAR_DATE ( 2023, 28, 9 ) ;
#257 = DIRECTION ( 'NONE',  ( 1.000000000000000000, 0.000000000000000000, -3.595281815495979715E-15 ) ) ;
#258 = DIRECTION ( 'NONE',  ( 3.491481338843133355E-15, -0.000000000000000000, 1.000000000000000000 ) ) ;
#259 = FACE_BOUND ( 'NONE', #115, .T. ) ;
#260 = DIRECTION ( 'NONE',  ( 1.000000000000000000, 0.000000000000000000, -3.493540333564403220E-15 ) ) ;
#261 = CARTESIAN_POINT ( 'NONE',  ( 1.920314736363723472E-13, 0.000000000000000000, 55.00000000000000000 ) ) ;
#262 = CARTESIAN_POINT ( 'NONE',  ( 1.920314736363723472E-13, 0.000000000000000000, 55.00000000000000000 ) ) ;
#263 = DIRECTION ( 'NONE',  ( -3.491481338843133355E-15, 0.000000000000000000, -1.000000000000000000 ) ) ;
#264 = CARTESIAN_POINT ( 'NONE',  ( 5.388761996929770770E-15, 0.000000000000000000, 1.543402777777779011 ) ) ;
#265 = CARTESIAN_POINT ( 'NONE',  ( 1.906348811008350938E-13, 0.000000000000000000, 54.60000000000000142 ) ) ;
#266 = DIRECTION ( 'NONE',  ( -3.491481338843133355E-15, 0.000000000000000000, -1.000000000000000000 ) ) ;
#267 = DIRECTION ( 'NONE',  ( 1.000000000000000000, 0.000000000000000000, -4.336808689942048502E-15 ) ) ;
#268 = ADVANCED_BREP_SHAPE_REPRESENTATION ( '961052', ( #98, #364 ), #282 ) ;
#269 = ORIENTED_EDGE ( 'NONE', *, *, #200, .T. ) ;
#270 = ORIENTED_EDGE ( 'NONE', *, *, #59, .F. ) ;
#271 = FACE_OUTER_BOUND ( 'NONE', #92, .T. ) ;
#272 = AXIS2_PLACEMENT_3D ( 'NONE', #264, #206, #232 ) ;
#273 = ORIENTED_EDGE ( 'NONE', *, *, #234, .T. ) ;
#274 = PERSON_AND_ORGANIZATION_ROLE ( 'design_owner' ) ;
#275 = ADVANCED_FACE ( 'NONE', ( #319, #194 ), #317, .T. ) ;
#276 = EDGE_LOOP ( 'NONE', ( #333 ) ) ;
#277 = EDGE_LOOP ( 'NONE', ( #189 ) ) ;
#278 = DIRECTION ( 'NONE',  ( 1.000000000000000000, 0.000000000000000000, -3.465154639055396125E-15 ) ) ;
#279 = FACE_BOUND ( 'NONE', #161, .T. ) ;
#280 = ADVANCED_FACE ( 'NONE', ( #73, #21 ), #202, .T. ) ;
#281 = PERSON_AND_ORGANIZATION ( #104, #314 ) ;
#282 =( GEOMETRIC_REPRESENTATION_CONTEXT ( 3 ) GLOBAL_UNCERTAINTY_ASSIGNED_CONTEXT ( ( #37 ) ) GLOBAL_UNIT_ASSIGNED_CONTEXT ( ( #318, #91, #182 ) ) REPRESENTATION_CONTEXT ( 'NONE', 'WORKASPACE' ) );
#283 = AXIS2_PLACEMENT_3D ( 'NONE', #137, #100, #323 ) ;
#284 = DIRECTION ( 'NONE',  ( 0.000000000000000000, 0.000000000000000000, 1.000000000000000000 ) ) ;
#285 = EDGE_CURVE ( 'NONE', #207, #207, #339, .T. ) ;
#286 = CYLINDRICAL_SURFACE ( 'NONE', #66, 1.800000000000000044 ) ;
#287 = EDGE_CURVE ( 'NONE', #178, #178, #218, .T. ) ;
#288 = DIRECTION ( 'NONE',  ( 1.000000000000000000, 0.000000000000000000, -3.647531199005679591E-15 ) ) ;
#289 = FACE_BOUND ( 'NONE', #127, .T. ) ;
#290 = CIRCLE ( 'NONE', #209, 2.000000000000000000 ) ;
#291 = CARTESIAN_POINT ( 'NONE',  ( 2.001540170288204956E-15, 0.000000000000000000, 0.5732638888888905715 ) ) ;
#292 = PLANE ( 'NONE',  #197 ) ;
#293 = DIRECTION ( 'NONE',  ( 3.491481338843133355E-15, -0.000000000000000000, 1.000000000000000000 ) ) ;
#294 = CYLINDRICAL_SURFACE ( 'NONE', #191, 0.9649999999999990807 ) ;
#295 = VERTEX_POINT ( 'NONE', #113 ) ;
#296 = EDGE_CURVE ( 'NONE', #32, #32, #86, .T. ) ;
#297 = PLANE ( 'NONE',  #358 ) ;
#298 = AXIS2_PLACEMENT_3D ( 'NONE', #41, #372, #278 ) ;
#299 = CARTESIAN_POINT ( 'NONE',  ( 1.188970965107648992, 0.000000000000000000, 1.984374999999992228 ) ) ;
#300 = ORIENTED_EDGE ( 'NONE', *, *, #225, .F. ) ;
#301 = VERTEX_POINT ( 'NONE', #211 ) ;
#302 = EDGE_LOOP ( 'NONE', ( #374 ) ) ;
#303 = VERTEX_POINT ( 'NONE', #359 ) ;
#304 = EDGE_LOOP ( 'NONE', ( #366 ) ) ;
#305 = COORDINATED_UNIVERSAL_TIME_OFFSET ( 1, 0, .AHEAD. ) ;
#306 = CIRCLE ( 'NONE', #331, 0.9598350770230098528 ) ;
#307 = PERSON_AND_ORGANIZATION ( #104, #314 ) ;
#308 = APPROVAL_PERSON_ORGANIZATION ( #368, #322, #186 ) ;
#309 = EDGE_LOOP ( 'NONE', ( #220 ) ) ;
#310 = EDGE_LOOP ( 'NONE', ( #269 ) ) ;
#311 = EDGE_CURVE ( 'NONE', #82, #82, #352, .T. ) ;
#312 = CC_DESIGN_PERSON_AND_ORGANIZATION_ASSIGNMENT ( #157, #274, ( #25 ) ) ;
#313 = MECHANICAL_CONTEXT ( 'NONE', #22, 'mechanical' ) ;
#314 = ORGANIZATION ( 'UNSPECIFIED', 'UNSPECIFIED', '' ) ;
#315 = DIRECTION ( 'NONE',  ( -3.491481338843133355E-15, 0.000000000000000000, -1.000000000000000000 ) ) ;
#316 = ADVANCED_FACE ( 'NONE', ( #155, #271 ), #78, .T. ) ;
#317 = CONICAL_SURFACE ( 'NONE', #90, 1.800000000000000044, 1.047197551196600074 ) ;
#318 =( LENGTH_UNIT ( ) NAMED_UNIT ( * ) SI_UNIT ( .MILLI., .METRE. ) );
#319 = FACE_BOUND ( 'NONE', #120, .T. ) ;
#320 = DIRECTION ( 'NONE',  ( 1.000000000000000000, 0.000000000000000000, -3.854941057726237900E-15 ) ) ;
#321 = DIRECTION ( 'NONE',  ( 3.491481338843133355E-15, -0.000000000000000000, 1.000000000000000000 ) ) ;
#322 = APPROVAL ( #224, 'UNSPECIFIED' ) ;
#323 = DIRECTION ( 'NONE',  ( 1.000000000000000000, 0.000000000000000000, -5.836049918409087504E-15 ) ) ;
#324 = CARTESIAN_POINT ( 'NONE',  ( 7.390302167217950877E-15, 0.000000000000000000, 2.116666666666662699 ) ) ;
#325 = FACE_OUTER_BOUND ( 'NONE', #39, .T. ) ;
#326 = AXIS2_PLACEMENT_3D ( 'NONE', #142, #388, #260 ) ;
#327 = VERTEX_POINT ( 'NONE', #395 ) ;
#328 = DIRECTION ( 'NONE',  ( 3.491481338843133355E-15, -0.000000000000000000, 1.000000000000000000 ) ) ;
#329 = CYLINDRICAL_SURFACE ( 'NONE', #177, 1.188970965107641886 ) ;
#330 = EDGE_CURVE ( 'NONE', #57, #57, #193, .T. ) ;
#331 = AXIS2_PLACEMENT_3D ( 'NONE', #233, #199, #385 ) ;
#332 = CARTESIAN_POINT ( 'NONE',  ( 0.9990741737109837262, 0.000000000000000000, 15.75881904510251630 ) ) ;
#333 = ORIENTED_EDGE ( 'NONE', *, *, #234, .F. ) ;
#334 = VERTEX_POINT ( 'NONE', #60 ) ;
#335 = EDGE_LOOP ( 'NONE', ( #240 ) ) ;
#336 = CARTESIAN_POINT ( 'NONE',  ( 1.920314736363723472E-13, 0.000000000000000000, 55.00000000000000000 ) ) ;
#337 = COORDINATED_UNIVERSAL_TIME_OFFSET ( 1, 0, .AHEAD. ) ;
#338 = CLOSED_SHELL ( 'NONE', ( #212, #61, #222, #275, #386, #58, #188, #243, #280, #94, #85, #126, #151, #316, #219, #183 ) ) ;
#339 = CIRCLE ( 'NONE', #393, 0.9649999999999981926 ) ;
#340 = ORIENTED_EDGE ( 'NONE', *, *, #2, .T. ) ;
#341 = AXIS2_PLACEMENT_3D ( 'NONE', #28, #144, #267 ) ;
#342 = EDGE_LOOP ( 'NONE', ( #340 ) ) ;
#343 = CIRCLE ( 'NONE', #149, 0.9990741737109286591 ) ;
#344 = APPROVAL_DATE_TIME ( #89, #322 ) ;
#345 = FACE_OUTER_BOUND ( 'NONE', #309, .T. ) ;
#346 = DATE_TIME_ROLE ( 'creation_date' ) ;
#347 = PRODUCT_DEFINITION_FORMATION_WITH_SPECIFIED_SOURCE ( 'ANY', '', #25, .NOT_KNOWN. ) ;
#348 = DIRECTION ( 'NONE',  ( 3.491481338843133355E-15, -0.000000000000000000, 1.000000000000000000 ) ) ;
#349 = AXIS2_PLACEMENT_3D ( 'NONE', #99, #136, #320 ) ;
#350 = CALENDAR_DATE ( 2023, 28, 9 ) ;
#351 = CARTESIAN_POINT ( 'NONE',  ( 2.001540170288204956E-15, 0.000000000000000000, 0.5732638888888905715 ) ) ;
#352 = CIRCLE ( 'NONE', #71, 1.188970965107642108 ) ;
#353 = FACE_BOUND ( 'NONE', #335, .T. ) ;
#354 = DIRECTION ( 'NONE',  ( 1.000000000000000000, 0.000000000000000000, -3.491481338843133355E-15 ) ) ;
#355 = DIRECTION ( 'NONE',  ( 1.000000000000000000, 0.000000000000000000, -3.469446951953614189E-15 ) ) ;
#356 = CIRCLE ( 'NONE', #369, 1.800000000000000044 ) ;
#357 = DIRECTION ( 'NONE',  ( 1.000000000000000000, 0.000000000000000000, -3.491481338843133355E-15 ) ) ;
#358 = AXIS2_PLACEMENT_3D ( 'NONE', #1, #266, #106 ) ;
#359 = CARTESIAN_POINT ( 'NONE',  ( 0.9598350770230098528, 0.000000000000000000, -3.351246259792900403E-15 ) ) ;
#360 = FACE_OUTER_BOUND ( 'NONE', #10, .T. ) ;
#361 = VERTEX_POINT ( 'NONE', #332 ) ;
#362 = EDGE_LOOP ( 'NONE', ( #300 ) ) ;
#363 = DIRECTION ( 'NONE',  ( 3.491481338843133355E-15, -0.000000000000000000, 1.000000000000000000 ) ) ;
#364 = AXIS2_PLACEMENT_3D ( 'NONE', #119, #284, #227 ) ;
#365 = CARTESIAN_POINT ( 'NONE',  ( 1.800000000000005596, 0.000000000000000000, 1.631597222222219035 ) ) ;
#366 = ORIENTED_EDGE ( 'NONE', *, *, #383, .T. ) ;
#367 = DIRECTION ( 'NONE',  ( 1.000000000000000000, 0.000000000000000000, -3.469446951953622866E-15 ) ) ;
#368 = PERSON_AND_ORGANIZATION ( #104, #314 ) ;
#369 = AXIS2_PLACEMENT_3D ( 'NONE', #175, #88, #30 ) ;
#370 = ORIENTED_EDGE ( 'NONE', *, *, #201, .T. ) ;
#371 = PERSON_AND_ORGANIZATION ( #104, #314 ) ;
#372 = DIRECTION ( 'NONE',  ( 3.491481338843133355E-15, -0.000000000000000000, 1.000000000000000000 ) ) ;
#373 = EDGE_CURVE ( 'NONE', #301, #301, #141, .T. ) ;
#374 = ORIENTED_EDGE ( 'NONE', *, *, #287, .T. ) ;
#375 = EDGE_LOOP ( 'NONE', ( #124 ) ) ;
#376 = DATE_AND_TIME ( #96, #16 ) ;
#377 = CARTESIAN_POINT ( 'NONE',  ( 1.906348811008350938E-13, 0.000000000000000000, 54.60000000000000142 ) ) ;
#378 = AXIS2_PLACEMENT_3D ( 'NONE', #265, #52, #367 ) ;
#379 = DIRECTION ( 'NONE',  ( 3.491481338843133355E-15, -0.000000000000000000, 1.000000000000000000 ) ) ;
#380 = DIRECTION ( 'NONE',  ( -3.491481338843133355E-15, 0.000000000000000000, -1.000000000000000000 ) ) ;
#381 = PERSON_AND_ORGANIZATION_ROLE ( 'design_supplier' ) ;
#382 = CC_DESIGN_APPROVAL ( #203, ( #69 ) ) ;
#383 = EDGE_CURVE ( 'NONE', #33, #33, #356, .T. ) ;
#384 = CARTESIAN_POINT ( 'NONE',  ( 6.928408281766831116E-15, 0.000000000000000000, 1.984374999999996447 ) ) ;
#385 = DIRECTION ( 'NONE',  ( 1.000000000000000000, 0.000000000000000000, -3.491481338843133355E-15 ) ) ;
#386 = ADVANCED_FACE ( 'NONE', ( #239, #116 ), #329, .T. ) ;
#387 = FACE_OUTER_BOUND ( 'NONE', #179, .T. ) ;
#388 = DIRECTION ( 'NONE',  ( 3.491481338843133355E-15, -0.000000000000000000, 1.000000000000000000 ) ) ;
#389 = CC_DESIGN_PERSON_AND_ORGANIZATION_ASSIGNMENT ( #20, #18, ( #128 ) ) ;
#390 = CARTESIAN_POINT ( 'NONE',  ( 1.188970965107645217, 0.000000000000000000, 0.9260416666666646535 ) ) ;
#391 = DIRECTION ( 'NONE',  ( -1.000000000000000000, 0.000000000000000000, 3.491481338843133355E-15 ) ) ;
#392 = CONICAL_SURFACE ( 'NONE', #103, 0.9990741737109286591, 0.2617993877991429685 ) ;
#393 = AXIS2_PLACEMENT_3D ( 'NONE', #49, #72, #257 ) ;
#394 = EDGE_CURVE ( 'NONE', #334, #334, #122, .T. ) ;
#395 = CARTESIAN_POINT ( 'NONE',  ( 1.800000000000001821, 0.000000000000000000, 0.5732638888888842432 ) ) ;
ENDSEC;
END-ISO-10303-21;
