ISO-10303-21;
HEADER;
FILE_DESCRIPTION (( 'STEP AP203' ),
    '1' );
FILE_NAME ('961020.step',
    '2023-09-28T06:23:21',
    ( '' ),
    ( '' ),
    'SwSTEP 2.0',
    'SolidWorks 2022',
    '' );
FILE_SCHEMA (( 'CONFIG_CONTROL_DESIGN' ));
ENDSEC;

DATA;
#1 = DIRECTION ( 'NONE',  ( 1.000000000000000000, 0.000000000000000000, -3.546413154928403574E-15 ) ) ;
#2 = DIRECTION ( 'NONE',  ( 3.491481338843133355E-15, -0.000000000000000000, 1.000000000000000000 ) ) ;
#3 = CARTESIAN_POINT ( 'NONE',  ( 4.768951180661061278E-14, 0.000000000000000000, 13.65881904510251488 ) ) ;
#4 = AXIS2_PLACEMENT_3D ( 'NONE', #300, #145, #266 ) ;
#5 = LOCAL_TIME ( 8, 23, 21.00000000000000000, #280 ) ;
#6 = DATE_AND_TIME ( #151, #277 ) ;
#7 = DIRECTION ( 'NONE',  ( 3.491481338843133355E-15, -0.000000000000000000, 1.000000000000000000 ) ) ;
#8 = ORIENTED_EDGE ( 'NONE', *, *, #253, .T. ) ;
#9 = PERSON_AND_ORGANIZATION_ROLE ( 'classification_officer' ) ;
#10 = FACE_OUTER_BOUND ( 'NONE', #47, .T. ) ;
#11 = FACE_BOUND ( 'NONE', #195, .T. ) ;
#12 = CARTESIAN_POINT ( 'NONE',  ( 4.041571497697321767E-15, 0.000000000000000000, 1.157552083333332593 ) ) ;
#13 = ADVANCED_BREP_SHAPE_REPRESENTATION ( '961020', ( #310, #224 ), #320 ) ;
#14 = APPLICATION_CONTEXT ( 'configuration controlled 3d designs of mechanical parts and assemblies' ) ;
#15 = DIRECTION ( 'NONE',  ( -3.491481338843133355E-15, 0.000000000000000000, -1.000000000000000000 ) ) ;
#16 = APPROVAL ( #272, 'UNSPECIFIED' ) ;
#17 = ADVANCED_FACE ( 'NONE', ( #11, #169 ), #373, .T. ) ;
#18 = AXIS2_PLACEMENT_3D ( 'NONE', #326, #208, #303 ) ;
#19 = AXIS2_PLACEMENT_3D ( 'NONE', #53, #111, #233 ) ;
#20 = AXIS2_PLACEMENT_3D ( 'NONE', #3, #103, #340 ) ;
#21 = ORIENTED_EDGE ( 'NONE', *, *, #187, .F. ) ;
#22 = VERTEX_POINT ( 'NONE', #302 ) ;
#23 = CARTESIAN_POINT ( 'NONE',  ( 4.272518440422894663E-15, 0.000000000000000000, 1.223697916666668828 ) ) ;
#24 = DIRECTION ( 'NONE',  ( 3.491481338843133355E-15, -0.000000000000000000, 1.000000000000000000 ) ) ;
#25 = CARTESIAN_POINT ( 'NONE',  ( 2.000000000000060396, 0.000000000000000000, 17.30102381323205663 ) ) ;
#26 = CONICAL_SURFACE ( 'NONE', #18, 1.161728223830732043, 1.047197551196602294 ) ;
#27 = ORGANIZATION ( 'UNSPECIFIED', 'UNSPECIFIED', '' ) ;
#28 = DIRECTION ( 'NONE',  ( 1.000000000000000000, 0.000000000000000000, -3.480155121558409139E-15 ) ) ;
#29 = CARTESIAN_POINT ( 'NONE',  ( 1.024074173710976199, 0.000000000000000000, 13.65881904510251132 ) ) ;
#30 = DIRECTION ( 'NONE',  ( 1.000000000000000000, 0.000000000000000000, -4.283267841918042199E-15 ) ) ;
#31 = COORDINATED_UNIVERSAL_TIME_OFFSET ( 1, 0, .AHEAD. ) ;
#32 = FACE_OUTER_BOUND ( 'NONE', #292, .T. ) ;
#33 = FACE_OUTER_BOUND ( 'NONE', #323, .T. ) ;
#34 = AXIS2_PLACEMENT_3D ( 'NONE', #338, #123, #246 ) ;
#35 = PERSON_AND_ORGANIZATION_ROLE ( 'creator' ) ;
#36 = CYLINDRICAL_SURFACE ( 'NONE', #372, 0.9899999999999991029 ) ;
#37 = APPROVAL_DATE_TIME ( #69, #16 ) ;
#38 = DIRECTION ( 'NONE',  ( 1.000000000000000000, 0.000000000000000000, -3.387886386570428174E-15 ) ) ;
#39 = CARTESIAN_POINT ( 'NONE',  ( 1.906348811008350938E-13, 0.000000000000000000, 54.60000000000000142 ) ) ;
#40 = CIRCLE ( 'NONE', #220, 1.620000000000000107 ) ;
#41 = CIRCLE ( 'NONE', #110, 2.000000000000000000 ) ;
#42 = ORIENTED_EDGE ( 'NONE', *, *, #140, .F. ) ;
#43 = SECURITY_CLASSIFICATION_LEVEL ( 'unclassified' ) ;
#44 = DIRECTION ( 'NONE',  ( 1.000000000000000000, 0.000000000000000000, -3.469446951953614189E-15 ) ) ;
#45 = EDGE_LOOP ( 'NONE', ( #73 ) ) ;
#46 = FACE_OUTER_BOUND ( 'NONE', #349, .T. ) ;
#47 = EDGE_LOOP ( 'NONE', ( #312 ) ) ;
#48 = CC_DESIGN_DATE_AND_TIME_ASSIGNMENT ( #243, #93, ( #168 ) ) ;
#49 = ADVANCED_FACE ( 'NONE', ( #131, #371 ), #335, .T. ) ;
#50 = EDGE_LOOP ( 'NONE', ( #161 ) ) ;
#51 = ORIENTED_EDGE ( 'NONE', *, *, #76, .T. ) ;
#52 = COORDINATED_UNIVERSAL_TIME_OFFSET ( 1, 0, .AHEAD. ) ;
#53 = CARTESIAN_POINT ( 'NONE',  ( 4.678584994049799958E-14, 0.000000000000000000, 13.40000000000000213 ) ) ;
#54 = FACE_BOUND ( 'NONE', #226, .T. ) ;
#55 = CIRCLE ( 'NONE', #19, 0.9899999999999984368 ) ;
#56 = FACE_OUTER_BOUND ( 'NONE', #381, .T. ) ;
#57 = ADVANCED_FACE ( 'NONE', ( #387 ), #263, .F. ) ;
#58 = CARTESIAN_POINT ( 'NONE',  ( 1.906348811008350938E-13, 0.000000000000000000, 54.60000000000000142 ) ) ;
#59 = ADVANCED_FACE ( 'NONE', ( #173, #32 ), #271, .T. ) ;
#60 = ORIENTED_EDGE ( 'NONE', *, *, #187, .T. ) ;
#61 = FACE_OUTER_BOUND ( 'NONE', #45, .T. ) ;
#62 = COORDINATED_UNIVERSAL_TIME_OFFSET ( 1, 0, .AHEAD. ) ;
#63 = CARTESIAN_POINT ( 'NONE',  ( 1.161728223830737150, 0.000000000000000000, 1.488281249999996669 ) ) ;
#64 = CIRCLE ( 'NONE', #286, 1.619999999999999662 ) ;
#65 = EDGE_LOOP ( 'NONE', ( #42 ) ) ;
#66 = CARTESIAN_POINT ( 'NONE',  ( 1.920314736363723472E-13, 0.000000000000000000, 55.00000000000000000 ) ) ;
#67 = FACE_OUTER_BOUND ( 'NONE', #319, .T. ) ;
#68 = PRODUCT_DEFINITION_SHAPE ( 'NONE', 'NONE',  #168 ) ;
#69 = DATE_AND_TIME ( #304, #5 ) ;
#70 = CARTESIAN_POINT ( 'NONE',  ( 1.920314736363723472E-13, 0.000000000000000000, 55.00000000000000000 ) ) ;
#71 = CIRCLE ( 'NONE', #288, 1.161728223830732043 ) ;
#72 = AXIS2_PLACEMENT_3D ( 'NONE', #12, #275, #121 ) ;
#73 = ORIENTED_EDGE ( 'NONE', *, *, #348, .T. ) ;
#74 = DIRECTION ( 'NONE',  ( 3.491481338843133355E-15, -0.000000000000000000, 1.000000000000000000 ) ) ;
#75 = CC_DESIGN_PERSON_AND_ORGANIZATION_ASSIGNMENT ( #96, #35, ( #117 ) ) ;
#76 = EDGE_CURVE ( 'NONE', #334, #334, #82, .T. ) ;
#77 = ORIENTED_EDGE ( 'NONE', *, *, #158, .F. ) ;
#78 = AXIS2_PLACEMENT_3D ( 'NONE', #58, #355, #359 ) ;
#79 = APPROVAL_PERSON_ORGANIZATION ( #200, #377, #175 ) ;
#80 = EDGE_LOOP ( 'NONE', ( #128 ) ) ;
#81 = EDGE_LOOP ( 'NONE', ( #249 ) ) ;
#82 = CIRCLE ( 'NONE', #306, 1.161728223830732043 ) ;
#83 = PERSON_AND_ORGANIZATION_ROLE ( 'creator' ) ;
#84 = CARTESIAN_POINT ( 'NONE',  ( 1.501155127716147307E-15, 0.000000000000000000, 0.4299479166666661523 ) ) ;
#85 = DIRECTION ( 'NONE',  ( 1.000000000000000000, 0.000000000000000000, -3.491481338843133355E-15 ) ) ;
#86 = VERTEX_POINT ( 'NONE', #353 ) ;
#87 = CARTESIAN_POINT ( 'NONE',  ( 1.920314736363723472E-13, 0.000000000000000000, 55.00000000000000000 ) ) ;
#88 =( NAMED_UNIT ( * ) PLANE_ANGLE_UNIT ( ) SI_UNIT ( $, .RADIAN. ) );
#89 = AXIS2_PLACEMENT_3D ( 'NONE', #84, #207, #28 ) ;
#90 = CC_DESIGN_PERSON_AND_ORGANIZATION_ASSIGNMENT ( #380, #139, ( #365 ) ) ;
#91 = DIRECTION ( 'NONE',  ( 3.491481338843133355E-15, -0.000000000000000000, 1.000000000000000000 ) ) ;
#92 = CARTESIAN_POINT ( 'NONE',  ( 5.196306211325134973E-15, 0.000000000000000000, 1.488281250000000888 ) ) ;
#93 = DATE_TIME_ROLE ( 'creation_date' ) ;
#94 = FACE_OUTER_BOUND ( 'NONE', #287, .T. ) ;
#95 = EDGE_LOOP ( 'NONE', ( #290 ) ) ;
#96 = PERSON_AND_ORGANIZATION ( #229, #27 ) ;
#97 = VERTEX_POINT ( 'NONE', #164 ) ;
#98 = DIRECTION ( 'NONE',  ( 3.491481338843133355E-15, -0.000000000000000000, 1.000000000000000000 ) ) ;
#99 = APPROVAL_DATE_TIME ( #366, #102 ) ;
#100 = CARTESIAN_POINT ( 'NONE',  ( 4.768951180661061278E-14, 0.000000000000000000, 13.65881904510251488 ) ) ;
#101 = EDGE_LOOP ( 'NONE', ( #219 ) ) ;
#102 = APPROVAL ( #149, 'UNSPECIFIED' ) ;
#103 = DIRECTION ( 'NONE',  ( 3.491481338843133355E-15, -0.000000000000000000, 1.000000000000000000 ) ) ;
#104 = ORIENTED_EDGE ( 'NONE', *, *, #76, .F. ) ;
#105 = EDGE_LOOP ( 'NONE', ( #259 ) ) ;
#106 = EDGE_LOOP ( 'NONE', ( #166 ) ) ;
#107 = APPROVAL_DATE_TIME ( #236, #377 ) ;
#108 = ADVANCED_FACE ( 'NONE', ( #242, #356 ), #241, .T. ) ;
#109 = ORIENTED_EDGE ( 'NONE', *, *, #129, .F. ) ;
#110 = AXIS2_PLACEMENT_3D ( 'NONE', #153, #185, #44 ) ;
#111 = DIRECTION ( 'NONE',  ( 3.491481338843133355E-15, -0.000000000000000000, 1.000000000000000000 ) ) ;
#112 = APPROVAL_STATUS ( 'not_yet_approved' ) ;
#113 = DIRECTION ( 'NONE',  ( 3.491481338843133355E-15, -0.000000000000000000, 1.000000000000000000 ) ) ;
#114 = DIRECTION ( 'NONE',  ( 1.000000000000000000, 0.000000000000000000, 0.000000000000000000 ) ) ;
#115 = FACE_OUTER_BOUND ( 'NONE', #342, .T. ) ;
#116 = CARTESIAN_POINT ( 'NONE',  ( 1.161728223830734485, 0.000000000000000000, 0.6945312499999940492 ) ) ;
#117 = PRODUCT_DEFINITION_FORMATION_WITH_SPECIFIED_SOURCE ( 'ANY', '', #365, .NOT_KNOWN. ) ;
#118 = CARTESIAN_POINT ( 'NONE',  ( 3.117783726795081063E-15, 0.000000000000000000, 0.8929687500000005329 ) ) ;
#119 = CARTESIAN_POINT ( 'NONE',  ( 1.920314736363723472E-13, 0.000000000000000000, 55.00000000000000000 ) ) ;
#120 = PERSON_AND_ORGANIZATION ( #229, #27 ) ;
#121 = DIRECTION ( 'NONE',  ( 1.000000000000000000, 0.000000000000000000, -3.480155121558409533E-15 ) ) ;
#122 = CALENDAR_DATE ( 2023, 28, 9 ) ;
#123 = DIRECTION ( 'NONE',  ( -3.491481338843133355E-15, 0.000000000000000000, -1.000000000000000000 ) ) ;
#124 = LOCAL_TIME ( 8, 23, 21.00000000000000000, #31 ) ;
#125 = APPROVAL_ROLE ( '' ) ;
#126 = FACE_OUTER_BOUND ( 'NONE', #317, .T. ) ;
#127 = EDGE_CURVE ( 'NONE', #97, #97, #40, .T. ) ;
#128 = ORIENTED_EDGE ( 'NONE', *, *, #212, .T. ) ;
#129 = EDGE_CURVE ( 'NONE', #227, #227, #214, .T. ) ;
#130 = DIRECTION ( 'NONE',  ( 3.491481338843133355E-15, -0.000000000000000000, 1.000000000000000000 ) ) ;
#131 = FACE_OUTER_BOUND ( 'NONE', #95, .T. ) ;
#132 = CARTESIAN_POINT ( 'NONE',  ( 1.920314736363723472E-13, 1.599999999999988542, 55.00000000000000000 ) ) ;
#133 = DIRECTION ( 'NONE',  ( 3.491481338843133355E-15, -0.000000000000000000, 1.000000000000000000 ) ) ;
#134 = AXIS2_PLACEMENT_3D ( 'NONE', #148, #305, #176 ) ;
#135 = CC_DESIGN_APPROVAL ( #102, ( #174 ) ) ;
#136 = ORIENTED_EDGE ( 'NONE', *, *, #129, .T. ) ;
#137 = ADVANCED_FACE ( 'NONE', ( #333, #54 ), #26, .T. ) ;
#138 = DESIGN_CONTEXT ( 'detailed design', #376, 'design' ) ;
#139 = PERSON_AND_ORGANIZATION_ROLE ( 'design_owner' ) ;
#140 = EDGE_CURVE ( 'NONE', #232, #232, #256, .T. ) ;
#141 = DIRECTION ( 'NONE',  ( -1.000000000000000000, 0.000000000000000000, 3.480155121558409927E-15 ) ) ;
#142 = DIRECTION ( 'NONE',  ( 1.000000000000000000, 0.000000000000000000, -3.453086492956603449E-15 ) ) ;
#143 = CIRCLE ( 'NONE', #72, 1.619999999999999885 ) ;
#144 = CARTESIAN_POINT ( 'NONE',  ( 0.9900000000000452882, 0.000000000000000000, 13.39999999999999858 ) ) ;
#145 = DIRECTION ( 'NONE',  ( 3.491481338843133355E-15, -0.000000000000000000, 1.000000000000000000 ) ) ;
#146 =( NAMED_UNIT ( * ) SI_UNIT ( $, .STERADIAN. ) SOLID_ANGLE_UNIT ( ) );
#147 = CARTESIAN_POINT ( 'NONE',  ( 0.000000000000000000, 0.000000000000000000, 0.000000000000000000 ) ) ;
#148 = CARTESIAN_POINT ( 'NONE',  ( 5.542726625413474202E-15, 1.161728223830732043, 1.587499999999999911 ) ) ;
#149 = APPROVAL_STATUS ( 'not_yet_approved' ) ;
#150 = AXIS2_PLACEMENT_3D ( 'NONE', #230, #133, #270 ) ;
#151 = CALENDAR_DATE ( 2023, 28, 9 ) ;
#152 = ADVANCED_FACE ( 'NONE', ( #329, #61 ), #341, .T. ) ;
#153 = CARTESIAN_POINT ( 'NONE',  ( 6.040620178678040836E-14, 0.000000000000000000, 17.30102381323206373 ) ) ;
#154 = CYLINDRICAL_SURFACE ( 'NONE', #257, 1.619999999999999885 ) ;
#155 = AXIS2_PLACEMENT_3D ( 'NONE', #118, #91, #142 ) ;
#156 = DIRECTION ( 'NONE',  ( 1.000000000000000000, 0.000000000000000000, -4.283267841918042199E-15 ) ) ;
#157 = CIRCLE ( 'NONE', #20, 1.024074173710928459 ) ;
#158 = EDGE_CURVE ( 'NONE', #295, #295, #297, .T. ) ;
#159 = ORIENTED_EDGE ( 'NONE', *, *, #210, .F. ) ;
#160 = CYLINDRICAL_SURFACE ( 'NONE', #167, 1.161728223830732043 ) ;
#161 = ORIENTED_EDGE ( 'NONE', *, *, #212, .F. ) ;
#162 = PLANE ( 'NONE',  #264 ) ;
#163 = ORIENTED_EDGE ( 'NONE', *, *, #324, .T. ) ;
#164 = CARTESIAN_POINT ( 'NONE',  ( 1.620000000000001439, 0.000000000000000000, 0.3638020833333309723 ) ) ;
#165 = CARTESIAN_POINT ( 'NONE',  ( 1.161728223830735152, 0.000000000000000000, 0.8929687499999965361 ) ) ;
#166 = ORIENTED_EDGE ( 'NONE', *, *, #225, .F. ) ;
#167 = AXIS2_PLACEMENT_3D ( 'NONE', #343, #98, #309 ) ;
#168 = PRODUCT_DEFINITION ( 'UNKNOWN', '', #117, #138 ) ;
#169 = FACE_OUTER_BOUND ( 'NONE', #258, .T. ) ;
#170 = UNCERTAINTY_MEASURE_WITH_UNIT (LENGTH_MEASURE( 1.000000000000000082E-05 ), #269, 'distance_accuracy_value', 'NONE');
#171 = APPLICATION_PROTOCOL_DEFINITION ( 'international standard', 'config_control_design', 1994, #376 ) ;
#172 = APPLICATION_PROTOCOL_DEFINITION ( 'international standard', 'config_control_design', 1994, #14 ) ;
#173 = FACE_OUTER_BOUND ( 'NONE', #201, .T. ) ;
#174 = SECURITY_CLASSIFICATION ( '', '', #43 ) ;
#175 = APPROVAL_ROLE ( '' ) ;
#176 = DIRECTION ( 'NONE',  ( -1.000000000000000000, 0.000000000000000000, 3.491481338843133355E-15 ) ) ;
#177 = VERTEX_POINT ( 'NONE', #144 ) ;
#178 = DIRECTION ( 'NONE',  ( 3.491481338843133355E-15, -0.000000000000000000, 1.000000000000000000 ) ) ;
#179 = ORIENTED_EDGE ( 'NONE', *, *, #301, .F. ) ;
#180 = FACE_BOUND ( 'NONE', #251, .T. ) ;
#181 = ADVANCED_FACE ( 'NONE', ( #180, #56 ), #235, .F. ) ;
#182 = AXIS2_PLACEMENT_3D ( 'NONE', #267, #205, #85 ) ;
#183 = DIRECTION ( 'NONE',  ( 1.000000000000000000, 0.000000000000000000, -4.336808689942048502E-15 ) ) ;
#184 = PERSON_AND_ORGANIZATION_ROLE ( 'design_supplier' ) ;
#185 = DIRECTION ( 'NONE',  ( 3.491481338843133355E-15, -0.000000000000000000, 1.000000000000000000 ) ) ;
#186 = PERSON_AND_ORGANIZATION ( #229, #27 ) ;
#187 = EDGE_CURVE ( 'NONE', #262, #262, #223, .T. ) ;
#188 = FACE_BOUND ( 'NONE', #352, .T. ) ;
#189 = ORIENTED_EDGE ( 'NONE', *, *, #324, .F. ) ;
#190 = AXIS2_PLACEMENT_3D ( 'NONE', #204, #178, #392 ) ;
#191 = DIRECTION ( 'NONE',  ( 3.491481338843133355E-15, -0.000000000000000000, 1.000000000000000000 ) ) ;
#192 = CONICAL_SURFACE ( 'NONE', #34, 1.620000000000000107, 1.047197551196602516 ) ;
#193 = ORIENTED_EDGE ( 'NONE', *, *, #158, .T. ) ;
#194 = DIRECTION ( 'NONE',  ( 1.000000000000000000, 0.000000000000000000, -5.972906366195205646E-15 ) ) ;
#195 = EDGE_LOOP ( 'NONE', ( #104 ) ) ;
#196 = AXIS2_PLACEMENT_3D ( 'NONE', #39, #363, #278 ) ;
#197 = CC_DESIGN_PERSON_AND_ORGANIZATION_ASSIGNMENT ( #362, #184, ( #117 ) ) ;
#198 = ADVANCED_FACE ( 'NONE', ( #115, #33 ), #357, .F. ) ;
#199 = ORIENTED_EDGE ( 'NONE', *, *, #347, .T. ) ;
#200 = PERSON_AND_ORGANIZATION ( #229, #27 ) ;
#201 = EDGE_LOOP ( 'NONE', ( #228 ) ) ;
#202 = APPROVAL_PERSON_ORGANIZATION ( #245, #102, #125 ) ;
#203 = VERTEX_POINT ( 'NONE', #388 ) ;
#204 = CARTESIAN_POINT ( 'NONE',  ( 4.678584994049799327E-14, 0.000000000000000000, 13.40000000000000036 ) ) ;
#205 = DIRECTION ( 'NONE',  ( 3.491481338843133355E-15, -0.000000000000000000, 1.000000000000000000 ) ) ;
#206 = VERTEX_POINT ( 'NONE', #382 ) ;
#207 = DIRECTION ( 'NONE',  ( 3.491481338843133355E-15, -0.000000000000000000, 1.000000000000000000 ) ) ;
#208 = DIRECTION ( 'NONE',  ( 3.491481338843133355E-15, -0.000000000000000000, 1.000000000000000000 ) ) ;
#209 = CALENDAR_DATE ( 2023, 28, 9 ) ;
#210 = EDGE_CURVE ( 'NONE', #177, #177, #55, .T. ) ;
#211 = DIRECTION ( 'NONE',  ( 1.000000000000000000, 0.000000000000000000, -3.480155121558409139E-15 ) ) ;
#212 = EDGE_CURVE ( 'NONE', #299, #299, #71, .T. ) ;
#213 = DIRECTION ( 'NONE',  ( -1.000000000000000000, 0.000000000000000000, 3.491481338843133355E-15 ) ) ;
#214 = CIRCLE ( 'NONE', #155, 1.161728223830732043 ) ;
#215 = AXIS2_PLACEMENT_3D ( 'NONE', #311, #221, #183 ) ;
#216 = FACE_OUTER_BOUND ( 'NONE', #375, .T. ) ;
#217 = FACE_OUTER_BOUND ( 'NONE', #261, .T. ) ;
#218 = DIRECTION ( 'NONE',  ( 3.491481338843133355E-15, -0.000000000000000000, 1.000000000000000000 ) ) ;
#219 = ORIENTED_EDGE ( 'NONE', *, *, #347, .F. ) ;
#220 = AXIS2_PLACEMENT_3D ( 'NONE', #332, #113, #211 ) ;
#221 = DIRECTION ( 'NONE',  ( 3.491481338843133355E-15, -0.000000000000000000, 1.000000000000000000 ) ) ;
#222 = ORIENTED_EDGE ( 'NONE', *, *, #316, .T. ) ;
#223 = CIRCLE ( 'NONE', #238, 0.9898763077672576571 ) ;
#224 = AXIS2_PLACEMENT_3D ( 'NONE', #325, #291, #114 ) ;
#225 = EDGE_CURVE ( 'NONE', #86, #86, #64, .T. ) ;
#226 = EDGE_LOOP ( 'NONE', ( #136 ) ) ;
#227 = VERTEX_POINT ( 'NONE', #165 ) ;
#228 = ORIENTED_EDGE ( 'NONE', *, *, #348, .F. ) ;
#229 = PERSON ( 'UNSPECIFIED', 'UNSPECIFIED', 'UNSPECIFIED', ('UNSPECIFIED'), ('UNSPECIFIED'), ('UNSPECIFIED') ) ;
#230 = CARTESIAN_POINT ( 'NONE',  ( 0.000000000000000000, 0.000000000000000000, 0.000000000000000000 ) ) ;
#231 = APPROVAL_PERSON_ORGANIZATION ( #120, #16, #247 ) ;
#232 = VERTEX_POINT ( 'NONE', #234 ) ;
#233 = DIRECTION ( 'NONE',  ( 1.000000000000000000, 0.000000000000000000, -3.504491870660222082E-15 ) ) ;
#234 = CARTESIAN_POINT ( 'NONE',  ( 1.620000000000001661, 0.000000000000000000, 0.4299479166666604901 ) ) ;
#235 = PLANE ( 'NONE',  #134 ) ;
#236 = DATE_AND_TIME ( #390, #124 ) ;
#237 = DIRECTION ( 'NONE',  ( 3.491481338843133355E-15, -0.000000000000000000, 1.000000000000000000 ) ) ;
#238 = AXIS2_PLACEMENT_3D ( 'NONE', #147, #389, #385 ) ;
#239 = VERTEX_POINT ( 'NONE', #25 ) ;
#240 = ADVANCED_FACE ( 'NONE', ( #217, #10 ), #36, .T. ) ;
#241 = CYLINDRICAL_SURFACE ( 'NONE', #383, 1.620000000000000107 ) ;
#242 = FACE_OUTER_BOUND ( 'NONE', #65, .T. ) ;
#243 = DATE_AND_TIME ( #209, #351 ) ;
#244 = CYLINDRICAL_SURFACE ( 'NONE', #254, 1.161728223830732043 ) ;
#245 = PERSON_AND_ORGANIZATION ( #229, #27 ) ;
#246 = DIRECTION ( 'NONE',  ( -1.000000000000000000, 0.000000000000000000, 3.480155121558409139E-15 ) ) ;
#247 = APPROVAL_ROLE ( '' ) ;
#248 = FACE_OUTER_BOUND ( 'NONE', #80, .T. ) ;
#249 = ORIENTED_EDGE ( 'NONE', *, *, #253, .F. ) ;
#250 = CARTESIAN_POINT ( 'NONE',  ( 5.542726625413469468E-15, 0.000000000000000000, 1.587499999999998579 ) ) ;
#251 = EDGE_LOOP ( 'NONE', ( #179 ) ) ;
#252 = AXIS2_PLACEMENT_3D ( 'NONE', #87, #296, #328 ) ;
#253 = EDGE_CURVE ( 'NONE', #239, #239, #41, .T. ) ;
#254 = AXIS2_PLACEMENT_3D ( 'NONE', #70, #74, #194 ) ;
#255 = ADVANCED_FACE ( 'NONE', ( #216, #370 ), #160, .T. ) ;
#256 = CIRCLE ( 'NONE', #89, 1.620000000000000107 ) ;
#257 = AXIS2_PLACEMENT_3D ( 'NONE', #273, #2, #156 ) ;
#258 = EDGE_LOOP ( 'NONE', ( #344 ) ) ;
#259 = ORIENTED_EDGE ( 'NONE', *, *, #316, .F. ) ;
#260 = CARTESIAN_POINT ( 'NONE',  ( 1.161728223830737594, 0.000000000000000000, 1.587499999999994582 ) ) ;
#261 = EDGE_LOOP ( 'NONE', ( #159 ) ) ;
#262 = VERTEX_POINT ( 'NONE', #322 ) ;
#263 = PLANE ( 'NONE',  #182 ) ;
#264 = AXIS2_PLACEMENT_3D ( 'NONE', #132, #360, #213 ) ;
#265 = MECHANICAL_CONTEXT ( 'NONE', #14, 'mechanical' ) ;
#266 = DIRECTION ( 'NONE',  ( 1.000000000000000000, 0.000000000000000000, -3.546413154928403574E-15 ) ) ;
#267 = CARTESIAN_POINT ( 'NONE',  ( -1.358665606445270910E-32, 0.000000000000000000, -3.891372957747071523E-18 ) ) ;
#268 = ADVANCED_FACE ( 'NONE', ( #337, #188 ), #289, .T. ) ;
#269 =( LENGTH_UNIT ( ) NAMED_UNIT ( * ) SI_UNIT ( .MILLI., .METRE. ) );
#270 = DIRECTION ( 'NONE',  ( 1.000000000000000000, 0.000000000000000000, -3.491481338843133355E-15 ) ) ;
#271 = CYLINDRICAL_SURFACE ( 'NONE', #252, 1.999999999999997335 ) ;
#272 = APPROVAL_STATUS ( 'not_yet_approved' ) ;
#273 = CARTESIAN_POINT ( 'NONE',  ( 1.920314736363723472E-13, 0.000000000000000000, 55.00000000000000000 ) ) ;
#274 = SHAPE_DEFINITION_REPRESENTATION ( #68, #13 ) ;
#275 = DIRECTION ( 'NONE',  ( 3.491481338843133355E-15, -0.000000000000000000, 1.000000000000000000 ) ) ;
#276 = COORDINATED_UNIVERSAL_TIME_OFFSET ( 1, 0, .AHEAD. ) ;
#277 = LOCAL_TIME ( 8, 23, 21.00000000000000000, #62 ) ;
#278 = DIRECTION ( 'NONE',  ( 1.000000000000000000, 0.000000000000000000, -3.469446951953622866E-15 ) ) ;
#279 = ORIENTED_EDGE ( 'NONE', *, *, #210, .T. ) ;
#280 = COORDINATED_UNIVERSAL_TIME_OFFSET ( 1, 0, .AHEAD. ) ;
#281 = DIRECTION ( 'NONE',  ( 1.000000000000000000, 0.000000000000000000, 0.000000000000000000 ) ) ;
#282 = ADVANCED_FACE ( 'NONE', ( #368, #94 ), #154, .T. ) ;
#283 = EDGE_LOOP ( 'NONE', ( #60 ) ) ;
#284 = DIRECTION ( 'NONE',  ( 1.000000000000000000, 0.000000000000000000, -3.453086492956603449E-15 ) ) ;
#285 = CLOSED_SHELL ( 'NONE', ( #57, #49, #108, #339, #367, #137, #282, #17, #255, #181, #240, #198, #268, #59, #152, #378 ) ) ;
#286 = AXIS2_PLACEMENT_3D ( 'NONE', #318, #7, #314 ) ;
#287 = EDGE_LOOP ( 'NONE', ( #222 ) ) ;
#288 = AXIS2_PLACEMENT_3D ( 'NONE', #354, #237, #284 ) ;
#289 = CONICAL_SURFACE ( 'NONE', #374, 1.024074173710928459, 0.2617993877991428575 ) ;
#290 = ORIENTED_EDGE ( 'NONE', *, *, #127, .F. ) ;
#291 = DIRECTION ( 'NONE',  ( 0.000000000000000000, 0.000000000000000000, 1.000000000000000000 ) ) ;
#292 = EDGE_LOOP ( 'NONE', ( #8 ) ) ;
#293 = PRODUCT_RELATED_PRODUCT_CATEGORY ( 'detail', '', ( #365 ) ) ;
#294 = DIRECTION ( 'NONE',  ( 3.491481338843133355E-15, -0.000000000000000000, 1.000000000000000000 ) ) ;
#295 = VERTEX_POINT ( 'NONE', #260 ) ;
#296 = DIRECTION ( 'NONE',  ( 3.491481338843133355E-15, -0.000000000000000000, 1.000000000000000000 ) ) ;
#297 = CIRCLE ( 'NONE', #4, 1.161728223830732043 ) ;
#298 = CIRCLE ( 'NONE', #215, 1.599999999999988542 ) ;
#299 = VERTEX_POINT ( 'NONE', #116 ) ;
#300 = CARTESIAN_POINT ( 'NONE',  ( 5.542726625413469468E-15, 0.000000000000000000, 1.587499999999998579 ) ) ;
#301 = EDGE_CURVE ( 'NONE', #206, #206, #384, .T. ) ;
#302 = CARTESIAN_POINT ( 'NONE',  ( 1.620000000000004103, 0.000000000000000000, 1.157552083333326820 ) ) ;
#303 = DIRECTION ( 'NONE',  ( 1.000000000000000000, 0.000000000000000000, -3.453086492956603449E-15 ) ) ;
#304 = CALENDAR_DATE ( 2023, 28, 9 ) ;
#305 = DIRECTION ( 'NONE',  ( -3.491481338843133355E-15, 0.000000000000000000, -1.000000000000000000 ) ) ;
#306 = AXIS2_PLACEMENT_3D ( 'NONE', #92, #294, #1 ) ;
#307 = CIRCLE ( 'NONE', #196, 1.999999999999994893 ) ;
#308 = DIRECTION ( 'NONE',  ( 1.000000000000000000, 0.000000000000000000, -3.504491870660216560E-15 ) ) ;
#309 = DIRECTION ( 'NONE',  ( 1.000000000000000000, 0.000000000000000000, -5.972906366195205646E-15 ) ) ;
#310 = MANIFOLD_SOLID_BREP ( 'Corps-Déplacer/Copier1', #285 ) ;
#311 = CARTESIAN_POINT ( 'NONE',  ( 1.920314736363723472E-13, 0.000000000000000000, 55.00000000000000000 ) ) ;
#312 = ORIENTED_EDGE ( 'NONE', *, *, #301, .T. ) ;
#313 = LOCAL_TIME ( 8, 23, 21.00000000000000000, #276 ) ;
#314 = DIRECTION ( 'NONE',  ( 1.000000000000000000, 0.000000000000000000, -3.480155121558409927E-15 ) ) ;
#315 = CC_DESIGN_PERSON_AND_ORGANIZATION_ASSIGNMENT ( #186, #9, ( #174 ) ) ;
#316 = EDGE_CURVE ( 'NONE', #22, #22, #143, .T. ) ;
#317 = EDGE_LOOP ( 'NONE', ( #109 ) ) ;
#318 = CARTESIAN_POINT ( 'NONE',  ( 4.272518440422894663E-15, 0.000000000000000000, 1.223697916666668828 ) ) ;
#319 = EDGE_LOOP ( 'NONE', ( #346 ) ) ;
#320 =( GEOMETRIC_REPRESENTATION_CONTEXT ( 3 ) GLOBAL_UNCERTAINTY_ASSIGNED_CONTEXT ( ( #170 ) ) GLOBAL_UNIT_ASSIGNED_CONTEXT ( ( #269, #88, #146 ) ) REPRESENTATION_CONTEXT ( 'NONE', 'WORKASPACE' ) );
#321 = EDGE_LOOP ( 'NONE', ( #369 ) ) ;
#322 = CARTESIAN_POINT ( 'NONE',  ( 0.9898763077672576571, 0.000000000000000000, -3.456134656332322137E-15 ) ) ;
#323 = EDGE_LOOP ( 'NONE', ( #279 ) ) ;
#324 = EDGE_CURVE ( 'NONE', #327, #327, #157, .T. ) ;
#325 = CARTESIAN_POINT ( 'NONE',  ( 0.000000000000000000, 0.000000000000000000, 0.000000000000000000 ) ) ;
#326 = CARTESIAN_POINT ( 'NONE',  ( 3.117783726795081063E-15, 0.000000000000000000, 0.8929687500000005329 ) ) ;
#327 = VERTEX_POINT ( 'NONE', #29 ) ;
#328 = DIRECTION ( 'NONE',  ( 1.000000000000000000, 0.000000000000000000, -3.469446951953618922E-15 ) ) ;
#329 = FACE_BOUND ( 'NONE', #101, .T. ) ;
#330 = AXIS2_PLACEMENT_3D ( 'NONE', #250, #218, #308 ) ;
#331 = CARTESIAN_POINT ( 'NONE',  ( 2.000000000000185629, 0.000000000000000000, 54.59999999999999432 ) ) ;
#332 = CARTESIAN_POINT ( 'NONE',  ( 1.270208184990599260E-15, 0.000000000000000000, 0.3638020833333366344 ) ) ;
#333 = FACE_OUTER_BOUND ( 'NONE', #105, .T. ) ;
#334 = VERTEX_POINT ( 'NONE', #63 ) ;
#335 = CONICAL_SURFACE ( 'NONE', #150, 0.9898763077672576571, 1.047197551196595633 ) ;
#336 = EDGE_LOOP ( 'NONE', ( #51 ) ) ;
#337 = FACE_OUTER_BOUND ( 'NONE', #81, .T. ) ;
#338 = CARTESIAN_POINT ( 'NONE',  ( 1.501155127716147307E-15, 0.000000000000000000, 0.4299479166666661523 ) ) ;
#339 = ADVANCED_FACE ( 'NONE', ( #364, #67 ), #192, .T. ) ;
#340 = DIRECTION ( 'NONE',  ( 1.000000000000000000, 0.000000000000000000, -3.387886386570428174E-15 ) ) ;
#341 = CONICAL_SURFACE ( 'NONE', #78, 1.999999999999994893, 0.7853981633974591592 ) ;
#342 = EDGE_LOOP ( 'NONE', ( #189 ) ) ;
#343 = CARTESIAN_POINT ( 'NONE',  ( 1.920314736363723472E-13, 0.000000000000000000, 55.00000000000000000 ) ) ;
#344 = ORIENTED_EDGE ( 'NONE', *, *, #225, .T. ) ;
#345 = CC_DESIGN_APPROVAL ( #16, ( #117 ) ) ;
#346 = ORIENTED_EDGE ( 'NONE', *, *, #140, .T. ) ;
#347 = EDGE_CURVE ( 'NONE', #203, #203, #298, .T. ) ;
#348 = EDGE_CURVE ( 'NONE', #386, #386, #307, .T. ) ;
#349 = EDGE_LOOP ( 'NONE', ( #199 ) ) ;
#350 = PERSON_AND_ORGANIZATION ( #229, #27 ) ;
#351 = LOCAL_TIME ( 8, 23, 21.00000000000000000, #52 ) ;
#352 = EDGE_LOOP ( 'NONE', ( #163 ) ) ;
#353 = CARTESIAN_POINT ( 'NONE',  ( 1.620000000000004103, 0.000000000000000000, 1.223697916666663277 ) ) ;
#354 = CARTESIAN_POINT ( 'NONE',  ( 2.424942898618388011E-15, 0.000000000000000000, 0.6945312499999980460 ) ) ;
#355 = DIRECTION ( 'NONE',  ( -3.491481338843133355E-15, 0.000000000000000000, -1.000000000000000000 ) ) ;
#356 = FACE_OUTER_BOUND ( 'NONE', #321, .T. ) ;
#357 = TOROIDAL_SURFACE ( 'NONE', #190, 1.989999999999998659, 1.000000000000000000 ) ;
#358 = CC_DESIGN_SECURITY_CLASSIFICATION ( #174, ( #117 ) ) ;
#359 = DIRECTION ( 'NONE',  ( -1.000000000000000000, 0.000000000000000000, 3.469446951953622866E-15 ) ) ;
#360 = DIRECTION ( 'NONE',  ( -3.491481338843133355E-15, 0.000000000000000000, -1.000000000000000000 ) ) ;
#361 = CC_DESIGN_DATE_AND_TIME_ASSIGNMENT ( #6, #394, ( #174 ) ) ;
#362 = PERSON_AND_ORGANIZATION ( #229, #27 ) ;
#363 = DIRECTION ( 'NONE',  ( 3.491481338843133355E-15, -0.000000000000000000, 1.000000000000000000 ) ) ;
#364 = FACE_BOUND ( 'NONE', #50, .T. ) ;
#365 = PRODUCT ( '961020', '961020', '', ( #265 ) ) ;
#366 = DATE_AND_TIME ( #122, #313 ) ;
#367 = ADVANCED_FACE ( 'NONE', ( #126, #248 ), #244, .T. ) ;
#368 = FACE_OUTER_BOUND ( 'NONE', #106, .T. ) ;
#369 = ORIENTED_EDGE ( 'NONE', *, *, #127, .T. ) ;
#370 = FACE_OUTER_BOUND ( 'NONE', #336, .T. ) ;
#371 = FACE_BOUND ( 'NONE', #283, .T. ) ;
#372 = AXIS2_PLACEMENT_3D ( 'NONE', #66, #191, #281 ) ;
#373 = CONICAL_SURFACE ( 'NONE', #391, 1.619999999999999662, 1.047197551196602072 ) ;
#374 = AXIS2_PLACEMENT_3D ( 'NONE', #100, #130, #38 ) ;
#375 = EDGE_LOOP ( 'NONE', ( #77 ) ) ;
#376 = APPLICATION_CONTEXT ( 'configuration controlled 3d designs of mechanical parts and assemblies' ) ;
#377 = APPROVAL ( #112, 'UNSPECIFIED' ) ;
#378 = ADVANCED_FACE ( 'NONE', ( #46 ), #162, .F. ) ;
#379 = EDGE_LOOP ( 'NONE', ( #21 ) ) ;
#380 = PERSON_AND_ORGANIZATION ( #229, #27 ) ;
#381 = EDGE_LOOP ( 'NONE', ( #193 ) ) ;
#382 = CARTESIAN_POINT ( 'NONE',  ( 0.9900000000000056533, 0.000000000000000000, 1.587499999999995248 ) ) ;
#383 = AXIS2_PLACEMENT_3D ( 'NONE', #119, #24, #30 ) ;
#384 = CIRCLE ( 'NONE', #330, 0.9899999999999999911 ) ;
#385 = DIRECTION ( 'NONE',  ( 1.000000000000000000, 0.000000000000000000, -3.491481338843133355E-15 ) ) ;
#386 = VERTEX_POINT ( 'NONE', #331 ) ;
#387 = FACE_OUTER_BOUND ( 'NONE', #379, .T. ) ;
#388 = CARTESIAN_POINT ( 'NONE',  ( 1.600000000000180611, 0.000000000000000000, 54.99999999999999289 ) ) ;
#389 = DIRECTION ( 'NONE',  ( 3.491481338843133355E-15, -0.000000000000000000, 1.000000000000000000 ) ) ;
#390 = CALENDAR_DATE ( 2023, 28, 9 ) ;
#391 = AXIS2_PLACEMENT_3D ( 'NONE', #23, #15, #141 ) ;
#392 = DIRECTION ( 'NONE',  ( 1.000000000000000000, 0.000000000000000000, -3.491481338843133355E-15 ) ) ;
#393 = CC_DESIGN_APPROVAL ( #377, ( #168 ) ) ;
#394 = DATE_TIME_ROLE ( 'classification_date' ) ;
#395 = CC_DESIGN_PERSON_AND_ORGANIZATION_ASSIGNMENT ( #350, #83, ( #168 ) ) ;
ENDSEC;
END-ISO-10303-21;
