ISO-10303-21;
HEADER;
FILE_DESCRIPTION (( 'STEP AP203' ),
    '1' );
FILE_NAME ('961012.step',
    '2021-11-30T09:57:14',
    ( '' ),
    ( '' ),
    'SwSTEP 2.0',
    'SolidWorks 2019',
    '' );
FILE_SCHEMA (( 'CONFIG_CONTROL_DESIGN' ));
ENDSEC;

DATA;
#1 = DIRECTION ( 'NONE',  ( 0.0000000000000000000, 1.000000000000000000, 0.0000000000000000000 ) ) ;
#2 = PLANE ( 'NONE',  #43 ) ;
#3 = PERSON_AND_ORGANIZATION_ROLE ( 'creator' ) ;
#4 = AXIS2_PLACEMENT_3D ( 'NONE', #184, #212, #1 ) ;
#5 = PRODUCT_DEFINITION_FORMATION_WITH_SPECIFIED_SOURCE ( 'ANY', '', #58, .NOT_KNOWN. ) ;
#6 = ADVANCED_FACE ( 'NONE', ( #154, #86 ), #198, .T. ) ;
#7 = ORIENTED_EDGE ( 'NONE', *, *, #195, .T. ) ;
#8 = CARTESIAN_POINT ( 'NONE',  ( 2.119329172677781757E-13, -7.433606070824434221E-15, 60.69999999999999574 ) ) ;
#9 = ORIENTED_EDGE ( 'NONE', *, *, #209, .F. ) ;
#10 = DIRECTION ( 'NONE',  ( 0.0000000000000000000, 1.000000000000000000, 0.0000000000000000000 ) ) ;
#11 = ADVANCED_FACE ( 'NONE', ( #201, #230 ), #263, .F. ) ;
#12 = CARTESIAN_POINT ( 'NONE',  ( 8.728703347107833388E-14, 1.274999999999996581, 25.00000000000000000 ) ) ;
#13 = CC_DESIGN_APPROVAL ( #82, ( #139 ) ) ;
#14 = ORIENTED_EDGE ( 'NONE', *, *, #265, .T. ) ;
#15 = AXIS2_PLACEMENT_3D ( 'NONE', #213, #158, #186 ) ;
#16 = CARTESIAN_POINT ( 'NONE',  ( 3.614546398369628854E-14, 1.274999999999996803, 10.35247233934027378 ) ) ;
#17 = CALENDAR_DATE ( 2021, 30, 11 ) ;
#18 = DESIGN_CONTEXT ( 'detailed design', #136, 'design' ) ;
#19 = CARTESIAN_POINT ( 'NONE',  ( 8.728703347107827472E-16, -3.061616997868381785E-17, 0.2499999999999998335 ) ) ;
#20 = EDGE_CURVE ( 'NONE', #267, #267, #206, .T. ) ;
#21 = APPROVAL_ROLE ( '' ) ;
#22 =( NAMED_UNIT ( * ) SI_UNIT ( $, .STERADIAN. ) SOLID_ANGLE_UNIT ( ) );
#23 = AXIS2_PLACEMENT_3D ( 'NONE', #299, #157, #256 ) ;
#24 = CARTESIAN_POINT ( 'NONE',  ( 8.728703347107833388E-14, -3.035766082959412415E-15, 25.00000000000000000 ) ) ;
#25 = DIRECTION ( 'NONE',  ( 4.275831445896959482E-31, 1.000000000000000000, 1.224646799147353454E-16 ) ) ;
#26 = DIRECTION ( 'NONE',  ( -3.491481338843133355E-15, 1.224646799147353454E-16, -1.000000000000000000 ) ) ;
#27 = CARTESIAN_POINT ( 'NONE',  ( 0.0000000000000000000, 0.0000000000000000000, 0.0000000000000000000 ) ) ;
#28 = DIRECTION ( 'NONE',  ( 0.0000000000000000000, 0.0000000000000000000, 1.000000000000000000 ) ) ;
#29 = AXIS2_PLACEMENT_3D ( 'NONE', #45, #26, #155 ) ;
#30 = CC_DESIGN_DATE_AND_TIME_ASSIGNMENT ( #203, #85, ( #78 ) ) ;
#31 = VERTEX_POINT ( 'NONE', #200 ) ;
#32 = APPROVAL_PERSON_ORGANIZATION ( #163, #144, #257 ) ;
#33 = FACE_OUTER_BOUND ( 'NONE', #266, .T. ) ;
#34 = DIRECTION ( 'NONE',  ( -3.491481338843133355E-15, 1.224646799147353454E-16, -1.000000000000000000 ) ) ;
#35 = CARTESIAN_POINT ( 'NONE',  ( 2.129803616694311221E-13, -7.470345474798856659E-15, 61.00000000000000000 ) ) ;
#36 = VERTEX_POINT ( 'NONE', #247 ) ;
#37 = DIRECTION ( 'NONE',  ( 0.0000000000000000000, 1.000000000000000000, 0.0000000000000000000 ) ) ;
#38 = APPLICATION_PROTOCOL_DEFINITION ( 'international standard', 'config_control_design', 1994, #136 ) ;
#39 = ORIENTED_EDGE ( 'NONE', *, *, #191, .F. ) ;
#40 = CALENDAR_DATE ( 2021, 30, 11 ) ;
#41 = APPROVAL_PERSON_ORGANIZATION ( #67, #82, #70 ) ;
#42 = DIRECTION ( 'NONE',  ( 0.0000000000000000000, -1.000000000000000000, 0.0000000000000000000 ) ) ;
#43 = AXIS2_PLACEMENT_3D ( 'NONE', #91, #297, #145 ) ;
#44 = ORIENTED_EDGE ( 'NONE', *, *, #195, .F. ) ;
#45 = CARTESIAN_POINT ( 'NONE',  ( 0.0000000000000000000, 0.0000000000000000000, 0.0000000000000000000 ) ) ;
#46 = DIRECTION ( 'NONE',  ( -4.275831445896959482E-31, -1.000000000000000000, -1.224646799147353454E-16 ) ) ;
#47 = EDGE_CURVE ( 'NONE', #55, #55, #142, .T. ) ;
#48 = CIRCLE ( 'NONE', #223, 1.478499999999999925 ) ;
#49 = EDGE_LOOP ( 'NONE', ( #282 ) ) ;
#50 = CARTESIAN_POINT ( 'NONE',  ( 9.235322783731659030E-14, 1.499999999999992673, 26.45101573646585535 ) ) ;
#51 = FACE_OUTER_BOUND ( 'NONE', #49, .T. ) ;
#52 = AXIS2_PLACEMENT_3D ( 'NONE', #264, #96, #220 ) ;
#53 = EDGE_CURVE ( 'NONE', #31, #31, #77, .T. ) ;
#54 = EDGE_LOOP ( 'NONE', ( #44 ) ) ;
#55 = VERTEX_POINT ( 'NONE', #101 ) ;
#56 = EDGE_LOOP ( 'NONE', ( #176 ) ) ;
#57 = CARTESIAN_POINT ( 'NONE',  ( 8.849961221477468513E-14, -3.104148534859897150E-15, 25.34729635533384240 ) ) ;
#58 = PRODUCT ( '961012', '961012', '', ( #152 ) ) ;
#59 = FACE_OUTER_BOUND ( 'NONE', #81, .T. ) ;
#60 = ADVANCED_FACE ( 'NONE', ( #234, #110 ), #199, .T. ) ;
#61 = CARTESIAN_POINT ( 'NONE',  ( 9.235322783731659030E-14, -3.239315175585918577E-15, 26.45101573646585535 ) ) ;
#62 = PERSON_AND_ORGANIZATION_ROLE ( 'classification_officer' ) ;
#63 = EDGE_LOOP ( 'NONE', ( #133 ) ) ;
#64 = EDGE_LOOP ( 'NONE', ( #224 ) ) ;
#65 = AXIS2_PLACEMENT_3D ( 'NONE', #279, #239, #46 ) ;
#66 = DIRECTION ( 'NONE',  ( 3.491481338843133355E-15, -1.224646799147353454E-16, 1.000000000000000000 ) ) ;
#67 = PERSON_AND_ORGANIZATION ( #232, #138 ) ;
#68 = FACE_OUTER_BOUND ( 'NONE', #174, .T. ) ;
#69 = ADVANCED_FACE ( 'NONE', ( #90, #210 ), #106, .T. ) ;
#70 = APPROVAL_ROLE ( '' ) ;
#71 = PERSON_AND_ORGANIZATION_ROLE ( 'design_owner' ) ;
#72 = AXIS2_PLACEMENT_3D ( 'NONE', #24, #235, #25 ) ;
#73 = CARTESIAN_POINT ( 'NONE',  ( 2.129803616694311221E-13, 1.199999999999993960, 61.00000000000000000 ) ) ;
#74 = ORIENTED_EDGE ( 'NONE', *, *, #215, .T. ) ;
#75 = ADVANCED_FACE ( 'NONE', ( #236, #303 ), #151, .T. ) ;
#76 = DIRECTION ( 'NONE',  ( -3.491481338843133355E-15, 1.224646799147353454E-16, -1.000000000000000000 ) ) ;
#77 = CIRCLE ( 'NONE', #241, 1.478499999999998593 ) ;
#78 = SECURITY_CLASSIFICATION ( '', '', #102 ) ;
#79 = ORIENTED_EDGE ( 'NONE', *, *, #209, .T. ) ;
#80 = DIRECTION ( 'NONE',  ( -3.491481338843133355E-15, 1.224646799147353454E-16, -1.000000000000000000 ) ) ;
#81 = EDGE_LOOP ( 'NONE', ( #9 ) ) ;
#82 = APPROVAL ( #130, 'UNSPECIFIED' ) ;
#83 = DIRECTION ( 'NONE',  ( 0.0000000000000000000, 1.000000000000000000, 0.0000000000000000000 ) ) ;
#84 = DIRECTION ( 'NONE',  ( -3.491481338843133355E-15, 1.224646799147353454E-16, -1.000000000000000000 ) ) ;
#85 = DATE_TIME_ROLE ( 'classification_date' ) ;
#86 = FACE_OUTER_BOUND ( 'NONE', #100, .T. ) ;
#87 = DATE_AND_TIME ( #205, #153 ) ;
#88 = PLANE ( 'NONE',  #65 ) ;
#89 = ORIENTED_EDGE ( 'NONE', *, *, #252, .T. ) ;
#90 = FACE_BOUND ( 'NONE', #168, .T. ) ;
#91 = CARTESIAN_POINT ( 'NONE',  ( 3.491481338843133355E-14, 1.108697419332776833E-32, 10.00000000000000000 ) ) ;
#92 = PERSON_AND_ORGANIZATION ( #232, #138 ) ;
#93 = AXIS2_PLACEMENT_3D ( 'NONE', #177, #140, #245 ) ;
#94 = VERTEX_POINT ( 'NONE', #73 ) ;
#95 = CARTESIAN_POINT ( 'NONE',  ( 0.0000000000000000000, 0.0000000000000000000, 0.0000000000000000000 ) ) ;
#96 = DIRECTION ( 'NONE',  ( -3.491481338843133355E-15, 1.224646799147353454E-16, -1.000000000000000000 ) ) ;
#97 = VERTEX_POINT ( 'NONE', #50 ) ;
#98 = CIRCLE ( 'NONE', #52, 1.499999999999996003 ) ;
#99 = AXIS2_PLACEMENT_3D ( 'NONE', #8, #221, #125 ) ;
#100 = EDGE_LOOP ( 'NONE', ( #89 ) ) ;
#101 = CARTESIAN_POINT ( 'NONE',  ( 3.491481338843133355E-14, 1.478499999999998593, 10.00000000000000000 ) ) ;
#102 = SECURITY_CLASSIFICATION_LEVEL ( 'unclassified' ) ;
#103 = FACE_OUTER_BOUND ( 'NONE', #122, .T. ) ;
#104 = COORDINATED_UNIVERSAL_TIME_OFFSET ( 1, 0, .AHEAD. ) ;
#105 = AXIS2_PLACEMENT_3D ( 'NONE', #61, #180, #42 ) ;
#106 = CONICAL_SURFACE ( 'NONE', #170, 1.478499999999998593, 0.5235987755982920433 ) ;
#107 = DIRECTION ( 'NONE',  ( 0.0000000000000000000, 1.000000000000000000, 0.0000000000000000000 ) ) ;
#108 = COORDINATED_UNIVERSAL_TIME_OFFSET ( 1, 0, .AHEAD. ) ;
#109 = ADVANCED_FACE ( 'NONE', ( #103 ), #277, .F. ) ;
#110 = FACE_BOUND ( 'NONE', #132, .T. ) ;
#111 = DIRECTION ( 'NONE',  ( 3.907872731255808719E-31, 1.000000000000000000, 1.099968386018436413E-16 ) ) ;
#112 = CYLINDRICAL_SURFACE ( 'NONE', #15, 1.499999999999998668 ) ;
#113 = PERSON_AND_ORGANIZATION ( #232, #138 ) ;
#114 = PERSON_AND_ORGANIZATION ( #232, #138 ) ;
#115 = ADVANCED_FACE ( 'NONE', ( #251 ), #88, .T. ) ;
#116 = LOCAL_TIME ( 10, 57, 14.00000000000000000, #260 ) ;
#117 = ADVANCED_BREP_SHAPE_REPRESENTATION ( '961012', ( #171, #165, #161 ), #281 ) ;
#118 = PLANE ( 'NONE',  #143 ) ;
#119 = LOCAL_TIME ( 10, 57, 14.00000000000000000, #276 ) ;
#120 = FACE_OUTER_BOUND ( 'NONE', #63, .T. ) ;
#121 = CARTESIAN_POINT ( 'NONE',  ( -5.704653683684139294E-31, 2.000923160105659113E-32, -1.633877752751878748E-16 ) ) ;
#122 = EDGE_LOOP ( 'NONE', ( #14 ) ) ;
#123 = DIRECTION ( 'NONE',  ( 4.275831445896959482E-31, 1.000000000000000000, 1.224646799147353454E-16 ) ) ;
#124 = APPLICATION_CONTEXT ( 'configuration controlled 3d designs of mechanical parts and assemblies' ) ;
#125 = DIRECTION ( 'NONE',  ( 0.0000000000000000000, 1.000000000000000000, 0.0000000000000000000 ) ) ;
#126 = CARTESIAN_POINT ( 'NONE',  ( 8.728703347107827472E-16, -3.061616997868381785E-17, 0.2499999999999998335 ) ) ;
#127 = APPROVAL_STATUS ( 'not_yet_approved' ) ;
#128 = ORIENTED_EDGE ( 'NONE', *, *, #53, .T. ) ;
#129 = CC_DESIGN_PERSON_AND_ORGANIZATION_ASSIGNMENT ( #160, #62, ( #78 ) ) ;
#130 = APPROVAL_STATUS ( 'not_yet_approved' ) ;
#131 = CIRCLE ( 'NONE', #240, 1.200000000000001510 ) ;
#132 = EDGE_LOOP ( 'NONE', ( #228 ) ) ;
#133 = ORIENTED_EDGE ( 'NONE', *, *, #20, .F. ) ;
#134 = CC_DESIGN_PERSON_AND_ORGANIZATION_ASSIGNMENT ( #114, #71, ( #58 ) ) ;
#135 = FACE_OUTER_BOUND ( 'NONE', #192, .T. ) ;
#136 = APPLICATION_CONTEXT ( 'configuration controlled 3d designs of mechanical parts and assemblies' ) ;
#137 = APPROVAL_DATE_TIME ( #300, #82 ) ;
#138 = ORGANIZATION ( 'UNSPECIFIED', 'UNSPECIFIED', '' ) ;
#139 = PRODUCT_DEFINITION ( 'UNKNOWN', '', #5, #18 ) ;
#140 = DIRECTION ( 'NONE',  ( -3.491481338843133355E-15, 1.224646799147353454E-16, -1.000000000000000000 ) ) ;
#141 = DIRECTION ( 'NONE',  ( -3.491481338843133355E-15, 1.224646799147353454E-16, -1.000000000000000000 ) ) ;
#142 = CIRCLE ( 'NONE', #219, 1.478499999999999925 ) ;
#143 = AXIS2_PLACEMENT_3D ( 'NONE', #175, #34, #292 ) ;
#144 = APPROVAL ( #187, 'UNSPECIFIED' ) ;
#145 = DIRECTION ( 'NONE',  ( -4.275831445896959482E-31, -1.000000000000000000, -1.224646799147353454E-16 ) ) ;
#146 = ORIENTED_EDGE ( 'NONE', *, *, #47, .T. ) ;
#147 = DIRECTION ( 'NONE',  ( -3.491481338843133355E-15, 1.224646799147353454E-16, -1.000000000000000000 ) ) ;
#148 = CARTESIAN_POINT ( 'NONE',  ( 3.491481338843133355E-14, 1.478499999999998593, 10.00000000000000000 ) ) ;
#149 = CARTESIAN_POINT ( 'NONE',  ( 3.491481338843133355E-14, -1.224646799147353454E-15, 10.00000000000000000 ) ) ;
#150 = PERSON_AND_ORGANIZATION ( #232, #138 ) ;
#151 = CYLINDRICAL_SURFACE ( 'NONE', #29, 1.478499999999999259 ) ;
#152 = MECHANICAL_CONTEXT ( 'NONE', #124, 'mechanical' ) ;
#153 = LOCAL_TIME ( 10, 57, 14.00000000000000000, #104 ) ;
#154 = FACE_BOUND ( 'NONE', #54, .T. ) ;
#155 = DIRECTION ( 'NONE',  ( 4.275831445896959482E-31, 1.000000000000000000, 1.224646799147353454E-16 ) ) ;
#156 = ADVANCED_FACE ( 'NONE', ( #135, #68 ), #112, .T. ) ;
#157 = DIRECTION ( 'NONE',  ( 3.491481338843133355E-15, -1.224646799147353454E-16, 1.000000000000000000 ) ) ;
#158 = DIRECTION ( 'NONE',  ( -3.491481338843133355E-15, 1.224646799147353454E-16, -1.000000000000000000 ) ) ;
#159 = CLOSED_SHELL ( 'NONE', ( #109, #69, #75, #115 ) ) ;
#160 = PERSON_AND_ORGANIZATION ( #232, #138 ) ;
#161 = AXIS2_PLACEMENT_3D ( 'NONE', #27, #28, #189 ) ;
#162 = ADVANCED_FACE ( 'NONE', ( #258 ), #2, .F. ) ;
#163 = PERSON_AND_ORGANIZATION ( #232, #138 ) ;
#164 = SHAPE_DEFINITION_REPRESENTATION ( #271, #117 ) ;
#165 = MANIFOLD_SOLID_BREP ( 'Corps-Déplacer/Copier1[2]', #159 ) ;
#166 = EDGE_LOOP ( 'NONE', ( #128 ) ) ;
#167 = DIRECTION ( 'NONE',  ( -3.491481338843133355E-15, 1.224646799147353454E-16, -1.000000000000000000 ) ) ;
#168 = EDGE_LOOP ( 'NONE', ( #275 ) ) ;
#169 =( LENGTH_UNIT ( ) NAMED_UNIT ( * ) SI_UNIT ( .MILLI., .METRE. ) );
#170 = AXIS2_PLACEMENT_3D ( 'NONE', #19, #66, #302 ) ;
#171 = MANIFOLD_SOLID_BREP ( 'Corps-Déplacer/Copier1[1]', #294 ) ;
#172 = EDGE_LOOP ( 'NONE', ( #291 ) ) ;
#173 = DIRECTION ( 'NONE',  ( -3.491481338843133355E-15, 1.224646799147353454E-16, -1.000000000000000000 ) ) ;
#174 = EDGE_LOOP ( 'NONE', ( #79 ) ) ;
#175 = CARTESIAN_POINT ( 'NONE',  ( 2.129803616694311221E-13, 8.998558695971049855E-33, 61.00000000000000000 ) ) ;
#176 = ORIENTED_EDGE ( 'NONE', *, *, #215, .F. ) ;
#177 = CARTESIAN_POINT ( 'NONE',  ( 8.728703347107833388E-14, -3.061616997868383831E-15, 25.00000000000000000 ) ) ;
#178 = EDGE_LOOP ( 'NONE', ( #7 ) ) ;
#179 = CC_DESIGN_PERSON_AND_ORGANIZATION_ASSIGNMENT ( #238, #214, ( #5 ) ) ;
#180 = DIRECTION ( 'NONE',  ( 3.491481338843133355E-15, -1.224646799147353454E-16, 1.000000000000000000 ) ) ;
#181 = DATE_TIME_ROLE ( 'creation_date' ) ;
#182 = EDGE_LOOP ( 'NONE', ( #269 ) ) ;
#183 = CARTESIAN_POINT ( 'NONE',  ( 3.614546398369628854E-14, -1.267812211363458297E-15, 10.35247233934027378 ) ) ;
#184 = CARTESIAN_POINT ( 'NONE',  ( 3.614546398369628854E-14, -1.267812211363458297E-15, 10.35247233934027378 ) ) ;
#185 = APPLICATION_PROTOCOL_DEFINITION ( 'international standard', 'config_control_design', 1994, #124 ) ;
#186 = DIRECTION ( 'NONE',  ( 4.275831445896960358E-31, 1.000000000000000000, 1.224646799147353454E-16 ) ) ;
#187 = APPROVAL_STATUS ( 'not_yet_approved' ) ;
#188 = CC_DESIGN_PERSON_AND_ORGANIZATION_ASSIGNMENT ( #92, #285, ( #5 ) ) ;
#189 = DIRECTION ( 'NONE',  ( 1.000000000000000000, 0.0000000000000000000, 0.0000000000000000000 ) ) ;
#190 = CC_DESIGN_APPROVAL ( #144, ( #5 ) ) ;
#191 = EDGE_CURVE ( 'NONE', #274, #274, #48, .T. ) ;
#192 = EDGE_LOOP ( 'NONE', ( #204 ) ) ;
#193 = CC_DESIGN_APPROVAL ( #283, ( #78 ) ) ;
#194 = DIRECTION ( 'NONE',  ( 0.0000000000000000000, 1.000000000000000000, 0.0000000000000000000 ) ) ;
#195 = EDGE_CURVE ( 'NONE', #36, #36, #196, .T. ) ;
#196 = CIRCLE ( 'NONE', #259, 1.305384493975580096 ) ;
#197 = CARTESIAN_POINT ( 'NONE',  ( 3.491481338843133355E-14, -1.224646799147353454E-15, 10.00000000000000000 ) ) ;
#198 = CONICAL_SURFACE ( 'NONE', #105, 1.499999999999996003, 0.1745329251994265640 ) ;
#199 = CONICAL_SURFACE ( 'NONE', #4, 1.274999999999998135, 0.5235987755982934866 ) ;
#200 = CARTESIAN_POINT ( 'NONE',  ( 8.728703347107833388E-16, 1.478499999999998593, 0.2500000000000000000 ) ) ;
#201 = FACE_OUTER_BOUND ( 'NONE', #56, .T. ) ;
#202 = ADVANCED_FACE ( 'NONE', ( #120, #33 ), #296, .T. ) ;
#203 = DATE_AND_TIME ( #17, #116 ) ;
#204 = ORIENTED_EDGE ( 'NONE', *, *, #252, .F. ) ;
#205 = CALENDAR_DATE ( 2021, 30, 11 ) ;
#206 = CIRCLE ( 'NONE', #286, 1.274999999999998135 ) ;
#207 = DIRECTION ( 'NONE',  ( -3.491481338843133355E-15, 1.224646799147353454E-16, -1.000000000000000000 ) ) ;
#208 = DATE_AND_TIME ( #298, #217 ) ;
#209 = EDGE_CURVE ( 'NONE', #293, #293, #216, .T. ) ;
#210 = FACE_OUTER_BOUND ( 'NONE', #166, .T. ) ;
#211 = CC_DESIGN_SECURITY_CLASSIFICATION ( #78, ( #5 ) ) ;
#212 = DIRECTION ( 'NONE',  ( -3.491481338843133355E-15, 1.224646799147353454E-16, -1.000000000000000000 ) ) ;
#213 = CARTESIAN_POINT ( 'NONE',  ( 0.0000000000000000000, 0.0000000000000000000, 0.0000000000000000000 ) ) ;
#214 = PERSON_AND_ORGANIZATION_ROLE ( 'creator' ) ;
#215 = EDGE_CURVE ( 'NONE', #227, #227, #253, .T. ) ;
#216 = CIRCLE ( 'NONE', #99, 1.500000000000001332 ) ;
#217 = LOCAL_TIME ( 10, 57, 14.00000000000000000, #108 ) ;
#218 = ADVANCED_FACE ( 'NONE', ( #59, #244 ), #270, .T. ) ;
#219 = AXIS2_PLACEMENT_3D ( 'NONE', #149, #84, #37 ) ;
#220 = DIRECTION ( 'NONE',  ( 0.0000000000000000000, 1.000000000000000000, 0.0000000000000000000 ) ) ;
#221 = DIRECTION ( 'NONE',  ( -3.491481338843133355E-15, 1.224646799147353454E-16, -1.000000000000000000 ) ) ;
#222 = CARTESIAN_POINT ( 'NONE',  ( 2.119329172677781757E-13, 1.499999999999994005, 60.69999999999999574 ) ) ;
#223 = AXIS2_PLACEMENT_3D ( 'NONE', #197, #167, #290 ) ;
#224 = ORIENTED_EDGE ( 'NONE', *, *, #47, .F. ) ;
#225 = CARTESIAN_POINT ( 'NONE',  ( 2.129803616694311221E-13, -7.470345474798856659E-15, 61.00000000000000000 ) ) ;
#226 = ADVANCED_FACE ( 'NONE', ( #51 ), #118, .F. ) ;
#227 = VERTEX_POINT ( 'NONE', #12 ) ;
#228 = ORIENTED_EDGE ( 'NONE', *, *, #20, .T. ) ;
#229 = COORDINATED_UNIVERSAL_TIME_OFFSET ( 1, 0, .AHEAD. ) ;
#230 = FACE_OUTER_BOUND ( 'NONE', #178, .T. ) ;
#231 = CIRCLE ( 'NONE', #268, 1.334162432702594492 ) ;
#232 = PERSON ( 'UNSPECIFIED', 'UNSPECIFIED', 'UNSPECIFIED', ('UNSPECIFIED'), ('UNSPECIFIED'), ('UNSPECIFIED') ) ;
#233 = AXIS2_PLACEMENT_3D ( 'NONE', #95, #147, #273 ) ;
#234 = FACE_OUTER_BOUND ( 'NONE', #64, .T. ) ;
#235 = DIRECTION ( 'NONE',  ( -3.491481338843133355E-15, 1.224646799147353454E-16, -1.000000000000000000 ) ) ;
#236 = FACE_OUTER_BOUND ( 'NONE', #172, .T. ) ;
#237 = CC_DESIGN_DATE_AND_TIME_ASSIGNMENT ( #250, #181, ( #139 ) ) ;
#238 = PERSON_AND_ORGANIZATION ( #232, #138 ) ;
#239 = DIRECTION ( 'NONE',  ( 3.491481338843133355E-15, -1.224646799147353454E-16, 1.000000000000000000 ) ) ;
#240 = AXIS2_PLACEMENT_3D ( 'NONE', #35, #76, #194 ) ;
#241 = AXIS2_PLACEMENT_3D ( 'NONE', #126, #280, #111 ) ;
#242 = ORIENTED_EDGE ( 'NONE', *, *, #246, .T. ) ;
#243 = VERTEX_POINT ( 'NONE', #272 ) ;
#244 = FACE_BOUND ( 'NONE', #288, .T. ) ;
#245 = DIRECTION ( 'NONE',  ( 0.0000000000000000000, 1.000000000000000000, 0.0000000000000000000 ) ) ;
#246 = EDGE_CURVE ( 'NONE', #94, #94, #131, .T. ) ;
#247 = CARTESIAN_POINT ( 'NONE',  ( 8.849961221477468513E-14, 1.305384493975577209, 25.34729635533384240 ) ) ;
#248 = UNCERTAINTY_MEASURE_WITH_UNIT (LENGTH_MEASURE( 1.000000000000000082E-05 ), #169, 'distance_accuracy_value', 'NONE');
#249 = EDGE_LOOP ( 'NONE', ( #39 ) ) ;
#250 = DATE_AND_TIME ( #284, #119 ) ;
#251 = FACE_OUTER_BOUND ( 'NONE', #249, .T. ) ;
#252 = EDGE_CURVE ( 'NONE', #97, #97, #98, .T. ) ;
#253 = CIRCLE ( 'NONE', #93, 1.274999999999999689 ) ;
#254 = AXIS2_PLACEMENT_3D ( 'NONE', #225, #80, #10 ) ;
#255 = EDGE_LOOP ( 'NONE', ( #146 ) ) ;
#256 = DIRECTION ( 'NONE',  ( -4.275831445896959482E-31, -1.000000000000000000, -1.224646799147353454E-16 ) ) ;
#257 = APPROVAL_ROLE ( '' ) ;
#258 = FACE_OUTER_BOUND ( 'NONE', #255, .T. ) ;
#259 = AXIS2_PLACEMENT_3D ( 'NONE', #57, #173, #83 ) ;
#260 = COORDINATED_UNIVERSAL_TIME_OFFSET ( 1, 0, .AHEAD. ) ;
#261 = APPROVAL_DATE_TIME ( #208, #144 ) ;
#262 = PRODUCT_RELATED_PRODUCT_CATEGORY ( 'detail', '', ( #58 ) ) ;
#263 = TOROIDAL_SURFACE ( 'NONE', #72, 3.274999999999999911, 2.000000000000000000 ) ;
#264 = CARTESIAN_POINT ( 'NONE',  ( 9.235322783731659030E-14, -3.239315175585918577E-15, 26.45101573646585535 ) ) ;
#265 = EDGE_CURVE ( 'NONE', #243, #243, #231, .T. ) ;
#266 = EDGE_LOOP ( 'NONE', ( #74 ) ) ;
#267 = VERTEX_POINT ( 'NONE', #16 ) ;
#268 = AXIS2_PLACEMENT_3D ( 'NONE', #121, #141, #123 ) ;
#269 = ORIENTED_EDGE ( 'NONE', *, *, #191, .T. ) ;
#270 = CONICAL_SURFACE ( 'NONE', #254, 1.200000000000001510, 0.7853981633974453924 ) ;
#271 = PRODUCT_DEFINITION_SHAPE ( 'NONE', 'NONE',  #139 ) ;
#272 = CARTESIAN_POINT ( 'NONE',  ( 0.0000000000000000000, 1.334162432702594492, 0.0000000000000000000 ) ) ;
#273 = DIRECTION ( 'NONE',  ( 4.275831445896959482E-31, 1.000000000000000000, 1.224646799147353454E-16 ) ) ;
#274 = VERTEX_POINT ( 'NONE', #148 ) ;
#275 = ORIENTED_EDGE ( 'NONE', *, *, #265, .F. ) ;
#276 = COORDINATED_UNIVERSAL_TIME_OFFSET ( 1, 0, .AHEAD. ) ;
#277 = PLANE ( 'NONE',  #23 ) ;
#278 = APPROVAL_DATE_TIME ( #87, #283 ) ;
#279 = CARTESIAN_POINT ( 'NONE',  ( 3.491481338843133355E-14, 1.108697419332776833E-32, 10.00000000000000000 ) ) ;
#280 = DIRECTION ( 'NONE',  ( -3.491481338843133355E-15, 1.224646799147353454E-16, -1.000000000000000000 ) ) ;
#281 =( GEOMETRIC_REPRESENTATION_CONTEXT ( 3 ) GLOBAL_UNCERTAINTY_ASSIGNED_CONTEXT ( ( #248 ) ) GLOBAL_UNIT_ASSIGNED_CONTEXT ( ( #169, #287, #22 ) ) REPRESENTATION_CONTEXT ( 'NONE', 'WORKASPACE' ) );
#282 = ORIENTED_EDGE ( 'NONE', *, *, #246, .F. ) ;
#283 = APPROVAL ( #127, 'UNSPECIFIED' ) ;
#284 = CALENDAR_DATE ( 2021, 30, 11 ) ;
#285 = PERSON_AND_ORGANIZATION_ROLE ( 'design_supplier' ) ;
#286 = AXIS2_PLACEMENT_3D ( 'NONE', #183, #207, #107 ) ;
#287 =( NAMED_UNIT ( * ) PLANE_ANGLE_UNIT ( ) SI_UNIT ( $, .RADIAN. ) );
#288 = EDGE_LOOP ( 'NONE', ( #242 ) ) ;
#289 = CC_DESIGN_PERSON_AND_ORGANIZATION_ASSIGNMENT ( #113, #3, ( #139 ) ) ;
#290 = DIRECTION ( 'NONE',  ( 0.0000000000000000000, 1.000000000000000000, 0.0000000000000000000 ) ) ;
#291 = ORIENTED_EDGE ( 'NONE', *, *, #53, .F. ) ;
#292 = DIRECTION ( 'NONE',  ( 4.275831445896959482E-31, 1.000000000000000000, 1.224646799147353454E-16 ) ) ;
#293 = VERTEX_POINT ( 'NONE', #222 ) ;
#294 = CLOSED_SHELL ( 'NONE', ( #162, #60, #202, #11, #6, #156, #218, #226 ) ) ;
#295 = APPROVAL_PERSON_ORGANIZATION ( #150, #283, #21 ) ;
#296 = CYLINDRICAL_SURFACE ( 'NONE', #233, 1.274999999999998801 ) ;
#297 = DIRECTION ( 'NONE',  ( 3.491481338843133355E-15, -1.224646799147353454E-16, 1.000000000000000000 ) ) ;
#298 = CALENDAR_DATE ( 2021, 30, 11 ) ;
#299 = CARTESIAN_POINT ( 'NONE',  ( -2.852326841842069647E-31, 1.000461580052829557E-32, -8.169388763759393739E-17 ) ) ;
#300 = DATE_AND_TIME ( #40, #301 ) ;
#301 = LOCAL_TIME ( 10, 57, 14.00000000000000000, #229 ) ;
#302 = DIRECTION ( 'NONE',  ( -3.907872731255808719E-31, -1.000000000000000000, -1.099968386018436413E-16 ) ) ;
#303 = FACE_OUTER_BOUND ( 'NONE', #182, .T. ) ;
ENDSEC;
END-ISO-10303-21;
