ISO-10303-21;
HEADER;
FILE_DESCRIPTION (( 'STEP AP203' ),
    '1' );
FILE_NAME ('960953.step',
    '2021-11-30T08:32:48',
    ( '' ),
    ( '' ),
    'SwSTEP 2.0',
    'SolidWorks 2019',
    '' );
FILE_SCHEMA (( 'CONFIG_CONTROL_DESIGN' ));
ENDSEC;

DATA;
#1 = DIRECTION ( 'NONE',  ( 3.491481338843133355E-15, -1.224646799147353207E-16, 1.000000000000000000 ) ) ;
#2 = VERTEX_POINT ( 'NONE', #39 ) ;
#3 = VERTEX_POINT ( 'NONE', #176 ) ;
#4 = ORIENTED_EDGE ( 'NONE', *, *, #22, .F. ) ;
#5 = AXIS2_PLACEMENT_3D ( 'NONE', #104, #1, #79 ) ;
#6 = ORIENTED_EDGE ( 'NONE', *, *, #22, .T. ) ;
#7 = EDGE_LOOP ( 'NONE', ( #83 ) ) ;
#8 = AXIS2_PLACEMENT_3D ( 'NONE', #32, #266, #116 ) ;
#9 = ORIENTED_EDGE ( 'NONE', *, *, #191, .T. ) ;
#10 = APPROVAL_DATE_TIME ( #49, #29 ) ;
#11 = FACE_BOUND ( 'NONE', #145, .T. ) ;
#12 = CARTESIAN_POINT ( 'NONE',  ( 1.745740669421566678E-13, 8.998558695971067645E-33, 50.00000000000000000 ) ) ;
#13 = DIRECTION ( 'NONE',  ( 0.0000000000000000000, 1.000000000000000000, 0.0000000000000000000 ) ) ;
#14 = PERSON_AND_ORGANIZATION_ROLE ( 'creator' ) ;
#15 = EDGE_LOOP ( 'NONE', ( #263 ) ) ;
#16 = ORIENTED_EDGE ( 'NONE', *, *, #187, .F. ) ;
#17 = DIRECTION ( 'NONE',  ( -3.491481338843133355E-15, 1.224646799147353207E-16, -1.000000000000000000 ) ) ;
#18 = CARTESIAN_POINT ( 'NONE',  ( 5.935518276033326704E-14, -2.081899558550500280E-15, 17.00000000000000000 ) ) ;
#19 = DIRECTION ( 'NONE',  ( -3.491481338843133355E-15, 1.224646799147353207E-16, -1.000000000000000000 ) ) ;
#20 = PLANE ( 'NONE',  #5 ) ;
#21 = FACE_OUTER_BOUND ( 'NONE', #219, .T. ) ;
#22 = EDGE_CURVE ( 'NONE', #63, #63, #65, .T. ) ;
#23 = APPLICATION_PROTOCOL_DEFINITION ( 'international standard', 'config_control_design', 1994, #174 ) ;
#24 = EDGE_LOOP ( 'NONE', ( #4 ) ) ;
#25 = PERSON_AND_ORGANIZATION_ROLE ( 'creator' ) ;
#26 = LOCAL_TIME ( 9, 32, 48.00000000000000000, #208 ) ;
#27 = CARTESIAN_POINT ( 'NONE',  ( 2.855775899875449572E-14, -1.001671346759487905E-15, 8.179267258583378108 ) ) ;
#28 = CONICAL_SURFACE ( 'NONE', #224, 1.200000000000001732, 0.7853981633974453924 ) ;
#29 = APPROVAL ( #41, 'UNSPECIFIED' ) ;
#30 = ADVANCED_FACE ( 'NONE', ( #245 ), #138, .T. ) ;
#31 = DIRECTION ( 'NONE',  ( 4.216595390010372544E-31, 1.000000000000000000, 1.186866089201429065E-16 ) ) ;
#32 = CARTESIAN_POINT ( 'NONE',  ( 8.728703347107831416E-16, -3.061616997868382402E-17, 0.2499999999999999445 ) ) ;
#33 = CONICAL_SURFACE ( 'NONE', #168, 0.9135000000000000897, 0.5235987755983011471 ) ;
#34 = CARTESIAN_POINT ( 'NONE',  ( 0.0000000000000000000, 0.0000000000000000000, 0.0000000000000000000 ) ) ;
#35 = CARTESIAN_POINT ( 'NONE',  ( 1.745740669421566678E-13, -6.123233995736766085E-15, 50.00000000000000000 ) ) ;
#36 = DIRECTION ( 'NONE',  ( -3.491481338843133355E-15, 1.224646799147353207E-16, -1.000000000000000000 ) ) ;
#37 = DIRECTION ( 'NONE',  ( -4.275831445896958607E-31, -1.000000000000000000, -1.224646799147353207E-16 ) ) ;
#38 = SECURITY_CLASSIFICATION ( '', '', #217 ) ;
#39 = CARTESIAN_POINT ( 'NONE',  ( 8.728703347107835360E-16, 0.9134999999999992015, 0.2500000000000000555 ) ) ;
#40 = CIRCLE ( 'NONE', #268, 0.8099999999999998312 ) ;
#41 = APPROVAL_STATUS ( 'not_yet_approved' ) ;
#42 = CARTESIAN_POINT ( 'NONE',  ( 0.0000000000000000000, 0.0000000000000000000, 0.0000000000000000000 ) ) ;
#43 = CIRCLE ( 'NONE', #283, 0.9134999999999992015 ) ;
#44 = ORIENTED_EDGE ( 'NONE', *, *, #196, .T. ) ;
#45 = DIRECTION ( 'NONE',  ( 1.000000000000000000, 0.0000000000000000000, 0.0000000000000000000 ) ) ;
#46 = ORIENTED_EDGE ( 'NONE', *, *, #67, .F. ) ;
#47 = PERSON_AND_ORGANIZATION ( #136, #253 ) ;
#48 = CC_DESIGN_APPROVAL ( #259, ( #38 ) ) ;
#49 = DATE_AND_TIME ( #206, #291 ) ;
#50 = MANIFOLD_SOLID_BREP ( 'Corps-Déplacer/Copier1[1]', #258 ) ;
#51 = ORIENTED_EDGE ( 'NONE', *, *, #67, .T. ) ;
#52 = DIRECTION ( 'NONE',  ( 3.491481338843133355E-15, -1.224646799147353207E-16, 1.000000000000000000 ) ) ;
#53 = CARTESIAN_POINT ( 'NONE',  ( 7.362892333441163905E-14, 1.499999999999994005, 21.08816178258820173 ) ) ;
#54 = AXIS2_PLACEMENT_3D ( 'NONE', #275, #279, #226 ) ;
#55 = VERTEX_POINT ( 'NONE', #241 ) ;
#56 = DIRECTION ( 'NONE',  ( -3.491481338843133355E-15, 1.224646799147353207E-16, -1.000000000000000000 ) ) ;
#57 = ADVANCED_FACE ( 'NONE', ( #122, #163 ), #179, .T. ) ;
#58 = AXIS2_PLACEMENT_3D ( 'NONE', #42, #286, #45 ) ;
#59 = LOCAL_TIME ( 9, 32, 48.00000000000000000, #244 ) ;
#60 = DIRECTION ( 'NONE',  ( 0.0000000000000000000, 1.000000000000000000, 0.0000000000000000000 ) ) ;
#61 = AXIS2_PLACEMENT_3D ( 'NONE', #12, #93, #188 ) ;
#62 = CARTESIAN_POINT ( 'NONE',  ( 5.935518276033326704E-14, -2.168404344971008868E-15, 17.00000000000000000 ) ) ;
#63 = VERTEX_POINT ( 'NONE', #154 ) ;
#64 = ORIENTED_EDGE ( 'NONE', *, *, #191, .F. ) ;
#65 = CIRCLE ( 'NONE', #110, 0.8100000000000004974 ) ;
#66 = ORIENTED_EDGE ( 'NONE', *, *, #171, .F. ) ;
#67 = EDGE_CURVE ( 'NONE', #2, #2, #43, .T. ) ;
#68 = DIRECTION ( 'NONE',  ( -3.491481338843133355E-15, 1.224646799147353207E-16, -1.000000000000000000 ) ) ;
#69 = CARTESIAN_POINT ( 'NONE',  ( 8.728703347107831416E-16, -3.061616997868382402E-17, 0.2499999999999999445 ) ) ;
#70 = EDGE_CURVE ( 'NONE', #250, #250, #121, .T. ) ;
#71 = PERSON_AND_ORGANIZATION ( #136, #253 ) ;
#72 = DIRECTION ( 'NONE',  ( 0.0000000000000000000, 1.000000000000000000, 0.0000000000000000000 ) ) ;
#73 = DIRECTION ( 'NONE',  ( 0.0000000000000000000, 1.000000000000000000, 0.0000000000000000000 ) ) ;
#74 = AXIS2_PLACEMENT_3D ( 'NONE', #62, #102, #197 ) ;
#75 = CYLINDRICAL_SURFACE ( 'NONE', #115, 1.499999999999999112 ) ;
#76 = DIRECTION ( 'NONE',  ( 4.275831445896958607E-31, 1.000000000000000000, 1.224646799147353207E-16 ) ) ;
#77 = DIRECTION ( 'NONE',  ( -3.491481338843133355E-15, 1.224646799147353207E-16, -1.000000000000000000 ) ) ;
#78 = CC_DESIGN_PERSON_AND_ORGANIZATION_ASSIGNMENT ( #95, #215, ( #108 ) ) ;
#79 = DIRECTION ( 'NONE',  ( -4.275831445896958607E-31, -1.000000000000000000, -1.224646799147353207E-16 ) ) ;
#80 = CARTESIAN_POINT ( 'NONE',  ( 2.793185071074506684E-14, 0.9134999999999992015, 8.000000000000000000 ) ) ;
#81 = FACE_OUTER_BOUND ( 'NONE', #257, .T. ) ;
#82 = MECHANICAL_CONTEXT ( 'NONE', #254, 'mechanical' ) ;
#83 = ORIENTED_EDGE ( 'NONE', *, *, #196, .F. ) ;
#84 = ADVANCED_FACE ( 'NONE', ( #11, #167 ), #293, .T. ) ;
#85 = UNCERTAINTY_MEASURE_WITH_UNIT (LENGTH_MEASURE( 1.000000000000000082E-05 ), #294, 'distance_accuracy_value', 'NONE');
#86 = ORIENTED_EDGE ( 'NONE', *, *, #247, .F. ) ;
#87 = CC_DESIGN_PERSON_AND_ORGANIZATION_ASSIGNMENT ( #296, #239, ( #38 ) ) ;
#88 = CIRCLE ( 'NONE', #139, 1.500000000000001554 ) ;
#89 = DATE_AND_TIME ( #109, #297 ) ;
#90 = DATE_AND_TIME ( #189, #170 ) ;
#91 = EDGE_LOOP ( 'NONE', ( #112 ) ) ;
#92 = CC_DESIGN_DATE_AND_TIME_ASSIGNMENT ( #89, #184, ( #209 ) ) ;
#93 = DIRECTION ( 'NONE',  ( -3.491481338843133355E-15, 1.224646799147353207E-16, -1.000000000000000000 ) ) ;
#94 = CIRCLE ( 'NONE', #243, 1.200000000000001732 ) ;
#95 = PERSON_AND_ORGANIZATION ( #136, #253 ) ;
#96 = DIRECTION ( 'NONE',  ( -3.491481338843133355E-15, 1.224646799147353207E-16, -1.000000000000000000 ) ) ;
#97 = EDGE_LOOP ( 'NONE', ( #162 ) ) ;
#98 = CC_DESIGN_PERSON_AND_ORGANIZATION_ASSIGNMENT ( #47, #25, ( #209 ) ) ;
#99 = AXIS2_PLACEMENT_3D ( 'NONE', #190, #238, #242 ) ;
#100 = DIRECTION ( 'NONE',  ( 0.0000000000000000000, 1.000000000000000000, 0.0000000000000000000 ) ) ;
#101 = TOROIDAL_SURFACE ( 'NONE', #74, 2.809999999999999609, 2.000000000000000000 ) ;
#102 = DIRECTION ( 'NONE',  ( -3.491481338843133355E-15, 1.224646799147353207E-16, -1.000000000000000000 ) ) ;
#103 = DIRECTION ( 'NONE',  ( -3.491481338843133355E-15, 1.224646799147353207E-16, -1.000000000000000000 ) ) ;
#104 = CARTESIAN_POINT ( 'NONE',  ( 2.793185071074506684E-14, 6.850152807308021131E-33, 8.000000000000000000 ) ) ;
#105 = CIRCLE ( 'NONE', #146, 0.7691624327025947672 ) ;
#106 = DIRECTION ( 'NONE',  ( -3.491481338843133355E-15, 1.224646799147353207E-16, -1.000000000000000000 ) ) ;
#107 = APPROVAL_PERSON_ORGANIZATION ( #256, #267, #262 ) ;
#108 = PRODUCT_DEFINITION_FORMATION_WITH_SPECIFIED_SOURCE ( 'ANY', '', #130, .NOT_KNOWN. ) ;
#109 = CALENDAR_DATE ( 2021, 30, 11 ) ;
#110 = AXIS2_PLACEMENT_3D ( 'NONE', #27, #68, #13 ) ;
#111 = APPROVAL_STATUS ( 'not_yet_approved' ) ;
#112 = ORIENTED_EDGE ( 'NONE', *, *, #171, .T. ) ;
#113 = PRODUCT_RELATED_PRODUCT_CATEGORY ( 'detail', '', ( #130 ) ) ;
#114 = COORDINATED_UNIVERSAL_TIME_OFFSET ( 1, 0, .AHEAD. ) ;
#115 = AXIS2_PLACEMENT_3D ( 'NONE', #225, #106, #124 ) ;
#116 = DIRECTION ( 'NONE',  ( -4.216595390010372544E-31, -1.000000000000000000, -1.186866089201429065E-16 ) ) ;
#117 = COORDINATED_UNIVERSAL_TIME_OFFSET ( 1, 0, .AHEAD. ) ;
#118 = FACE_OUTER_BOUND ( 'NONE', #178, .T. ) ;
#119 = EDGE_LOOP ( 'NONE', ( #156 ) ) ;
#120 = ADVANCED_FACE ( 'NONE', ( #118 ), #214, .F. ) ;
#121 = CIRCLE ( 'NONE', #235, 0.8403844939755800159 ) ;
#122 = FACE_BOUND ( 'NONE', #270, .T. ) ;
#123 = CARTESIAN_POINT ( 'NONE',  ( 1.735266225405037467E-13, 1.499999999999995559, 49.70000000000000284 ) ) ;
#124 = DIRECTION ( 'NONE',  ( 4.275831445896958607E-31, 1.000000000000000000, 1.224646799147353454E-16 ) ) ;
#125 = AXIS2_PLACEMENT_3D ( 'NONE', #274, #52, #240 ) ;
#126 = CARTESIAN_POINT ( 'NONE',  ( 7.362892333441163905E-14, -2.582554982694817895E-15, 21.08816178258820173 ) ) ;
#127 = AXIS2_PLACEMENT_3D ( 'NONE', #301, #151, #76 ) ;
#128 = DIRECTION ( 'NONE',  ( 4.275831445896958607E-31, 1.000000000000000000, 1.224646799147353207E-16 ) ) ;
#129 = DIRECTION ( 'NONE',  ( 4.275831445896957731E-31, 1.000000000000000000, 1.224646799147352961E-16 ) ) ;
#130 = PRODUCT ( '960953', '960953', '', ( #82 ) ) ;
#131 = DIRECTION ( 'NONE',  ( 0.0000000000000000000, 1.000000000000000000, 0.0000000000000000000 ) ) ;
#132 = EDGE_LOOP ( 'NONE', ( #51 ) ) ;
#133 = APPROVAL_ROLE ( '' ) ;
#134 = DESIGN_CONTEXT ( 'detailed design', #174, 'design' ) ;
#135 = CIRCLE ( 'NONE', #222, 0.9135000000000000897 ) ;
#136 = PERSON ( 'UNSPECIFIED', 'UNSPECIFIED', 'UNSPECIFIED', ('UNSPECIFIED'), ('UNSPECIFIED'), ('UNSPECIFIED') ) ;
#137 = EDGE_LOOP ( 'NONE', ( #9 ) ) ;
#138 = PLANE ( 'NONE',  #99 ) ;
#139 = AXIS2_PLACEMENT_3D ( 'NONE', #221, #56, #172 ) ;
#140 = APPROVAL_ROLE ( '' ) ;
#141 = DIRECTION ( 'NONE',  ( -3.491481338843133355E-15, 1.224646799147353207E-16, -1.000000000000000000 ) ) ;
#142 = DATE_AND_TIME ( #165, #59 ) ;
#143 = EDGE_LOOP ( 'NONE', ( #216 ) ) ;
#144 = VERTEX_POINT ( 'NONE', #53 ) ;
#145 = EDGE_LOOP ( 'NONE', ( #185 ) ) ;
#146 = AXIS2_PLACEMENT_3D ( 'NONE', #277, #252, #128 ) ;
#147 = ORIENTED_EDGE ( 'NONE', *, *, #223, .F. ) ;
#148 = FACE_OUTER_BOUND ( 'NONE', #261, .T. ) ;
#149 = FACE_OUTER_BOUND ( 'NONE', #181, .T. ) ;
#150 = DIRECTION ( 'NONE',  ( 0.0000000000000000000, 1.000000000000000000, 0.0000000000000000000 ) ) ;
#151 = DIRECTION ( 'NONE',  ( -3.491481338843133355E-15, 1.224646799147353207E-16, -1.000000000000000000 ) ) ;
#152 = MANIFOLD_SOLID_BREP ( 'Corps-Déplacer/Copier1[2]', #299 ) ;
#153 = FACE_OUTER_BOUND ( 'NONE', #24, .T. ) ;
#154 = CARTESIAN_POINT ( 'NONE',  ( 2.855775899875449572E-14, 0.8099999999999994982, 8.179267258583378108 ) ) ;
#155 = VERTEX_POINT ( 'NONE', #231 ) ;
#156 = ORIENTED_EDGE ( 'NONE', *, *, #223, .T. ) ;
#157 = AXIS2_PLACEMENT_3D ( 'NONE', #34, #77, #129 ) ;
#158 = CC_DESIGN_APPROVAL ( #267, ( #209 ) ) ;
#159 = ADVANCED_FACE ( 'NONE', ( #292, #148 ), #33, .T. ) ;
#160 = EDGE_LOOP ( 'NONE', ( #44 ) ) ;
#161 = CALENDAR_DATE ( 2021, 30, 11 ) ;
#162 = ORIENTED_EDGE ( 'NONE', *, *, #182, .F. ) ;
#163 = FACE_OUTER_BOUND ( 'NONE', #132, .T. ) ;
#164 = DATE_TIME_ROLE ( 'classification_date' ) ;
#165 = CALENDAR_DATE ( 2021, 30, 11 ) ;
#166 = APPROVAL_STATUS ( 'not_yet_approved' ) ;
#167 = FACE_OUTER_BOUND ( 'NONE', #119, .T. ) ;
#168 = AXIS2_PLACEMENT_3D ( 'NONE', #298, #192, #73 ) ;
#169 = CARTESIAN_POINT ( 'NONE',  ( 2.793185071074506684E-14, -9.797174393178825657E-16, 8.000000000000000000 ) ) ;
#170 = LOCAL_TIME ( 9, 32, 48.00000000000000000, #117 ) ;
#171 = EDGE_CURVE ( 'NONE', #199, #199, #200, .T. ) ;
#172 = DIRECTION ( 'NONE',  ( 0.0000000000000000000, 1.000000000000000000, 0.0000000000000000000 ) ) ;
#173 = FACE_OUTER_BOUND ( 'NONE', #137, .T. ) ;
#174 = APPLICATION_CONTEXT ( 'configuration controlled 3d designs of mechanical parts and assemblies' ) ;
#175 = CYLINDRICAL_SURFACE ( 'NONE', #127, 0.8100000000000001643 ) ;
#176 = CARTESIAN_POINT ( 'NONE',  ( 0.0000000000000000000, 0.7691624327025947672, 0.0000000000000000000 ) ) ;
#177 =( NAMED_UNIT ( * ) SI_UNIT ( $, .STERADIAN. ) SOLID_ANGLE_UNIT ( ) );
#178 = EDGE_LOOP ( 'NONE', ( #16 ) ) ;
#179 = CONICAL_SURFACE ( 'NONE', #8, 0.9134999999999992015, 0.5235987755982925984 ) ;
#180 = AXIS2_PLACEMENT_3D ( 'NONE', #126, #17, #230 ) ;
#181 = EDGE_LOOP ( 'NONE', ( #46 ) ) ;
#182 = EDGE_CURVE ( 'NONE', #203, #203, #135, .T. ) ;
#183 = APPROVAL_PERSON_ORGANIZATION ( #290, #29, #133 ) ;
#184 = DATE_TIME_ROLE ( 'creation_date' ) ;
#185 = ORIENTED_EDGE ( 'NONE', *, *, #70, .F. ) ;
#186 = APPROVAL_DATE_TIME ( #142, #259 ) ;
#187 = EDGE_CURVE ( 'NONE', #155, #155, #94, .T. ) ;
#188 = DIRECTION ( 'NONE',  ( 4.275831445896958607E-31, 1.000000000000000000, 1.224646799147353207E-16 ) ) ;
#189 = CALENDAR_DATE ( 2021, 30, 11 ) ;
#190 = CARTESIAN_POINT ( 'NONE',  ( 2.793185071074506684E-14, 6.850152807308021131E-33, 8.000000000000000000 ) ) ;
#191 = EDGE_CURVE ( 'NONE', #3, #3, #105, .T. ) ;
#192 = DIRECTION ( 'NONE',  ( -3.491481338843133355E-15, 1.224646799147353207E-16, -1.000000000000000000 ) ) ;
#193 = CC_DESIGN_SECURITY_CLASSIFICATION ( #38, ( #108 ) ) ;
#194 = CIRCLE ( 'NONE', #180, 1.499999999999996669 ) ;
#195 = PLANE ( 'NONE',  #284 ) ;
#196 = EDGE_CURVE ( 'NONE', #213, #213, #88, .T. ) ;
#197 = DIRECTION ( 'NONE',  ( 4.275831445896958607E-31, 1.000000000000000000, 1.224646799147353207E-16 ) ) ;
#198 = CYLINDRICAL_SURFACE ( 'NONE', #157, 0.9134999999999996456 ) ;
#199 = VERTEX_POINT ( 'NONE', #303 ) ;
#200 = CIRCLE ( 'NONE', #54, 0.9135000000000000897 ) ;
#201 =( NAMED_UNIT ( * ) PLANE_ANGLE_UNIT ( ) SI_UNIT ( $, .RADIAN. ) );
#202 = FACE_OUTER_BOUND ( 'NONE', #233, .T. ) ;
#203 = VERTEX_POINT ( 'NONE', #80 ) ;
#204 = FACE_BOUND ( 'NONE', #15, .T. ) ;
#205 = EDGE_LOOP ( 'NONE', ( #147 ) ) ;
#206 = CALENDAR_DATE ( 2021, 30, 11 ) ;
#207 = EDGE_LOOP ( 'NONE', ( #6 ) ) ;
#208 = COORDINATED_UNIVERSAL_TIME_OFFSET ( 1, 0, .AHEAD. ) ;
#209 = PRODUCT_DEFINITION ( 'UNKNOWN', '', #108, #134 ) ;
#210 = ADVANCED_FACE ( 'NONE', ( #173 ), #195, .F. ) ;
#211 = PERSON_AND_ORGANIZATION ( #136, #253 ) ;
#212 = CARTESIAN_POINT ( 'NONE',  ( 6.056776150402961829E-14, -2.124431095542013598E-15, 17.34729635533384240 ) ) ;
#213 = VERTEX_POINT ( 'NONE', #123 ) ;
#214 = PLANE ( 'NONE',  #61 ) ;
#215 = PERSON_AND_ORGANIZATION_ROLE ( 'design_supplier' ) ;
#216 = ORIENTED_EDGE ( 'NONE', *, *, #182, .T. ) ;
#217 = SECURITY_CLASSIFICATION_LEVEL ( 'unclassified' ) ;
#218 = PRODUCT_DEFINITION_SHAPE ( 'NONE', 'NONE',  #209 ) ;
#219 = EDGE_LOOP ( 'NONE', ( #269 ) ) ;
#220 =( GEOMETRIC_REPRESENTATION_CONTEXT ( 3 ) GLOBAL_UNCERTAINTY_ASSIGNED_CONTEXT ( ( #85 ) ) GLOBAL_UNIT_ASSIGNED_CONTEXT ( ( #294, #201, #177 ) ) REPRESENTATION_CONTEXT ( 'NONE', 'WORKASPACE' ) );
#221 = CARTESIAN_POINT ( 'NONE',  ( 1.735266225405037467E-13, -6.086494591762345225E-15, 49.70000000000000284 ) ) ;
#222 = AXIS2_PLACEMENT_3D ( 'NONE', #169, #19, #100 ) ;
#223 = EDGE_CURVE ( 'NONE', #144, #144, #194, .T. ) ;
#224 = AXIS2_PLACEMENT_3D ( 'NONE', #281, #282, #60 ) ;
#225 = CARTESIAN_POINT ( 'NONE',  ( 0.0000000000000000000, 0.0000000000000000000, 0.0000000000000000000 ) ) ;
#226 = DIRECTION ( 'NONE',  ( 0.0000000000000000000, 1.000000000000000000, 0.0000000000000000000 ) ) ;
#227 = CARTESIAN_POINT ( 'NONE',  ( 6.056776150402961829E-14, 0.8403844939755779064, 17.34729635533384240 ) ) ;
#228 = CC_DESIGN_DATE_AND_TIME_ASSIGNMENT ( #90, #164, ( #38 ) ) ;
#229 = FACE_OUTER_BOUND ( 'NONE', #91, .T. ) ;
#230 = DIRECTION ( 'NONE',  ( 0.0000000000000000000, 1.000000000000000000, 0.0000000000000000000 ) ) ;
#231 = CARTESIAN_POINT ( 'NONE',  ( 1.745740669421566678E-13, 1.199999999999995515, 50.00000000000000000 ) ) ;
#232 = COORDINATED_UNIVERSAL_TIME_OFFSET ( 1, 0, .AHEAD. ) ;
#233 = EDGE_LOOP ( 'NONE', ( #237 ) ) ;
#234 = ADVANCED_FACE ( 'NONE', ( #246, #302 ), #75, .T. ) ;
#235 = AXIS2_PLACEMENT_3D ( 'NONE', #212, #141, #72 ) ;
#236 = APPLICATION_PROTOCOL_DEFINITION ( 'international standard', 'config_control_design', 1994, #254 ) ;
#237 = ORIENTED_EDGE ( 'NONE', *, *, #247, .T. ) ;
#238 = DIRECTION ( 'NONE',  ( 3.491481338843133355E-15, -1.224646799147353207E-16, 1.000000000000000000 ) ) ;
#239 = PERSON_AND_ORGANIZATION_ROLE ( 'classification_officer' ) ;
#240 = DIRECTION ( 'NONE',  ( 0.0000000000000000000, -1.000000000000000000, 0.0000000000000000000 ) ) ;
#241 = CARTESIAN_POINT ( 'NONE',  ( 5.935518276033326704E-14, 0.8099999999999978328, 17.00000000000000000 ) ) ;
#242 = DIRECTION ( 'NONE',  ( -4.275831445896958607E-31, -1.000000000000000000, -1.224646799147353207E-16 ) ) ;
#243 = AXIS2_PLACEMENT_3D ( 'NONE', #35, #103, #150 ) ;
#244 = COORDINATED_UNIVERSAL_TIME_OFFSET ( 1, 0, .AHEAD. ) ;
#245 = FACE_OUTER_BOUND ( 'NONE', #97, .T. ) ;
#246 = FACE_OUTER_BOUND ( 'NONE', #205, .T. ) ;
#247 = EDGE_CURVE ( 'NONE', #55, #55, #40, .T. ) ;
#248 = CARTESIAN_POINT ( 'NONE',  ( -1.644404458376178915E-31, 5.767794414508546320E-33, -4.709761556168120578E-17 ) ) ;
#249 = FACE_OUTER_BOUND ( 'NONE', #143, .T. ) ;
#250 = VERTEX_POINT ( 'NONE', #227 ) ;
#251 = ADVANCED_FACE ( 'NONE', ( #81, #21 ), #101, .F. ) ;
#252 = DIRECTION ( 'NONE',  ( -3.491481338843133355E-15, 1.224646799147353207E-16, -1.000000000000000000 ) ) ;
#253 = ORGANIZATION ( 'UNSPECIFIED', 'UNSPECIFIED', '' ) ;
#254 = APPLICATION_CONTEXT ( 'configuration controlled 3d designs of mechanical parts and assemblies' ) ;
#255 = PERSON_AND_ORGANIZATION_ROLE ( 'design_owner' ) ;
#256 = PERSON_AND_ORGANIZATION ( #136, #253 ) ;
#257 = EDGE_LOOP ( 'NONE', ( #86 ) ) ;
#258 = CLOSED_SHELL ( 'NONE', ( #289, #159, #264, #251, #84, #234, #276, #120 ) ) ;
#259 = APPROVAL ( #166, 'UNSPECIFIED' ) ;
#260 = APPROVAL_DATE_TIME ( #288, #267 ) ;
#261 = EDGE_LOOP ( 'NONE', ( #66 ) ) ;
#262 = APPROVAL_ROLE ( '' ) ;
#263 = ORIENTED_EDGE ( 'NONE', *, *, #187, .T. ) ;
#264 = ADVANCED_FACE ( 'NONE', ( #202, #153 ), #175, .T. ) ;
#265 = CC_DESIGN_APPROVAL ( #29, ( #108 ) ) ;
#266 = DIRECTION ( 'NONE',  ( 3.491481338843133355E-15, -1.224646799147353207E-16, 1.000000000000000000 ) ) ;
#267 = APPROVAL ( #111, 'UNSPECIFIED' ) ;
#268 = AXIS2_PLACEMENT_3D ( 'NONE', #18, #36, #131 ) ;
#269 = ORIENTED_EDGE ( 'NONE', *, *, #70, .T. ) ;
#270 = EDGE_LOOP ( 'NONE', ( #64 ) ) ;
#271 = ADVANCED_BREP_SHAPE_REPRESENTATION ( '960953', ( #50, #152, #58 ), #220 ) ;
#272 = APPROVAL_PERSON_ORGANIZATION ( #71, #259, #140 ) ;
#273 = SHAPE_DEFINITION_REPRESENTATION ( #218, #271 ) ;
#274 = CARTESIAN_POINT ( 'NONE',  ( 7.362892333441163905E-14, -2.582554982694817895E-15, 21.08816178258820173 ) ) ;
#275 = CARTESIAN_POINT ( 'NONE',  ( 2.793185071074506684E-14, -9.797174393178825657E-16, 8.000000000000000000 ) ) ;
#276 = ADVANCED_FACE ( 'NONE', ( #278, #204 ), #28, .T. ) ;
#277 = CARTESIAN_POINT ( 'NONE',  ( -3.288808916752357830E-31, 1.153558882901709264E-32, -9.419523112336241156E-17 ) ) ;
#278 = FACE_OUTER_BOUND ( 'NONE', #7, .T. ) ;
#279 = DIRECTION ( 'NONE',  ( -3.491481338843133355E-15, 1.224646799147353207E-16, -1.000000000000000000 ) ) ;
#280 = ADVANCED_FACE ( 'NONE', ( #149, #249 ), #198, .T. ) ;
#281 = CARTESIAN_POINT ( 'NONE',  ( 1.745740669421566678E-13, -6.123233995736766085E-15, 50.00000000000000000 ) ) ;
#282 = DIRECTION ( 'NONE',  ( -3.491481338843133355E-15, 1.224646799147353207E-16, -1.000000000000000000 ) ) ;
#283 = AXIS2_PLACEMENT_3D ( 'NONE', #69, #96, #31 ) ;
#284 = AXIS2_PLACEMENT_3D ( 'NONE', #248, #300, #37 ) ;
#285 = PERSON_AND_ORGANIZATION ( #136, #253 ) ;
#286 = DIRECTION ( 'NONE',  ( 0.0000000000000000000, 0.0000000000000000000, 1.000000000000000000 ) ) ;
#287 = CC_DESIGN_PERSON_AND_ORGANIZATION_ASSIGNMENT ( #211, #14, ( #108 ) ) ;
#288 = DATE_AND_TIME ( #161, #26 ) ;
#289 = ADVANCED_FACE ( 'NONE', ( #229 ), #20, .F. ) ;
#290 = PERSON_AND_ORGANIZATION ( #136, #253 ) ;
#291 = LOCAL_TIME ( 9, 32, 48.00000000000000000, #232 ) ;
#292 = FACE_BOUND ( 'NONE', #207, .T. ) ;
#293 = CONICAL_SURFACE ( 'NONE', #125, 1.499999999999996669, 0.1745329251994262310 ) ;
#294 =( LENGTH_UNIT ( ) NAMED_UNIT ( * ) SI_UNIT ( .MILLI., .METRE. ) );
#295 = CC_DESIGN_PERSON_AND_ORGANIZATION_ASSIGNMENT ( #285, #255, ( #130 ) ) ;
#296 = PERSON_AND_ORGANIZATION ( #136, #253 ) ;
#297 = LOCAL_TIME ( 9, 32, 48.00000000000000000, #114 ) ;
#298 = CARTESIAN_POINT ( 'NONE',  ( 2.793185071074506684E-14, -9.797174393178825657E-16, 8.000000000000000000 ) ) ;
#299 = CLOSED_SHELL ( 'NONE', ( #210, #57, #280, #30 ) ) ;
#300 = DIRECTION ( 'NONE',  ( 3.491481338843133355E-15, -1.224646799147353207E-16, 1.000000000000000000 ) ) ;
#301 = CARTESIAN_POINT ( 'NONE',  ( 0.0000000000000000000, 0.0000000000000000000, 0.0000000000000000000 ) ) ;
#302 = FACE_OUTER_BOUND ( 'NONE', #160, .T. ) ;
#303 = CARTESIAN_POINT ( 'NONE',  ( 2.793185071074506684E-14, 0.9134999999999992015, 8.000000000000000000 ) ) ;
ENDSEC;
END-ISO-10303-21;
