ISO-10303-21;
HEADER;
FILE_DESCRIPTION (( 'STEP AP203' ),
    '1' );
FILE_NAME ('960888.step',
    '2021-11-30T09:57:13',
    ( '' ),
    ( '' ),
    'SwSTEP 2.0',
    'SolidWorks 2019',
    '' );
FILE_SCHEMA (( 'CONFIG_CONTROL_DESIGN' ));
ENDSEC;

DATA;
#1 = AXIS2_PLACEMENT_3D ( 'NONE', #240, #288, #160 ) ;
#2 = FACE_OUTER_BOUND ( 'NONE', #91, .T. ) ;
#3 = DIRECTION ( 'NONE',  ( -3.491481338843133355E-15, 1.224646799147353454E-16, -1.000000000000000000 ) ) ;
#4 = DIRECTION ( 'NONE',  ( -3.491481338843133355E-15, 1.224646799147353454E-16, -1.000000000000000000 ) ) ;
#5 = DIRECTION ( 'NONE',  ( -3.491481338843133355E-15, 1.224646799147353454E-16, -1.000000000000000000 ) ) ;
#6 = CIRCLE ( 'NONE', #290, 1.413499999999999979 ) ;
#7 = DIRECTION ( 'NONE',  ( 3.491481338843133355E-15, -1.224646799147353454E-16, 1.000000000000000000 ) ) ;
#8 = APPLICATION_CONTEXT ( 'configuration controlled 3d designs of mechanical parts and assemblies' ) ;
#9 =( NAMED_UNIT ( * ) PLANE_ANGLE_UNIT ( ) SI_UNIT ( $, .RADIAN. ) );
#10 = CLOSED_SHELL ( 'NONE', ( #198, #149, #271, #124, #34, #238, #298, #231 ) ) ;
#11 = APPROVAL_PERSON_ORGANIZATION ( #266, #294, #291 ) ;
#12 = EDGE_LOOP ( 'NONE', ( #179 ) ) ;
#13 = MECHANICAL_CONTEXT ( 'NONE', #104, 'mechanical' ) ;
#14 = EDGE_LOOP ( 'NONE', ( #251 ) ) ;
#15 = CARTESIAN_POINT ( 'NONE',  ( 2.129803616694311221E-13, 1.199999999999993960, 61.00000000000000000 ) ) ;
#16 = COORDINATED_UNIVERSAL_TIME_OFFSET ( 1, 0, .AHEAD. ) ;
#17 = EDGE_LOOP ( 'NONE', ( #84 ) ) ;
#18 = CARTESIAN_POINT ( 'NONE',  ( 8.728703347107833388E-16, 1.413499999999998646, 0.2500000000000000000 ) ) ;
#19 = CONICAL_SURFACE ( 'NONE', #301, 1.200000000000001510, 0.7853981633974453924 ) ;
#20 = SECURITY_CLASSIFICATION ( '', '', #56 ) ;
#21 = CARTESIAN_POINT ( 'NONE',  ( 9.383831593535530478E-14, -3.291405054041850802E-15, 26.87636187293719559 ) ) ;
#22 = VERTEX_POINT ( 'NONE', #224 ) ;
#23 = DIRECTION ( 'NONE',  ( -3.491481338843133355E-15, 1.224646799147353454E-16, -1.000000000000000000 ) ) ;
#24 = DIRECTION ( 'NONE',  ( -3.491481338843133355E-15, 1.224646799147353454E-16, -1.000000000000000000 ) ) ;
#25 = PRODUCT_DEFINITION ( 'UNKNOWN', '', #286, #229 ) ;
#26 = AXIS2_PLACEMENT_3D ( 'NONE', #241, #3, #27 ) ;
#27 = DIRECTION ( 'NONE',  ( 4.275831445896960358E-31, 1.000000000000000000, 1.224646799147353454E-16 ) ) ;
#28 = PERSON_AND_ORGANIZATION_ROLE ( 'creator' ) ;
#29 = CARTESIAN_POINT ( 'NONE',  ( 8.728703347107833388E-14, -3.035766082959412415E-15, 25.00000000000000000 ) ) ;
#30 = DIRECTION ( 'NONE',  ( 3.491481338843133355E-15, -1.224646799147353454E-16, 1.000000000000000000 ) ) ;
#31 = LOCAL_TIME ( 10, 57, 13.00000000000000000, #16 ) ;
#32 = FACE_OUTER_BOUND ( 'NONE', #207, .T. ) ;
#33 = AXIS2_PLACEMENT_3D ( 'NONE', #143, #210, #214 ) ;
#34 = ADVANCED_FACE ( 'NONE', ( #255, #155 ), #48, .T. ) ;
#35 = VERTEX_POINT ( 'NONE', #42 ) ;
#36 = EDGE_LOOP ( 'NONE', ( #250 ) ) ;
#37 = VERTEX_POINT ( 'NONE', #180 ) ;
#38 = VERTEX_POINT ( 'NONE', #227 ) ;
#39 = EDGE_CURVE ( 'NONE', #40, #40, #6, .T. ) ;
#40 = VERTEX_POINT ( 'NONE', #230 ) ;
#41 = ORIENTED_EDGE ( 'NONE', *, *, #133, .F. ) ;
#42 = CARTESIAN_POINT ( 'NONE',  ( 3.620593821442183863E-14, 1.199999999999996847, 10.36979284741596530 ) ) ;
#43 = DIRECTION ( 'NONE',  ( 4.275831445896958607E-31, 1.000000000000000000, 1.224646799147353454E-16 ) ) ;
#44 = CARTESIAN_POINT ( 'NONE',  ( 2.129803616694311221E-13, 8.998558695971049855E-33, 61.00000000000000000 ) ) ;
#45 = ADVANCED_FACE ( 'NONE', ( #296, #83 ), #234, .T. ) ;
#46 = FACE_OUTER_BOUND ( 'NONE', #113, .T. ) ;
#47 = AXIS2_PLACEMENT_3D ( 'NONE', #29, #23, #43 ) ;
#48 = CONICAL_SURFACE ( 'NONE', #256, 1.499999999999996003, 0.1745329251994264252 ) ;
#49 = CARTESIAN_POINT ( 'NONE',  ( 0.0000000000000000000, 0.0000000000000000000, 0.0000000000000000000 ) ) ;
#50 = FACE_OUTER_BOUND ( 'NONE', #186, .T. ) ;
#51 = DIRECTION ( 'NONE',  ( -3.491481338843133355E-15, 1.224646799147353454E-16, -1.000000000000000000 ) ) ;
#52 = CC_DESIGN_APPROVAL ( #165, ( #20 ) ) ;
#53 = PERSON_AND_ORGANIZATION ( #125, #174 ) ;
#54 =( GEOMETRIC_REPRESENTATION_CONTEXT ( 3 ) GLOBAL_UNCERTAINTY_ASSIGNED_CONTEXT ( ( #58 ) ) GLOBAL_UNIT_ASSIGNED_CONTEXT ( ( #277, #9, #111 ) ) REPRESENTATION_CONTEXT ( 'NONE', 'WORKASPACE' ) );
#55 = DATE_AND_TIME ( #61, #98 ) ;
#56 = SECURITY_CLASSIFICATION_LEVEL ( 'unclassified' ) ;
#57 = EDGE_LOOP ( 'NONE', ( #299 ) ) ;
#58 = UNCERTAINTY_MEASURE_WITH_UNIT (LENGTH_MEASURE( 1.000000000000000082E-05 ), #277, 'distance_accuracy_value', 'NONE');
#59 = FACE_OUTER_BOUND ( 'NONE', #182, .T. ) ;
#60 = EDGE_LOOP ( 'NONE', ( #157 ) ) ;
#61 = CALENDAR_DATE ( 2021, 30, 11 ) ;
#62 = ORIENTED_EDGE ( 'NONE', *, *, #95, .F. ) ;
#63 = PERSON_AND_ORGANIZATION ( #125, #174 ) ;
#64 = EDGE_LOOP ( 'NONE', ( #109 ) ) ;
#65 = CARTESIAN_POINT ( 'NONE',  ( 2.129803616694311221E-13, -7.470345474798856659E-15, 61.00000000000000000 ) ) ;
#66 = CALENDAR_DATE ( 2021, 30, 11 ) ;
#67 = EDGE_LOOP ( 'NONE', ( #235 ) ) ;
#68 = AXIS2_PLACEMENT_3D ( 'NONE', #44, #24, #257 ) ;
#69 = PRODUCT_RELATED_PRODUCT_CATEGORY ( 'detail', '', ( #217 ) ) ;
#70 = DIRECTION ( 'NONE',  ( 3.491481338843133355E-15, -1.224646799147353454E-16, 1.000000000000000000 ) ) ;
#71 = PLANE ( 'NONE',  #279 ) ;
#72 = CC_DESIGN_PERSON_AND_ORGANIZATION_ASSIGNMENT ( #181, #82, ( #20 ) ) ;
#73 = CC_DESIGN_APPROVAL ( #294, ( #286 ) ) ;
#74 = FACE_OUTER_BOUND ( 'NONE', #129, .T. ) ;
#75 = COORDINATED_UNIVERSAL_TIME_OFFSET ( 1, 0, .AHEAD. ) ;
#76 = CARTESIAN_POINT ( 'NONE',  ( 0.0000000000000000000, 0.0000000000000000000, 0.0000000000000000000 ) ) ;
#77 = CC_DESIGN_DATE_AND_TIME_ASSIGNMENT ( #206, #147, ( #20 ) ) ;
#78 = AXIS2_PLACEMENT_3D ( 'NONE', #177, #226, #96 ) ;
#79 = SHAPE_DEFINITION_REPRESENTATION ( #172, #243 ) ;
#80 = CC_DESIGN_SECURITY_CLASSIFICATION ( #20, ( #286 ) ) ;
#81 = AXIS2_PLACEMENT_3D ( 'NONE', #101, #51, #170 ) ;
#82 = PERSON_AND_ORGANIZATION_ROLE ( 'classification_officer' ) ;
#83 = FACE_OUTER_BOUND ( 'NONE', #60, .T. ) ;
#84 = ORIENTED_EDGE ( 'NONE', *, *, #95, .T. ) ;
#85 = PERSON_AND_ORGANIZATION_ROLE ( 'design_owner' ) ;
#86 = ORIENTED_EDGE ( 'NONE', *, *, #105, .T. ) ;
#87 = CARTESIAN_POINT ( 'NONE',  ( 8.728703347107833388E-14, 1.199999999999997069, 25.00000000000000000 ) ) ;
#88 = CALENDAR_DATE ( 2021, 30, 11 ) ;
#89 = ORIENTED_EDGE ( 'NONE', *, *, #202, .T. ) ;
#90 = VERTEX_POINT ( 'NONE', #15 ) ;
#91 = EDGE_LOOP ( 'NONE', ( #281 ) ) ;
#92 = CARTESIAN_POINT ( 'NONE',  ( 3.491481338843133355E-14, 1.413499999999998646, 10.00000000000000000 ) ) ;
#93 = FACE_BOUND ( 'NONE', #12, .T. ) ;
#94 = PLANE ( 'NONE',  #212 ) ;
#95 = EDGE_CURVE ( 'NONE', #233, #233, #252, .T. ) ;
#96 = DIRECTION ( 'NONE',  ( -4.087576818649955999E-31, -1.000000000000000000, -1.150550589832513709E-16 ) ) ;
#97 = DIRECTION ( 'NONE',  ( 4.275831445896959482E-31, 1.000000000000000000, 1.224646799147353454E-16 ) ) ;
#98 = LOCAL_TIME ( 10, 57, 13.00000000000000000, #189 ) ;
#99 = FACE_OUTER_BOUND ( 'NONE', #151, .T. ) ;
#100 = CALENDAR_DATE ( 2021, 30, 11 ) ;
#101 = CARTESIAN_POINT ( 'NONE',  ( 3.491481338843133355E-14, -1.224646799147353454E-15, 10.00000000000000000 ) ) ;
#102 = ADVANCED_FACE ( 'NONE', ( #265, #237 ), #195, .T. ) ;
#103 = CIRCLE ( 'NONE', #263, 1.499999999999996003 ) ;
#104 = APPLICATION_CONTEXT ( 'configuration controlled 3d designs of mechanical parts and assemblies' ) ;
#105 = EDGE_CURVE ( 'NONE', #38, #38, #248, .T. ) ;
#106 = EDGE_LOOP ( 'NONE', ( #41 ) ) ;
#107 = EDGE_LOOP ( 'NONE', ( #276 ) ) ;
#108 = DIRECTION ( 'NONE',  ( 4.087576818649955999E-31, 1.000000000000000000, 1.150550589832513709E-16 ) ) ;
#109 = ORIENTED_EDGE ( 'NONE', *, *, #39, .F. ) ;
#110 = ORIENTED_EDGE ( 'NONE', *, *, #211, .T. ) ;
#111 =( NAMED_UNIT ( * ) SI_UNIT ( $, .STERADIAN. ) SOLID_ANGLE_UNIT ( ) );
#112 = AXIS2_PLACEMENT_3D ( 'NONE', #216, #5, #97 ) ;
#113 = EDGE_LOOP ( 'NONE', ( #86 ) ) ;
#114 = DIRECTION ( 'NONE',  ( 0.0000000000000000000, 1.000000000000000000, 0.0000000000000000000 ) ) ;
#115 = DIRECTION ( 'NONE',  ( -3.491481338843133355E-15, 1.224646799147353454E-16, -1.000000000000000000 ) ) ;
#116 = CIRCLE ( 'NONE', #33, 1.230384493975581472 ) ;
#117 = FACE_OUTER_BOUND ( 'NONE', #64, .T. ) ;
#118 = DATE_TIME_ROLE ( 'creation_date' ) ;
#119 = DIRECTION ( 'NONE',  ( 4.275831445896959482E-31, 1.000000000000000000, 1.224646799147353454E-16 ) ) ;
#120 = PERSON_AND_ORGANIZATION ( #125, #174 ) ;
#121 = CARTESIAN_POINT ( 'NONE',  ( 3.620593821442183863E-14, -1.269933361840908188E-15, 10.36979284741596530 ) ) ;
#122 = APPROVAL_STATUS ( 'not_yet_approved' ) ;
#123 = CARTESIAN_POINT ( 'NONE',  ( 3.491481338843133355E-14, 1.059955226396266378E-32, 10.00000000000000000 ) ) ;
#124 = ADVANCED_FACE ( 'NONE', ( #50, #2 ), #269, .F. ) ;
#125 = PERSON ( 'UNSPECIFIED', 'UNSPECIFIED', 'UNSPECIFIED', ('UNSPECIFIED'), ('UNSPECIFIED'), ('UNSPECIFIED') ) ;
#126 = PERSON_AND_ORGANIZATION_ROLE ( 'creator' ) ;
#127 = CC_DESIGN_PERSON_AND_ORGANIZATION_ASSIGNMENT ( #221, #154, ( #286 ) ) ;
#128 = CIRCLE ( 'NONE', #81, 1.413499999999999979 ) ;
#129 = EDGE_LOOP ( 'NONE', ( #134 ) ) ;
#130 = DIRECTION ( 'NONE',  ( 0.0000000000000000000, 1.000000000000000000, 0.0000000000000000000 ) ) ;
#131 = CIRCLE ( 'NONE', #112, 1.269162432702594323 ) ;
#132 = CARTESIAN_POINT ( 'NONE',  ( 0.0000000000000000000, 0.0000000000000000000, 0.0000000000000000000 ) ) ;
#133 = EDGE_CURVE ( 'NONE', #135, #135, #103, .T. ) ;
#134 = ORIENTED_EDGE ( 'NONE', *, *, #261, .T. ) ;
#135 = VERTEX_POINT ( 'NONE', #297 ) ;
#136 = VERTEX_POINT ( 'NONE', #92 ) ;
#137 = EDGE_CURVE ( 'NONE', #22, #22, #116, .T. ) ;
#138 = ORIENTED_EDGE ( 'NONE', *, *, #211, .F. ) ;
#139 = DIRECTION ( 'NONE',  ( -3.491481338843133355E-15, 1.224646799147353454E-16, -1.000000000000000000 ) ) ;
#140 = DIRECTION ( 'NONE',  ( -4.275831445896959482E-31, -1.000000000000000000, -1.224646799147353454E-16 ) ) ;
#141 = CYLINDRICAL_SURFACE ( 'NONE', #26, 1.499999999999998668 ) ;
#142 = AXIS2_PLACEMENT_3D ( 'NONE', #76, #145, #245 ) ;
#143 = CARTESIAN_POINT ( 'NONE',  ( 8.849961221477469775E-14, -3.104148534859897544E-15, 25.34729635533384595 ) ) ;
#144 = CARTESIAN_POINT ( 'NONE',  ( 2.119329172677781757E-13, -7.433606070824434221E-15, 60.69999999999999574 ) ) ;
#145 = DIRECTION ( 'NONE',  ( -3.491481338843133355E-15, 1.224646799147353454E-16, -1.000000000000000000 ) ) ;
#146 = LOCAL_TIME ( 10, 57, 13.00000000000000000, #75 ) ;
#147 = DATE_TIME_ROLE ( 'classification_date' ) ;
#148 = CARTESIAN_POINT ( 'NONE',  ( 8.728703347107827472E-16, -3.061616997868381785E-17, 0.2499999999999998335 ) ) ;
#149 = ADVANCED_FACE ( 'NONE', ( #213, #93 ), #199, .T. ) ;
#150 = APPROVAL_ROLE ( '' ) ;
#151 = EDGE_LOOP ( 'NONE', ( #138 ) ) ;
#152 = CIRCLE ( 'NONE', #1, 1.200000000000001510 ) ;
#153 = APPROVAL_DATE_TIME ( #55, #268 ) ;
#154 = PERSON_AND_ORGANIZATION_ROLE ( 'design_supplier' ) ;
#155 = FACE_OUTER_BOUND ( 'NONE', #36, .T. ) ;
#156 = APPLICATION_PROTOCOL_DEFINITION ( 'international standard', 'config_control_design', 1994, #104 ) ;
#157 = ORIENTED_EDGE ( 'NONE', *, *, #292, .T. ) ;
#158 = APPROVAL_STATUS ( 'not_yet_approved' ) ;
#159 = APPROVAL_PERSON_ORGANIZATION ( #204, #268, #278 ) ;
#160 = DIRECTION ( 'NONE',  ( 0.0000000000000000000, 1.000000000000000000, 0.0000000000000000000 ) ) ;
#161 = AXIS2_PLACEMENT_3D ( 'NONE', #49, #139, #119 ) ;
#162 = COORDINATED_UNIVERSAL_TIME_OFFSET ( 1, 0, .AHEAD. ) ;
#163 = PLANE ( 'NONE',  #191 ) ;
#164 = FACE_OUTER_BOUND ( 'NONE', #300, .T. ) ;
#165 = APPROVAL ( #176, 'UNSPECIFIED' ) ;
#166 = CARTESIAN_POINT ( 'NONE',  ( 9.383831593535530478E-14, -3.291405054041850802E-15, 26.87636187293719559 ) ) ;
#167 = MANIFOLD_SOLID_BREP ( 'Corps-Déplacer/Copier1[1]', #10 ) ;
#168 = DIRECTION ( 'NONE',  ( -3.491481338843133355E-15, 1.224646799147353454E-16, -1.000000000000000000 ) ) ;
#169 = CALENDAR_DATE ( 2021, 30, 11 ) ;
#170 = DIRECTION ( 'NONE',  ( 0.0000000000000000000, 1.000000000000000000, 0.0000000000000000000 ) ) ;
#171 = CIRCLE ( 'NONE', #183, 1.413499999999998646 ) ;
#172 = PRODUCT_DEFINITION_SHAPE ( 'NONE', 'NONE',  #25 ) ;
#173 = EDGE_CURVE ( 'NONE', #35, #35, #219, .T. ) ;
#174 = ORGANIZATION ( 'UNSPECIFIED', 'UNSPECIFIED', '' ) ;
#175 = CC_DESIGN_PERSON_AND_ORGANIZATION_ASSIGNMENT ( #63, #85, ( #217 ) ) ;
#176 = APPROVAL_STATUS ( 'not_yet_approved' ) ;
#177 = CARTESIAN_POINT ( 'NONE',  ( 8.728703347107827472E-16, -3.061616997868381785E-17, 0.2499999999999998335 ) ) ;
#178 = VERTEX_POINT ( 'NONE', #18 ) ;
#179 = ORIENTED_EDGE ( 'NONE', *, *, #173, .T. ) ;
#180 = CARTESIAN_POINT ( 'NONE',  ( -3.785471652766323589E-31, 1.269162432702594323, -1.084202172485504434E-16 ) ) ;
#181 = PERSON_AND_ORGANIZATION ( #125, #174 ) ;
#182 = EDGE_LOOP ( 'NONE', ( #228 ) ) ;
#183 = AXIS2_PLACEMENT_3D ( 'NONE', #148, #236, #108 ) ;
#184 = CC_DESIGN_PERSON_AND_ORGANIZATION_ASSIGNMENT ( #53, #126, ( #286 ) ) ;
#185 = DIRECTION ( 'NONE',  ( 0.0000000000000000000, 0.0000000000000000000, 1.000000000000000000 ) ) ;
#186 = EDGE_LOOP ( 'NONE', ( #62 ) ) ;
#187 = APPLICATION_PROTOCOL_DEFINITION ( 'international standard', 'config_control_design', 1994, #8 ) ;
#188 = CARTESIAN_POINT ( 'NONE',  ( 3.491481338843133355E-14, -1.224646799147353454E-15, 10.00000000000000000 ) ) ;
#189 = COORDINATED_UNIVERSAL_TIME_OFFSET ( 1, 0, .AHEAD. ) ;
#190 = DIRECTION ( 'NONE',  ( 0.0000000000000000000, 1.000000000000000000, 0.0000000000000000000 ) ) ;
#191 = AXIS2_PLACEMENT_3D ( 'NONE', #259, #30, #140 ) ;
#192 = ADVANCED_FACE ( 'NONE', ( #164 ), #94, .F. ) ;
#193 = DIRECTION ( 'NONE',  ( -4.275831445896959482E-31, -1.000000000000000000, -1.224646799147353454E-16 ) ) ;
#194 = DIRECTION ( 'NONE',  ( 0.0000000000000000000, 1.000000000000000000, 0.0000000000000000000 ) ) ;
#195 = CYLINDRICAL_SURFACE ( 'NONE', #161, 1.413499999999999313 ) ;
#196 = DIRECTION ( 'NONE',  ( -3.491481338843133355E-15, 1.224646799147353454E-16, -1.000000000000000000 ) ) ;
#197 = FACE_OUTER_BOUND ( 'NONE', #17, .T. ) ;
#198 = ADVANCED_FACE ( 'NONE', ( #74 ), #163, .F. ) ;
#199 = CONICAL_SURFACE ( 'NONE', #205, 1.199999999999998179, 0.5235987755982919323 ) ;
#200 = ORIENTED_EDGE ( 'NONE', *, *, #261, .F. ) ;
#201 = DIRECTION ( 'NONE',  ( -3.491481338843133355E-15, 1.224646799147353454E-16, -1.000000000000000000 ) ) ;
#202 = EDGE_CURVE ( 'NONE', #37, #37, #131, .T. ) ;
#203 = EDGE_LOOP ( 'NONE', ( #200 ) ) ;
#204 = PERSON_AND_ORGANIZATION ( #125, #174 ) ;
#205 = AXIS2_PLACEMENT_3D ( 'NONE', #244, #168, #190 ) ;
#206 = DATE_AND_TIME ( #88, #31 ) ;
#207 = EDGE_LOOP ( 'NONE', ( #232 ) ) ;
#208 = DIRECTION ( 'NONE',  ( 1.000000000000000000, 0.0000000000000000000, 0.0000000000000000000 ) ) ;
#209 = DIRECTION ( 'NONE',  ( 0.0000000000000000000, -1.000000000000000000, 0.0000000000000000000 ) ) ;
#210 = DIRECTION ( 'NONE',  ( -3.491481338843133355E-15, 1.224646799147353454E-16, -1.000000000000000000 ) ) ;
#211 = EDGE_CURVE ( 'NONE', #90, #90, #152, .T. ) ;
#212 = AXIS2_PLACEMENT_3D ( 'NONE', #242, #70, #193 ) ;
#213 = FACE_OUTER_BOUND ( 'NONE', #203, .T. ) ;
#214 = DIRECTION ( 'NONE',  ( 0.0000000000000000000, 1.000000000000000000, 0.0000000000000000000 ) ) ;
#215 = COORDINATED_UNIVERSAL_TIME_OFFSET ( 1, 0, .AHEAD. ) ;
#216 = CARTESIAN_POINT ( 'NONE',  ( -9.212196292467160284E-31, 3.231203494395617796E-32, -2.638477883292805030E-16 ) ) ;
#217 = PRODUCT ( '960888', '960888', '', ( #13 ) ) ;
#218 = DATE_AND_TIME ( #169, #146 ) ;
#219 = CIRCLE ( 'NONE', #284, 1.199999999999998179 ) ;
#220 = DIRECTION ( 'NONE',  ( -4.275831445896959482E-31, -1.000000000000000000, -1.224646799147353454E-16 ) ) ;
#221 = PERSON_AND_ORGANIZATION ( #125, #174 ) ;
#222 = CC_DESIGN_DATE_AND_TIME_ASSIGNMENT ( #264, #118, ( #25 ) ) ;
#223 = DIRECTION ( 'NONE',  ( 0.0000000000000000000, 1.000000000000000000, 0.0000000000000000000 ) ) ;
#224 = CARTESIAN_POINT ( 'NONE',  ( 8.849961221477469775E-14, 1.230384493975578586, 25.34729635533384595 ) ) ;
#225 = CC_DESIGN_APPROVAL ( #268, ( #25 ) ) ;
#226 = DIRECTION ( 'NONE',  ( 3.491481338843133355E-15, -1.224646799147353454E-16, 1.000000000000000000 ) ) ;
#227 = CARTESIAN_POINT ( 'NONE',  ( 2.119329172677781757E-13, 1.499999999999994005, 60.69999999999999574 ) ) ;
#228 = ORIENTED_EDGE ( 'NONE', *, *, #105, .F. ) ;
#229 = DESIGN_CONTEXT ( 'detailed design', #8, 'design' ) ;
#230 = CARTESIAN_POINT ( 'NONE',  ( 3.491481338843133355E-14, 1.413499999999998646, 10.00000000000000000 ) ) ;
#231 = ADVANCED_FACE ( 'NONE', ( #99 ), #287, .F. ) ;
#232 = ORIENTED_EDGE ( 'NONE', *, *, #173, .F. ) ;
#233 = VERTEX_POINT ( 'NONE', #87 ) ;
#234 = CONICAL_SURFACE ( 'NONE', #78, 1.413499999999998646, 0.5235987755982924874 ) ;
#235 = ORIENTED_EDGE ( 'NONE', *, *, #39, .T. ) ;
#236 = DIRECTION ( 'NONE',  ( -3.491481338843133355E-15, 1.224646799147353454E-16, -1.000000000000000000 ) ) ;
#237 = FACE_OUTER_BOUND ( 'NONE', #67, .T. ) ;
#238 = ADVANCED_FACE ( 'NONE', ( #260, #46 ), #141, .T. ) ;
#239 = APPROVAL_DATE_TIME ( #218, #294 ) ;
#240 = CARTESIAN_POINT ( 'NONE',  ( 2.129803616694311221E-13, -7.470345474798856659E-15, 61.00000000000000000 ) ) ;
#241 = CARTESIAN_POINT ( 'NONE',  ( 0.0000000000000000000, 0.0000000000000000000, 0.0000000000000000000 ) ) ;
#242 = CARTESIAN_POINT ( 'NONE',  ( -4.606098146233580142E-31, 1.615601747197808898E-32, -1.319238941646402515E-16 ) ) ;
#243 = ADVANCED_BREP_SHAPE_REPRESENTATION ( '960888', ( #167, #270, #273 ), #54 ) ;
#244 = CARTESIAN_POINT ( 'NONE',  ( 3.620593821442183863E-14, -1.269933361840908188E-15, 10.36979284741596530 ) ) ;
#245 = DIRECTION ( 'NONE',  ( 4.275831445896959482E-31, 1.000000000000000000, 1.224646799147353454E-16 ) ) ;
#246 = AXIS2_PLACEMENT_3D ( 'NONE', #144, #196, #194 ) ;
#247 = CC_DESIGN_PERSON_AND_ORGANIZATION_ASSIGNMENT ( #120, #28, ( #25 ) ) ;
#248 = CIRCLE ( 'NONE', #246, 1.500000000000001332 ) ;
#249 = PERSON_AND_ORGANIZATION ( #125, #174 ) ;
#250 = ORIENTED_EDGE ( 'NONE', *, *, #133, .T. ) ;
#251 = ORIENTED_EDGE ( 'NONE', *, *, #292, .F. ) ;
#252 = CIRCLE ( 'NONE', #295, 1.200000000000000178 ) ;
#253 = ADVANCED_FACE ( 'NONE', ( #117 ), #71, .T. ) ;
#254 = DIRECTION ( 'NONE',  ( 3.491481338843133355E-15, -1.224646799147353454E-16, 1.000000000000000000 ) ) ;
#255 = FACE_BOUND ( 'NONE', #107, .T. ) ;
#256 = AXIS2_PLACEMENT_3D ( 'NONE', #21, #254, #209 ) ;
#257 = DIRECTION ( 'NONE',  ( 4.275831445896959482E-31, 1.000000000000000000, 1.224646799147353454E-16 ) ) ;
#258 = APPROVAL_PERSON_ORGANIZATION ( #249, #165, #150 ) ;
#259 = CARTESIAN_POINT ( 'NONE',  ( 3.491481338843133355E-14, 1.059955226396266378E-32, 10.00000000000000000 ) ) ;
#260 = FACE_OUTER_BOUND ( 'NONE', #106, .T. ) ;
#261 = EDGE_CURVE ( 'NONE', #136, #136, #128, .T. ) ;
#262 = DIRECTION ( 'NONE',  ( 0.0000000000000000000, 1.000000000000000000, 0.0000000000000000000 ) ) ;
#263 = AXIS2_PLACEMENT_3D ( 'NONE', #166, #115, #114 ) ;
#264 = DATE_AND_TIME ( #100, #275 ) ;
#265 = FACE_OUTER_BOUND ( 'NONE', #14, .T. ) ;
#266 = PERSON_AND_ORGANIZATION ( #125, #174 ) ;
#267 = CYLINDRICAL_SURFACE ( 'NONE', #142, 1.199999999999999289 ) ;
#268 = APPROVAL ( #158, 'UNSPECIFIED' ) ;
#269 = TOROIDAL_SURFACE ( 'NONE', #47, 3.200000000000000178, 2.000000000000000000 ) ;
#270 = MANIFOLD_SOLID_BREP ( 'Corps-Déplacer/Copier1[2]', #293 ) ;
#271 = ADVANCED_FACE ( 'NONE', ( #32, #197 ), #267, .T. ) ;
#272 = DATE_AND_TIME ( #66, #283 ) ;
#273 = AXIS2_PLACEMENT_3D ( 'NONE', #132, #185, #208 ) ;
#274 = APPROVAL_DATE_TIME ( #272, #165 ) ;
#275 = LOCAL_TIME ( 10, 57, 13.00000000000000000, #215 ) ;
#276 = ORIENTED_EDGE ( 'NONE', *, *, #137, .F. ) ;
#277 =( LENGTH_UNIT ( ) NAMED_UNIT ( * ) SI_UNIT ( .MILLI., .METRE. ) );
#278 = APPROVAL_ROLE ( '' ) ;
#279 = AXIS2_PLACEMENT_3D ( 'NONE', #123, #7, #220 ) ;
#280 = FACE_BOUND ( 'NONE', #302, .T. ) ;
#281 = ORIENTED_EDGE ( 'NONE', *, *, #137, .T. ) ;
#282 = DIRECTION ( 'NONE',  ( -3.491481338843133355E-15, 1.224646799147353454E-16, -1.000000000000000000 ) ) ;
#283 = LOCAL_TIME ( 10, 57, 13.00000000000000000, #162 ) ;
#284 = AXIS2_PLACEMENT_3D ( 'NONE', #121, #289, #285 ) ;
#285 = DIRECTION ( 'NONE',  ( 0.0000000000000000000, 1.000000000000000000, 0.0000000000000000000 ) ) ;
#286 = PRODUCT_DEFINITION_FORMATION_WITH_SPECIFIED_SOURCE ( 'ANY', '', #217, .NOT_KNOWN. ) ;
#287 = PLANE ( 'NONE',  #68 ) ;
#288 = DIRECTION ( 'NONE',  ( -3.491481338843133355E-15, 1.224646799147353454E-16, -1.000000000000000000 ) ) ;
#289 = DIRECTION ( 'NONE',  ( -3.491481338843133355E-15, 1.224646799147353454E-16, -1.000000000000000000 ) ) ;
#290 = AXIS2_PLACEMENT_3D ( 'NONE', #188, #282, #223 ) ;
#291 = APPROVAL_ROLE ( '' ) ;
#292 = EDGE_CURVE ( 'NONE', #178, #178, #171, .T. ) ;
#293 = CLOSED_SHELL ( 'NONE', ( #192, #45, #102, #253 ) ) ;
#294 = APPROVAL ( #122, 'UNSPECIFIED' ) ;
#295 = AXIS2_PLACEMENT_3D ( 'NONE', #303, #4, #262 ) ;
#296 = FACE_BOUND ( 'NONE', #57, .T. ) ;
#297 = CARTESIAN_POINT ( 'NONE',  ( 9.383831593535530478E-14, 1.499999999999992673, 26.87636187293719559 ) ) ;
#298 = ADVANCED_FACE ( 'NONE', ( #59, #280 ), #19, .T. ) ;
#299 = ORIENTED_EDGE ( 'NONE', *, *, #202, .F. ) ;
#300 = EDGE_LOOP ( 'NONE', ( #89 ) ) ;
#301 = AXIS2_PLACEMENT_3D ( 'NONE', #65, #201, #130 ) ;
#302 = EDGE_LOOP ( 'NONE', ( #110 ) ) ;
#303 = CARTESIAN_POINT ( 'NONE',  ( 8.728703347107833388E-14, -3.061616997868383831E-15, 25.00000000000000000 ) ) ;
ENDSEC;
END-ISO-10303-21;
