ISO-10303-21;
HEADER;
FILE_DESCRIPTION (( 'STEP AP203' ),
    '1' );
FILE_NAME ('960883.step',
    '2023-09-27T08:26:47',
    ( '' ),
    ( '' ),
    'SwSTEP 2.0',
    'SolidWorks 2022',
    '' );
FILE_SCHEMA (( 'CONFIG_CONTROL_DESIGN' ));
ENDSEC;

DATA;
#1 = CARTESIAN_POINT ( 'NONE',  ( 3.950000000000008171, 0.000000000000000000, 2.312499999999981348 ) ) ;
#2 = CARTESIAN_POINT ( 'NONE',  ( 2.618611004132350143E-13, 0.000000000000000000, 75.00000000000000000 ) ) ;
#3 = VERTEX_POINT ( 'NONE', #250 ) ;
#4 = EDGE_LOOP ( 'NONE', ( #6 ) ) ;
#5 = APPROVAL_ROLE ( '' ) ;
#6 = ORIENTED_EDGE ( 'NONE', *, *, #191, .T. ) ;
#7 = PRODUCT ( '960883', '960883', '', ( #392 ) ) ;
#8 = APPROVAL ( #99, 'UNSPECIFIED' ) ;
#9 = TOROIDAL_SURFACE ( 'NONE', #86, 3.764999999999996572, 0.9999999999999995559 ) ;
#10 = FACE_OUTER_BOUND ( 'NONE', #126, .T. ) ;
#11 = DIRECTION ( 'NONE',  ( 3.491481338843133355E-15, -0.000000000000000000, 1.000000000000000000 ) ) ;
#12 = PERSON_AND_ORGANIZATION_ROLE ( 'classification_officer' ) ;
#13 = ADVANCED_FACE ( 'NONE', ( #334, #286 ), #128, .T. ) ;
#14 = DIRECTION ( 'NONE',  ( -1.000000000000000000, 0.000000000000000000, 3.513364001978343273E-15 ) ) ;
#15 = PERSON_AND_ORGANIZATION ( #55, #395 ) ;
#16 = CONICAL_SURFACE ( 'NONE', #178, 2.759215069796392417, 1.047197551196603404 ) ;
#17 = DIRECTION ( 'NONE',  ( 1.000000000000000000, 0.000000000000000000, -4.499968263306815724E-15 ) ) ;
#18 = MANIFOLD_SOLID_BREP ( 'Corps-Déplacer/Copier1', #260 ) ;
#19 = CARTESIAN_POINT ( 'NONE',  ( 4.582569257231592807E-15, 0.000000000000000000, 1.312499999999994227 ) ) ;
#20 = CARTESIAN_POINT ( 'NONE',  ( 9.819791265496295996E-15, 0.000000000000000000, 2.812499999999995559 ) ) ;
#21 = DIRECTION ( 'NONE',  ( 1.000000000000000000, 0.000000000000000000, -3.515600205708449291E-15 ) ) ;
#22 = DIRECTION ( 'NONE',  ( 3.491481338843133355E-15, -0.000000000000000000, 1.000000000000000000 ) ) ;
#23 = FACE_OUTER_BOUND ( 'NONE', #339, .T. ) ;
#24 = VERTEX_POINT ( 'NONE', #215 ) ;
#25 = APPROVAL_PERSON_ORGANIZATION ( #261, #8, #317 ) ;
#26 = VERTEX_POINT ( 'NONE', #125 ) ;
#27 = ORIENTED_EDGE ( 'NONE', *, *, #191, .F. ) ;
#28 = EDGE_CURVE ( 'NONE', #310, #310, #82, .T. ) ;
#29 = EDGE_CURVE ( 'NONE', #188, #188, #374, .T. ) ;
#30 = EDGE_LOOP ( 'NONE', ( #341 ) ) ;
#31 = VERTEX_POINT ( 'NONE', #1 ) ;
#32 = EDGE_LOOP ( 'NONE', ( #57 ) ) ;
#33 = AXIS2_PLACEMENT_3D ( 'NONE', #74, #237, #207 ) ;
#34 = CARTESIAN_POINT ( 'NONE',  ( 3.950000000000008171, 0.000000000000000000, 2.187499999999981348 ) ) ;
#35 = EDGE_LOOP ( 'NONE', ( #344 ) ) ;
#36 = ORIENTED_EDGE ( 'NONE', *, *, #268, .T. ) ;
#37 = CC_DESIGN_PERSON_AND_ORGANIZATION_ASSIGNMENT ( #15, #229, ( #73 ) ) ;
#38 = APPROVAL_DATE_TIME ( #315, #8 ) ;
#39 = PLANE ( 'NONE',  #101 ) ;
#40 = AXIS2_PLACEMENT_3D ( 'NONE', #107, #95, #72 ) ;
#41 = APPROVAL_DATE_TIME ( #381, #377 ) ;
#42 = DIRECTION ( 'NONE',  ( -3.491481338843133355E-15, 0.000000000000000000, -1.000000000000000000 ) ) ;
#43 = CARTESIAN_POINT ( 'NONE',  ( 2.618611004132350143E-13, 0.000000000000000000, 75.00000000000000000 ) ) ;
#44 = FACE_OUTER_BOUND ( 'NONE', #303, .T. ) ;
#45 = APPROVAL_PERSON_ORGANIZATION ( #87, #377, #367 ) ;
#46 = DIRECTION ( 'NONE',  ( 1.000000000000000000, 0.000000000000000000, -3.469446951953614189E-15 ) ) ;
#47 = ADVANCED_FACE ( 'NONE', ( #230, #202 ), #91, .T. ) ;
#48 = DIRECTION ( 'NONE',  ( 1.000000000000000000, 0.000000000000000000, -4.336808689942021680E-15 ) ) ;
#49 = AXIS2_PLACEMENT_3D ( 'NONE', #132, #66, #46 ) ;
#50 = CARTESIAN_POINT ( 'NONE',  ( 2.618611004132350648E-13, 0.000000000000000000, 75.00000000000001421 ) ) ;
#51 = DIRECTION ( 'NONE',  ( 3.491481338843133355E-15, -0.000000000000000000, 1.000000000000000000 ) ) ;
#52 = DIRECTION ( 'NONE',  ( 1.000000000000000000, 0.000000000000000000, -3.450625359085872984E-15 ) ) ;
#53 = ORIENTED_EDGE ( 'NONE', *, *, #167, .T. ) ;
#54 = EDGE_LOOP ( 'NONE', ( #366 ) ) ;
#55 = PERSON ( 'UNSPECIFIED', 'UNSPECIFIED', 'UNSPECIFIED', ('UNSPECIFIED'), ('UNSPECIFIED'), ('UNSPECIFIED') ) ;
#56 = VERTEX_POINT ( 'NONE', #83 ) ;
#57 = ORIENTED_EDGE ( 'NONE', *, *, #184, .F. ) ;
#58 = CARTESIAN_POINT ( 'NONE',  ( 3.083974596215567132, 0.000000000000000000, 2.999999999999992006 ) ) ;
#59 = DIRECTION ( 'NONE',  ( 3.491481338843133355E-15, -0.000000000000000000, 1.000000000000000000 ) ) ;
#60 = PRODUCT_DEFINITION_FORMATION_WITH_SPECIFIED_SOURCE ( 'ANY', '', #7, .NOT_KNOWN. ) ;
#61 = CARTESIAN_POINT ( 'NONE',  ( 4.000000000000128786, 0.000000000000000000, 36.74073524493508103 ) ) ;
#62 = EDGE_LOOP ( 'NONE', ( #120 ) ) ;
#63 = APPROVAL_STATUS ( 'not_yet_approved' ) ;
#64 = DIRECTION ( 'NONE',  ( 1.000000000000000000, 0.000000000000000000, -3.469446951953618133E-15 ) ) ;
#65 = PERSON_AND_ORGANIZATION_ROLE ( 'design_supplier' ) ;
#66 = DIRECTION ( 'NONE',  ( 3.491481338843133355E-15, -0.000000000000000000, 1.000000000000000000 ) ) ;
#67 = AXIS2_PLACEMENT_3D ( 'NONE', #376, #165, #64 ) ;
#68 = AXIS2_PLACEMENT_3D ( 'NONE', #77, #299, #329 ) ;
#69 = DIRECTION ( 'NONE',  ( -1.000000000000000000, 0.000000000000000000, 3.485915845712887694E-15 ) ) ;
#70 = CALENDAR_DATE ( 2023, 27, 9 ) ;
#71 = DIRECTION ( 'NONE',  ( 1.000000000000000000, 0.000000000000000000, -3.515600205708449291E-15 ) ) ;
#72 = DIRECTION ( 'NONE',  ( 1.000000000000000000, 0.000000000000000000, -2.509545715698819835E-15 ) ) ;
#73 = PRODUCT_DEFINITION ( 'UNKNOWN', '', #60, #129 ) ;
#74 = CARTESIAN_POINT ( 'NONE',  ( 2.618611004132350143E-13, 0.000000000000000000, 75.00000000000000000 ) ) ;
#75 = DIRECTION ( 'NONE',  ( 1.000000000000000000, 0.000000000000000000, -3.491481338843133355E-15 ) ) ;
#76 = DIRECTION ( 'NONE',  ( 3.491481338843133355E-15, -0.000000000000000000, 1.000000000000000000 ) ) ;
#77 = CARTESIAN_POINT ( 'NONE',  ( 2.618611004132350143E-13, 0.000000000000000000, 75.00000000000000000 ) ) ;
#78 = CC_DESIGN_PERSON_AND_ORGANIZATION_ASSIGNMENT ( #127, #349, ( #60 ) ) ;
#79 = FACE_BOUND ( 'NONE', #4, .T. ) ;
#80 = CARTESIAN_POINT ( 'NONE',  ( 3.083974596215561803, 0.000000000000000000, 1.312499999999983347 ) ) ;
#81 = ORIENTED_EDGE ( 'NONE', *, *, #138, .F. ) ;
#82 = CIRCLE ( 'NONE', #194, 3.950000000000000178 ) ;
#83 = CARTESIAN_POINT ( 'NONE',  ( 2.799074173711039393, 0.000000000000000000, 32.25881904510250564 ) ) ;
#84 = EDGE_CURVE ( 'NONE', #3, #3, #355, .T. ) ;
#85 = ORIENTED_EDGE ( 'NONE', *, *, #266, .F. ) ;
#86 = AXIS2_PLACEMENT_3D ( 'NONE', #174, #206, #75 ) ;
#87 = PERSON_AND_ORGANIZATION ( #55, #395 ) ;
#88 = ORIENTED_EDGE ( 'NONE', *, *, #226, .T. ) ;
#89 = ORIENTED_EDGE ( 'NONE', *, *, #29, .F. ) ;
#90 = ADVANCED_FACE ( 'NONE', ( #319, #169 ), #233, .T. ) ;
#91 = CONICAL_SURFACE ( 'NONE', #252, 3.999999999999995559, 0.7853981633974418397 ) ;
#92 = VERTEX_POINT ( 'NONE', #279 ) ;
#93 = ORIENTED_EDGE ( 'NONE', *, *, #84, .F. ) ;
#94 = AXIS2_PLACEMENT_3D ( 'NONE', #43, #321, #17 ) ;
#95 = DIRECTION ( 'NONE',  ( 3.491481338843133355E-15, -0.000000000000000000, 1.000000000000000000 ) ) ;
#96 = PRODUCT_DEFINITION_SHAPE ( 'NONE', 'NONE',  #73 ) ;
#97 = DATE_AND_TIME ( #313, #363 ) ;
#98 = DIRECTION ( 'NONE',  ( 3.491481338843133355E-15, -0.000000000000000000, 1.000000000000000000 ) ) ;
#99 = APPROVAL_STATUS ( 'not_yet_approved' ) ;
#100 = DIRECTION ( 'NONE',  ( 3.491481338843133355E-15, -0.000000000000000000, 1.000000000000000000 ) ) ;
#101 = AXIS2_PLACEMENT_3D ( 'NONE', #259, #42, #294 ) ;
#102 = ADVANCED_FACE ( 'NONE', ( #192, #265 ), #39, .F. ) ;
#103 = AXIS2_PLACEMENT_3D ( 'NONE', #144, #176, #300 ) ;
#104 = COORDINATED_UNIVERSAL_TIME_OFFSET ( 1, 0, .AHEAD. ) ;
#105 = DIRECTION ( 'NONE',  ( -3.491481338843133355E-15, 0.000000000000000000, -1.000000000000000000 ) ) ;
#106 = APPROVAL_DATE_TIME ( #347, #304 ) ;
#107 = CARTESIAN_POINT ( 'NONE',  ( 1.117274028429802674E-13, 0.000000000000000000, 32.00000000000000000 ) ) ;
#108 = FACE_OUTER_BOUND ( 'NONE', #180, .T. ) ;
#109 = AXIS2_PLACEMENT_3D ( 'NONE', #289, #100, #71 ) ;
#110 = SECURITY_CLASSIFICATION ( '', '', #201 ) ;
#111 =( GEOMETRIC_REPRESENTATION_CONTEXT ( 3 ) GLOBAL_UNCERTAINTY_ASSIGNED_CONTEXT ( ( #383 ) ) GLOBAL_UNIT_ASSIGNED_CONTEXT ( ( #212, #242, #157 ) ) REPRESENTATION_CONTEXT ( 'NONE', 'WORKASPACE' ) );
#112 = CYLINDRICAL_SURFACE ( 'NONE', #33, 3.950000000000000178 ) ;
#113 = DIRECTION ( 'NONE',  ( 1.000000000000000000, 0.000000000000000000, -3.515600205708449291E-15 ) ) ;
#114 = ADVANCED_FACE ( 'NONE', ( #287 ), #227, .F. ) ;
#115 = DIRECTION ( 'NONE',  ( 3.491481338843133355E-15, -0.000000000000000000, 1.000000000000000000 ) ) ;
#116 = DIRECTION ( 'NONE',  ( 3.491481338843133355E-15, -0.000000000000000000, 1.000000000000000000 ) ) ;
#117 = AXIS2_PLACEMENT_3D ( 'NONE', #323, #380, #69 ) ;
#118 = CARTESIAN_POINT ( 'NONE',  ( 2.765000000000010338, 0.000000000000000000, 2.999999999999993339 ) ) ;
#119 = APPROVAL_STATUS ( 'not_yet_approved' ) ;
#120 = ORIENTED_EDGE ( 'NONE', *, *, #181, .F. ) ;
#121 = ORIENTED_EDGE ( 'NONE', *, *, #84, .T. ) ;
#122 = AXIS2_PLACEMENT_3D ( 'NONE', #172, #388, #361 ) ;
#123 = VERTEX_POINT ( 'NONE', #282 ) ;
#124 = ORIENTED_EDGE ( 'NONE', *, *, #164, .F. ) ;
#125 = CARTESIAN_POINT ( 'NONE',  ( 2.765000000000108482, 0.000000000000000000, 31.99999999999999289 ) ) ;
#126 = EDGE_LOOP ( 'NONE', ( #53 ) ) ;
#127 = PERSON_AND_ORGANIZATION ( #55, #395 ) ;
#128 = CYLINDRICAL_SURFACE ( 'NONE', #273, 3.950000000000000178 ) ;
#129 = DESIGN_CONTEXT ( 'detailed design', #297, 'design' ) ;
#130 = LOCAL_TIME ( 10, 26, 47.00000000000000000, #104 ) ;
#131 = DIRECTION ( 'NONE',  ( 3.491481338843133355E-15, -0.000000000000000000, 1.000000000000000000 ) ) ;
#132 = CARTESIAN_POINT ( 'NONE',  ( 1.282795914830670798E-13, 0.000000000000000000, 36.74073524493509524 ) ) ;
#133 = PERSON_AND_ORGANIZATION ( #55, #395 ) ;
#134 = DIRECTION ( 'NONE',  ( 3.491481338843133355E-15, -0.000000000000000000, 1.000000000000000000 ) ) ;
#135 = LOCAL_TIME ( 10, 26, 47.00000000000000000, #345 ) ;
#136 = DIRECTION ( 'NONE',  ( 1.000000000000000000, 0.000000000000000000, -3.513364001978343273E-15 ) ) ;
#137 = ADVANCED_FACE ( 'NONE', ( #352, #10 ), #324, .T. ) ;
#138 = EDGE_CURVE ( 'NONE', #154, #154, #203, .T. ) ;
#139 = FACE_OUTER_BOUND ( 'NONE', #218, .T. ) ;
#140 = DIRECTION ( 'NONE',  ( 3.491481338843133355E-15, -0.000000000000000000, 1.000000000000000000 ) ) ;
#141 = AXIS2_PLACEMENT_3D ( 'NONE', #328, #140, #359 ) ;
#142 = DIRECTION ( 'NONE',  ( 1.000000000000000000, 0.000000000000000000, -3.515600205708449291E-15 ) ) ;
#143 = CC_DESIGN_PERSON_AND_ORGANIZATION_ASSIGNMENT ( #284, #275, ( #7 ) ) ;
#144 = CARTESIAN_POINT ( 'NONE',  ( 0.000000000000000000, 0.000000000000000000, 0.000000000000000000 ) ) ;
#145 = FACE_OUTER_BOUND ( 'NONE', #30, .T. ) ;
#146 = AXIS2_PLACEMENT_3D ( 'NONE', #292, #105, #14 ) ;
#147 = CIRCLE ( 'NONE', #288, 3.083974596215556918 ) ;
#148 = APPLICATION_PROTOCOL_DEFINITION ( 'international standard', 'config_control_design', 1994, #312 ) ;
#149 = EDGE_LOOP ( 'NONE', ( #88 ) ) ;
#150 = ADVANCED_FACE ( 'NONE', ( #350, #354 ), #274, .T. ) ;
#151 = VERTEX_POINT ( 'NONE', #243 ) ;
#152 = EDGE_LOOP ( 'NONE', ( #124 ) ) ;
#153 = ADVANCED_FACE ( 'NONE', ( #44, #162 ), #199, .T. ) ;
#154 = VERTEX_POINT ( 'NONE', #80 ) ;
#155 = EDGE_LOOP ( 'NONE', ( #27 ) ) ;
#156 = CIRCLE ( 'NONE', #263, 2.765000000000000124 ) ;
#157 =( NAMED_UNIT ( * ) SI_UNIT ( $, .STERADIAN. ) SOLID_ANGLE_UNIT ( ) );
#158 = CC_DESIGN_DATE_AND_TIME_ASSIGNMENT ( #97, #222, ( #73 ) ) ;
#159 = ORIENTED_EDGE ( 'NONE', *, *, #385, .T. ) ;
#160 = ORIENTED_EDGE ( 'NONE', *, *, #28, .T. ) ;
#161 = EDGE_CURVE ( 'NONE', #26, #26, #197, .T. ) ;
#162 = FACE_OUTER_BOUND ( 'NONE', #244, .T. ) ;
#163 = CC_DESIGN_APPROVAL ( #8, ( #110 ) ) ;
#164 = EDGE_CURVE ( 'NONE', #24, #24, #327, .T. ) ;
#165 = DIRECTION ( 'NONE',  ( 3.491481338843133355E-15, -0.000000000000000000, 1.000000000000000000 ) ) ;
#166 = COORDINATED_UNIVERSAL_TIME_OFFSET ( 1, 0, .AHEAD. ) ;
#167 = EDGE_CURVE ( 'NONE', #31, #31, #270, .T. ) ;
#168 = CARTESIAN_POINT ( 'NONE',  ( 2.618611004132350648E-13, 3.199999999999997069, 75.00000000000001421 ) ) ;
#169 = FACE_BOUND ( 'NONE', #285, .T. ) ;
#170 = CYLINDRICAL_SURFACE ( 'NONE', #122, 3.999999999999998224 ) ;
#171 = ADVANCED_FACE ( 'NONE', ( #378 ), #223, .F. ) ;
#172 = CARTESIAN_POINT ( 'NONE',  ( 2.618611004132350143E-13, 0.000000000000000000, 75.00000000000000000 ) ) ;
#173 = AXIS2_PLACEMENT_3D ( 'NONE', #295, #269, #142 ) ;
#174 = CARTESIAN_POINT ( 'NONE',  ( 1.117274028429802674E-13, 0.000000000000000000, 32.00000000000000000 ) ) ;
#175 = DIRECTION ( 'NONE',  ( 1.000000000000000000, 0.000000000000000000, -5.019091431397636515E-15 ) ) ;
#176 = DIRECTION ( 'NONE',  ( 3.491481338843133355E-15, -0.000000000000000000, 1.000000000000000000 ) ) ;
#177 = VERTEX_POINT ( 'NONE', #118 ) ;
#178 = AXIS2_PLACEMENT_3D ( 'NONE', #386, #76, #271 ) ;
#179 = ORIENTED_EDGE ( 'NONE', *, *, #184, .T. ) ;
#180 = EDGE_LOOP ( 'NONE', ( #159 ) ) ;
#181 = EDGE_CURVE ( 'NONE', #123, #123, #228, .T. ) ;
#182 = VERTEX_POINT ( 'NONE', #185 ) ;
#183 = EDGE_LOOP ( 'NONE', ( #160 ) ) ;
#184 = EDGE_CURVE ( 'NONE', #338, #338, #147, .T. ) ;
#185 = CARTESIAN_POINT ( 'NONE',  ( 3.950000000000002842, 0.000000000000000000, 0.6874999999999799050 ) ) ;
#186 = EDGE_LOOP ( 'NONE', ( #216 ) ) ;
#187 = CIRCLE ( 'NONE', #173, 3.083974596215556918 ) ;
#188 = VERTEX_POINT ( 'NONE', #61 ) ;
#189 = EDGE_LOOP ( 'NONE', ( #36 ) ) ;
#190 = CALENDAR_DATE ( 2023, 27, 9 ) ;
#191 = EDGE_CURVE ( 'NONE', #151, #151, #375, .T. ) ;
#192 = FACE_BOUND ( 'NONE', #186, .T. ) ;
#193 = ADVANCED_FACE ( 'NONE', ( #358, #139 ), #170, .T. ) ;
#194 = AXIS2_PLACEMENT_3D ( 'NONE', #346, #11, #136 ) ;
#195 = COORDINATED_UNIVERSAL_TIME_OFFSET ( 1, 0, .AHEAD. ) ;
#196 = DIRECTION ( 'NONE',  ( -1.000000000000000000, 0.000000000000000000, 3.469446951953618133E-15 ) ) ;
#197 = CIRCLE ( 'NONE', #40, 2.764999999999996572 ) ;
#198 = PERSON_AND_ORGANIZATION ( #55, #395 ) ;
#199 = CYLINDRICAL_SURFACE ( 'NONE', #94, 3.083974596215556918 ) ;
#200 = ADVANCED_FACE ( 'NONE', ( #211, #145 ), #9, .F. ) ;
#201 = SECURITY_CLASSIFICATION_LEVEL ( 'unclassified' ) ;
#202 = FACE_OUTER_BOUND ( 'NONE', #280, .T. ) ;
#203 = CIRCLE ( 'NONE', #333, 3.083974596215556918 ) ;
#204 = CARTESIAN_POINT ( 'NONE',  ( 2.836828587810024157E-15, 0.000000000000000000, 0.8124999999999937828 ) ) ;
#205 = LOCAL_TIME ( 10, 26, 47.00000000000000000, #195 ) ;
#206 = DIRECTION ( 'NONE',  ( 3.491481338843133355E-15, -0.000000000000000000, 1.000000000000000000 ) ) ;
#207 = DIRECTION ( 'NONE',  ( 1.000000000000000000, 0.000000000000000000, -3.513364001978343273E-15 ) ) ;
#208 = FACE_OUTER_BOUND ( 'NONE', #306, .T. ) ;
#209 = AXIS2_PLACEMENT_3D ( 'NONE', #225, #348, #241 ) ;
#210 = CYLINDRICAL_SURFACE ( 'NONE', #240, 2.764999999999998348 ) ;
#211 = FACE_OUTER_BOUND ( 'NONE', #371, .T. ) ;
#212 =( LENGTH_UNIT ( ) NAMED_UNIT ( * ) SI_UNIT ( .MILLI., .METRE. ) );
#213 = EDGE_LOOP ( 'NONE', ( #337 ) ) ;
#214 = LOCAL_TIME ( 10, 26, 47.00000000000000000, #224 ) ;
#215 = CARTESIAN_POINT ( 'NONE',  ( 3.950000000000002842, 0.000000000000000000, 0.8124999999999800160 ) ) ;
#216 = ORIENTED_EDGE ( 'NONE', *, *, #385, .F. ) ;
#217 = CARTESIAN_POINT ( 'NONE',  ( 3.083974596215567132, 0.000000000000000000, 2.812499999999984901 ) ) ;
#218 = EDGE_LOOP ( 'NONE', ( #393 ) ) ;
#219 = CARTESIAN_POINT ( 'NONE',  ( 1.047444401652940953E-14, 0.000000000000000000, 3.000000000000002665 ) ) ;
#220 = EDGE_LOOP ( 'NONE', ( #93 ) ) ;
#221 = ORIENTED_EDGE ( 'NONE', *, *, #167, .F. ) ;
#222 = DATE_TIME_ROLE ( 'creation_date' ) ;
#223 = PLANE ( 'NONE',  #209 ) ;
#224 = COORDINATED_UNIVERSAL_TIME_OFFSET ( 1, 0, .AHEAD. ) ;
#225 = CARTESIAN_POINT ( 'NONE',  ( -2.443828569153940670E-33, 0.000000000000000000, -6.999403210225027889E-19 ) ) ;
#226 = EDGE_CURVE ( 'NONE', #340, #340, #318, .T. ) ;
#227 = PLANE ( 'NONE',  #308 ) ;
#228 = CIRCLE ( 'NONE', #387, 3.199999999999997069 ) ;
#229 = PERSON_AND_ORGANIZATION_ROLE ( 'creator' ) ;
#230 = FACE_BOUND ( 'NONE', #62, .T. ) ;
#231 = CALENDAR_DATE ( 2023, 27, 9 ) ;
#232 = DIRECTION ( 'NONE',  ( 1.000000000000000000, 0.000000000000000000, -3.515600205708449291E-15 ) ) ;
#233 = CONICAL_SURFACE ( 'NONE', #109, 3.083974596215556918, 1.047197551196599630 ) ;
#234 = FACE_OUTER_BOUND ( 'NONE', #35, .T. ) ;
#235 = CIRCLE ( 'NONE', #357, 2.799074173710926594 ) ;
#236 = CC_DESIGN_PERSON_AND_ORGANIZATION_ASSIGNMENT ( #353, #12, ( #110 ) ) ;
#237 = DIRECTION ( 'NONE',  ( 3.491481338843133355E-15, -0.000000000000000000, 1.000000000000000000 ) ) ;
#238 = DIRECTION ( 'NONE',  ( 3.491481338843133355E-15, -0.000000000000000000, 1.000000000000000000 ) ) ;
#239 = FACE_OUTER_BOUND ( 'NONE', #370, .T. ) ;
#240 = AXIS2_PLACEMENT_3D ( 'NONE', #331, #51, #175 ) ;
#241 = DIRECTION ( 'NONE',  ( 1.000000000000000000, 0.000000000000000000, -3.491481338843133355E-15 ) ) ;
#242 =( NAMED_UNIT ( * ) PLANE_ANGLE_UNIT ( ) SI_UNIT ( $, .RADIAN. ) );
#243 = CARTESIAN_POINT ( 'NONE',  ( 2.759215069796392417, 0.000000000000000000, -9.633747926048857214E-15 ) ) ;
#244 = EDGE_LOOP ( 'NONE', ( #179 ) ) ;
#245 = AXIS2_PLACEMENT_3D ( 'NONE', #390, #116, #336 ) ;
#246 = DIRECTION ( 'NONE',  ( 1.000000000000000000, 0.000000000000000000, 0.000000000000000000 ) ) ;
#247 = ORIENTED_EDGE ( 'NONE', *, *, #161, .F. ) ;
#248 = ORIENTED_EDGE ( 'NONE', *, *, #164, .T. ) ;
#249 = EDGE_CURVE ( 'NONE', #92, #92, #187, .T. ) ;
#250 = CARTESIAN_POINT ( 'NONE',  ( 4.000000000000254907, 0.000000000000000000, 74.19999999999998863 ) ) ;
#251 = ORIENTED_EDGE ( 'NONE', *, *, #226, .F. ) ;
#252 = AXIS2_PLACEMENT_3D ( 'NONE', #291, #316, #196 ) ;
#253 = CC_DESIGN_PERSON_AND_ORGANIZATION_ASSIGNMENT ( #133, #65, ( #60 ) ) ;
#254 = CALENDAR_DATE ( 2023, 27, 9 ) ;
#255 = DIRECTION ( 'NONE',  ( 1.000000000000000000, 0.000000000000000000, -3.485915845712887694E-15 ) ) ;
#256 = CIRCLE ( 'NONE', #141, 3.950000000000000178 ) ;
#257 = CARTESIAN_POINT ( 'NONE',  ( 8.074050596074727740E-15, 0.000000000000000000, 2.312499999999995115 ) ) ;
#258 = SHAPE_DEFINITION_REPRESENTATION ( #96, #351 ) ;
#259 = CARTESIAN_POINT ( 'NONE',  ( 1.047444401652940007E-14, 3.083974596215556918, 3.000000000000000000 ) ) ;
#260 = CLOSED_SHELL ( 'NONE', ( #171, #276, #13, #150, #325, #90, #309, #137, #153, #102, #360, #200, #372, #193, #47, #114 ) ) ;
#261 = PERSON_AND_ORGANIZATION ( #55, #395 ) ;
#262 = DIRECTION ( 'NONE',  ( -3.491481338843133355E-15, 0.000000000000000000, -1.000000000000000000 ) ) ;
#263 = AXIS2_PLACEMENT_3D ( 'NONE', #219, #343, #52 ) ;
#264 = DATE_TIME_ROLE ( 'classification_date' ) ;
#265 = FACE_OUTER_BOUND ( 'NONE', #149, .T. ) ;
#266 = EDGE_CURVE ( 'NONE', #56, #56, #235, .T. ) ;
#267 = CARTESIAN_POINT ( 'NONE',  ( 1.126310647090928995E-13, 0.000000000000000000, 32.25881904510251275 ) ) ;
#268 = EDGE_CURVE ( 'NONE', #182, #182, #256, .T. ) ;
#269 = DIRECTION ( 'NONE',  ( 3.491481338843133355E-15, -0.000000000000000000, 1.000000000000000000 ) ) ;
#270 = CIRCLE ( 'NONE', #369, 3.950000000000000178 ) ;
#271 = DIRECTION ( 'NONE',  ( 1.000000000000000000, 0.000000000000000000, -3.491481338843132961E-15 ) ) ;
#272 = CARTESIAN_POINT ( 'NONE',  ( 1.047444401652940953E-14, 0.000000000000000000, 3.000000000000002665 ) ) ;
#273 = AXIS2_PLACEMENT_3D ( 'NONE', #2, #59, #379 ) ;
#274 = CONICAL_SURFACE ( 'NONE', #117, 3.950000000000000178, 1.047197551196599630 ) ;
#275 = PERSON_AND_ORGANIZATION_ROLE ( 'design_owner' ) ;
#276 = ADVANCED_FACE ( 'NONE', ( #234, #79 ), #16, .T. ) ;
#277 = APPLICATION_PROTOCOL_DEFINITION ( 'international standard', 'config_control_design', 1994, #297 ) ;
#278 = EDGE_LOOP ( 'NONE', ( #247 ) ) ;
#279 = CARTESIAN_POINT ( 'NONE',  ( 3.083974596215563135, 0.000000000000000000, 1.687499999999983791 ) ) ;
#280 = EDGE_LOOP ( 'NONE', ( #121 ) ) ;
#281 = AXIS2_PLACEMENT_3D ( 'NONE', #204, #131, #255 ) ;
#282 = CARTESIAN_POINT ( 'NONE',  ( 3.200000000000259082, 0.000000000000000000, 75.00000000000000000 ) ) ;
#283 = EDGE_LOOP ( 'NONE', ( #81 ) ) ;
#284 = PERSON_AND_ORGANIZATION ( #55, #395 ) ;
#285 = EDGE_LOOP ( 'NONE', ( #368 ) ) ;
#286 = FACE_OUTER_BOUND ( 'NONE', #189, .T. ) ;
#287 = FACE_OUTER_BOUND ( 'NONE', #54, .T. ) ;
#288 = AXIS2_PLACEMENT_3D ( 'NONE', #20, #115, #21 ) ;
#289 = CARTESIAN_POINT ( 'NONE',  ( 5.891874759297768604E-15, 0.000000000000000000, 1.687499999999994671 ) ) ;
#290 = PRODUCT_RELATED_PRODUCT_CATEGORY ( 'detail', '', ( #7 ) ) ;
#291 = CARTESIAN_POINT ( 'NONE',  ( 2.590679153421605076E-13, 0.000000000000000000, 74.20000000000000284 ) ) ;
#292 = CARTESIAN_POINT ( 'NONE',  ( 8.074050596074727740E-15, 0.000000000000000000, 2.312499999999995115 ) ) ;
#293 = AXIS2_PLACEMENT_3D ( 'NONE', #302, #305, #246 ) ;
#294 = DIRECTION ( 'NONE',  ( -1.000000000000000000, 0.000000000000000000, 3.491481338843133355E-15 ) ) ;
#295 = CARTESIAN_POINT ( 'NONE',  ( 5.891874759297768604E-15, 0.000000000000000000, 1.687499999999994671 ) ) ;
#296 = DIRECTION ( 'NONE',  ( 3.491481338843133355E-15, -0.000000000000000000, 1.000000000000000000 ) ) ;
#297 = APPLICATION_CONTEXT ( 'configuration controlled 3d designs of mechanical parts and assemblies' ) ;
#298 = FACE_OUTER_BOUND ( 'NONE', #278, .T. ) ;
#299 = DIRECTION ( 'NONE',  ( 3.491481338843133355E-15, -0.000000000000000000, 1.000000000000000000 ) ) ;
#300 = DIRECTION ( 'NONE',  ( 1.000000000000000000, 0.000000000000000000, -3.491481338843132961E-15 ) ) ;
#301 = APPROVAL_PERSON_ORGANIZATION ( #198, #304, #5 ) ;
#302 = CARTESIAN_POINT ( 'NONE',  ( 0.000000000000000000, 0.000000000000000000, 0.000000000000000000 ) ) ;
#303 = EDGE_LOOP ( 'NONE', ( #251 ) ) ;
#304 = APPROVAL ( #63, 'UNSPECIFIED' ) ;
#305 = DIRECTION ( 'NONE',  ( 0.000000000000000000, 0.000000000000000000, 1.000000000000000000 ) ) ;
#306 = EDGE_LOOP ( 'NONE', ( #362 ) ) ;
#307 = ORIENTED_EDGE ( 'NONE', *, *, #28, .F. ) ;
#308 = AXIS2_PLACEMENT_3D ( 'NONE', #168, #262, #382 ) ;
#309 = ADVANCED_FACE ( 'NONE', ( #239, #389 ), #112, .T. ) ;
#310 = VERTEX_POINT ( 'NONE', #34 ) ;
#311 = EDGE_LOOP ( 'NONE', ( #248 ) ) ;
#312 = APPLICATION_CONTEXT ( 'configuration controlled 3d designs of mechanical parts and assemblies' ) ;
#313 = CALENDAR_DATE ( 2023, 27, 9 ) ;
#314 = EDGE_LOOP ( 'NONE', ( #394 ) ) ;
#315 = DATE_AND_TIME ( #231, #130 ) ;
#316 = DIRECTION ( 'NONE',  ( -3.491481338843133355E-15, 0.000000000000000000, -1.000000000000000000 ) ) ;
#317 = APPROVAL_ROLE ( '' ) ;
#318 = CIRCLE ( 'NONE', #330, 3.083974596215556918 ) ;
#319 = FACE_OUTER_BOUND ( 'NONE', #373, .T. ) ;
#320 = CC_DESIGN_SECURITY_CLASSIFICATION ( #110, ( #60 ) ) ;
#321 = DIRECTION ( 'NONE',  ( 3.491481338843133355E-15, -0.000000000000000000, 1.000000000000000000 ) ) ;
#322 = DATE_AND_TIME ( #254, #205 ) ;
#323 = CARTESIAN_POINT ( 'NONE',  ( 2.836828587810024157E-15, 0.000000000000000000, 0.8124999999999937828 ) ) ;
#324 = CONICAL_SURFACE ( 'NONE', #146, 3.950000000000000178, 1.047197551196599630 ) ;
#325 = ADVANCED_FACE ( 'NONE', ( #364, #208 ), #384, .T. ) ;
#326 = DIRECTION ( 'NONE',  ( 1.000000000000000000, 0.000000000000000000, -3.513364001978343273E-15 ) ) ;
#327 = CIRCLE ( 'NONE', #281, 3.950000000000000178 ) ;
#328 = CARTESIAN_POINT ( 'NONE',  ( 2.400393420454632094E-15, 0.000000000000000000, 0.6874999999999936717 ) ) ;
#329 = DIRECTION ( 'NONE',  ( 1.000000000000000000, 0.000000000000000000, -4.499968263306815724E-15 ) ) ;
#330 = AXIS2_PLACEMENT_3D ( 'NONE', #272, #296, #113 ) ;
#331 = CARTESIAN_POINT ( 'NONE',  ( 2.618611004132350143E-13, 0.000000000000000000, 75.00000000000000000 ) ) ;
#332 = DIRECTION ( 'NONE',  ( 1.000000000000000000, 0.000000000000000000, -2.478996079874459262E-15 ) ) ;
#333 = AXIS2_PLACEMENT_3D ( 'NONE', #19, #134, #232 ) ;
#334 = FACE_OUTER_BOUND ( 'NONE', #152, .T. ) ;
#335 = CC_DESIGN_APPROVAL ( #377, ( #73 ) ) ;
#336 = DIRECTION ( 'NONE',  ( 1.000000000000000000, 0.000000000000000000, -2.478996079874459262E-15 ) ) ;
#337 = ORIENTED_EDGE ( 'NONE', *, *, #249, .F. ) ;
#338 = VERTEX_POINT ( 'NONE', #217 ) ;
#339 = EDGE_LOOP ( 'NONE', ( #89 ) ) ;
#340 = VERTEX_POINT ( 'NONE', #58 ) ;
#341 = ORIENTED_EDGE ( 'NONE', *, *, #161, .T. ) ;
#342 = CC_DESIGN_APPROVAL ( #304, ( #60 ) ) ;
#343 = DIRECTION ( 'NONE',  ( 3.491481338843133355E-15, -0.000000000000000000, 1.000000000000000000 ) ) ;
#344 = ORIENTED_EDGE ( 'NONE', *, *, #268, .F. ) ;
#345 = COORDINATED_UNIVERSAL_TIME_OFFSET ( 1, 0, .AHEAD. ) ;
#346 = CARTESIAN_POINT ( 'NONE',  ( 7.637615428719337649E-15, 0.000000000000000000, 2.187499999999995115 ) ) ;
#347 = DATE_AND_TIME ( #70, #214 ) ;
#348 = DIRECTION ( 'NONE',  ( 3.491481338843133355E-15, -0.000000000000000000, 1.000000000000000000 ) ) ;
#349 = PERSON_AND_ORGANIZATION_ROLE ( 'creator' ) ;
#350 = FACE_BOUND ( 'NONE', #283, .T. ) ;
#351 = ADVANCED_BREP_SHAPE_REPRESENTATION ( '960883', ( #18, #293 ), #111 ) ;
#352 = FACE_BOUND ( 'NONE', #32, .T. ) ;
#353 = PERSON_AND_ORGANIZATION ( #55, #395 ) ;
#354 = FACE_OUTER_BOUND ( 'NONE', #311, .T. ) ;
#355 = CIRCLE ( 'NONE', #67, 3.999999999999995559 ) ;
#356 = FACE_BOUND ( 'NONE', #314, .T. ) ;
#357 = AXIS2_PLACEMENT_3D ( 'NONE', #267, #238, #332 ) ;
#358 = FACE_OUTER_BOUND ( 'NONE', #220, .T. ) ;
#359 = DIRECTION ( 'NONE',  ( 1.000000000000000000, 0.000000000000000000, -3.485915845712887694E-15 ) ) ;
#360 = ADVANCED_FACE ( 'NONE', ( #298, #108 ), #210, .T. ) ;
#361 = DIRECTION ( 'NONE',  ( 1.000000000000000000, 0.000000000000000000, -3.469446951953615767E-15 ) ) ;
#362 = ORIENTED_EDGE ( 'NONE', *, *, #138, .T. ) ;
#363 = LOCAL_TIME ( 10, 26, 47.00000000000000000, #166 ) ;
#364 = FACE_OUTER_BOUND ( 'NONE', #213, .T. ) ;
#365 = CC_DESIGN_DATE_AND_TIME_ASSIGNMENT ( #322, #264, ( #110 ) ) ;
#366 = ORIENTED_EDGE ( 'NONE', *, *, #181, .T. ) ;
#367 = APPROVAL_ROLE ( '' ) ;
#368 = ORIENTED_EDGE ( 'NONE', *, *, #249, .T. ) ;
#369 = AXIS2_PLACEMENT_3D ( 'NONE', #257, #98, #326 ) ;
#370 = EDGE_LOOP ( 'NONE', ( #221 ) ) ;
#371 = EDGE_LOOP ( 'NONE', ( #85 ) ) ;
#372 = ADVANCED_FACE ( 'NONE', ( #23, #356 ), #391, .T. ) ;
#373 = EDGE_LOOP ( 'NONE', ( #307 ) ) ;
#374 = CIRCLE ( 'NONE', #49, 4.000000000000000000 ) ;
#375 = CIRCLE ( 'NONE', #103, 2.759215069796392417 ) ;
#376 = CARTESIAN_POINT ( 'NONE',  ( 2.590679153421605076E-13, 0.000000000000000000, 74.20000000000000284 ) ) ;
#377 = APPROVAL ( #119, 'UNSPECIFIED' ) ;
#378 = FACE_OUTER_BOUND ( 'NONE', #155, .T. ) ;
#379 = DIRECTION ( 'NONE',  ( 1.000000000000000000, 0.000000000000000000, -3.513364001978343273E-15 ) ) ;
#380 = DIRECTION ( 'NONE',  ( -3.491481338843133355E-15, 0.000000000000000000, -1.000000000000000000 ) ) ;
#381 = DATE_AND_TIME ( #190, #135 ) ;
#382 = DIRECTION ( 'NONE',  ( -1.000000000000000000, 0.000000000000000000, 3.491481338843133355E-15 ) ) ;
#383 = UNCERTAINTY_MEASURE_WITH_UNIT (LENGTH_MEASURE( 1.000000000000000082E-05 ), #212, 'distance_accuracy_value', 'NONE');
#384 = CYLINDRICAL_SURFACE ( 'NONE', #68, 3.083974596215556918 ) ;
#385 = EDGE_CURVE ( 'NONE', #177, #177, #156, .T. ) ;
#386 = CARTESIAN_POINT ( 'NONE',  ( 0.000000000000000000, 0.000000000000000000, 0.000000000000000000 ) ) ;
#387 = AXIS2_PLACEMENT_3D ( 'NONE', #50, #22, #48 ) ;
#388 = DIRECTION ( 'NONE',  ( 3.491481338843133355E-15, -0.000000000000000000, 1.000000000000000000 ) ) ;
#389 = FACE_OUTER_BOUND ( 'NONE', #183, .T. ) ;
#390 = CARTESIAN_POINT ( 'NONE',  ( 1.126310647090928995E-13, 0.000000000000000000, 32.25881904510251275 ) ) ;
#391 = CONICAL_SURFACE ( 'NONE', #245, 2.799074173710926594, 0.2617993877991424134 ) ;
#392 = MECHANICAL_CONTEXT ( 'NONE', #312, 'mechanical' ) ;
#393 = ORIENTED_EDGE ( 'NONE', *, *, #29, .T. ) ;
#394 = ORIENTED_EDGE ( 'NONE', *, *, #266, .T. ) ;
#395 = ORGANIZATION ( 'UNSPECIFIED', 'UNSPECIFIED', '' ) ;
ENDSEC;
END-ISO-10303-21;
