ISO-10303-21;
HEADER;
FILE_DESCRIPTION (( 'STEP AP203' ),
    '1' );
FILE_NAME ('960836.step',
    '2021-11-30T08:32:48',
    ( '' ),
    ( '' ),
    'SwSTEP 2.0',
    'SolidWorks 2019',
    '' );
FILE_SCHEMA (( 'CONFIG_CONTROL_DESIGN' ));
ENDSEC;

DATA;
#1 = CC_DESIGN_DATE_AND_TIME_ASSIGNMENT ( #63, #161, ( #103 ) ) ;
#2 = CYLINDRICAL_SURFACE ( 'NONE', #184, 0.7684999999999995168 ) ;
#3 = DIRECTION ( 'NONE',  ( 5.012179425861387141E-31, 1.000000000000000000, 1.410803087163963107E-16 ) ) ;
#4 = CONICAL_SURFACE ( 'NONE', #193, 0.7684999999999990727, 0.5235987755982930425 ) ;
#5 = ADVANCED_FACE ( 'NONE', ( #202, #227 ), #40, .F. ) ;
#6 = CARTESIAN_POINT ( 'NONE',  ( 6.951713097960024221E-14, -2.438332721213483654E-15, 19.91049764643279829 ) ) ;
#7 = CARTESIAN_POINT ( 'NONE',  ( 2.444036937190193349E-14, 0.7684999999999990727, 7.000000000000000000 ) ) ;
#8 = VERTEX_POINT ( 'NONE', #33 ) ;
#9 = CONICAL_SURFACE ( 'NONE', #116, 1.200000000000001732, 0.7853981633974453924 ) ;
#10 = EDGE_LOOP ( 'NONE', ( #182 ) ) ;
#11 = ORIENTED_EDGE ( 'NONE', *, *, #175, .F. ) ;
#12 = ORIENTED_EDGE ( 'NONE', *, *, #147, .T. ) ;
#13 = PRODUCT_DEFINITION_FORMATION_WITH_SPECIFIED_SOURCE ( 'ANY', '', #230, .NOT_KNOWN. ) ;
#14 = ORIENTED_EDGE ( 'NONE', *, *, #120, .F. ) ;
#15 = PERSON ( 'UNSPECIFIED', 'UNSPECIFIED', 'UNSPECIFIED', ('UNSPECIFIED'), ('UNSPECIFIED'), ('UNSPECIFIED') ) ;
#16 = ADVANCED_FACE ( 'NONE', ( #42 ), #295, .F. ) ;
#17 = CIRCLE ( 'NONE', #257, 1.500000000000001554 ) ;
#18 = CARTESIAN_POINT ( 'NONE',  ( 6.951713097960024221E-14, -2.438332721213483654E-15, 19.91049764643279829 ) ) ;
#19 = DIRECTION ( 'NONE',  ( 0.0000000000000000000, 1.000000000000000000, 0.0000000000000000000 ) ) ;
#20 = AXIS2_PLACEMENT_3D ( 'NONE', #266, #172, #265 ) ;
#21 = DIRECTION ( 'NONE',  ( -3.491481338843133355E-15, 1.224646799147353207E-16, -1.000000000000000000 ) ) ;
#22 = APPROVAL ( #124, 'UNSPECIFIED' ) ;
#23 = APPROVAL_PERSON_ORGANIZATION ( #39, #86, #38 ) ;
#24 = CYLINDRICAL_SURFACE ( 'NONE', #162, 0.6650000000000007017 ) ;
#25 = CC_DESIGN_DATE_AND_TIME_ASSIGNMENT ( #166, #30, ( #296 ) ) ;
#26 = PLANE ( 'NONE',  #278 ) ;
#27 = EDGE_LOOP ( 'NONE', ( #85 ) ) ;
#28 = AXIS2_PLACEMENT_3D ( 'NONE', #199, #53, #3 ) ;
#29 = LOCAL_TIME ( 9, 32, 48.00000000000000000, #206 ) ;
#30 = DATE_TIME_ROLE ( 'creation_date' ) ;
#31 = CARTESIAN_POINT ( 'NONE',  ( -2.668813357097298490E-31, 9.360937144157398287E-33, -7.643785253572578007E-17 ) ) ;
#32 = DESIGN_CONTEXT ( 'detailed design', #97, 'design' ) ;
#33 = CARTESIAN_POINT ( 'NONE',  ( 1.745740669421566678E-13, 1.199999999999995515, 50.00000000000000000 ) ) ;
#34 = APPROVAL_DATE_TIME ( #218, #22 ) ;
#35 = VERTEX_POINT ( 'NONE', #224 ) ;
#36 = ORIENTED_EDGE ( 'NONE', *, *, #75, .F. ) ;
#37 = PRODUCT_RELATED_PRODUCT_CATEGORY ( 'detail', '', ( #230 ) ) ;
#38 = APPROVAL_ROLE ( '' ) ;
#39 = PERSON_AND_ORGANIZATION ( #15, #291 ) ;
#40 = TOROIDAL_SURFACE ( 'NONE', #60, 2.665000000000000036, 2.000000000000000000 ) ;
#41 = LOCAL_TIME ( 9, 32, 48.00000000000000000, #72 ) ;
#42 = FACE_OUTER_BOUND ( 'NONE', #106, .T. ) ;
#43 = PRODUCT_DEFINITION_SHAPE ( 'NONE', 'NONE',  #296 ) ;
#44 = FACE_BOUND ( 'NONE', #10, .T. ) ;
#45 = DIRECTION ( 'NONE',  ( 4.275831445896958607E-31, 1.000000000000000000, 1.224646799147353207E-16 ) ) ;
#46 = ADVANCED_FACE ( 'NONE', ( #298 ), #303, .T. ) ;
#47 = CARTESIAN_POINT ( 'NONE',  ( 1.745740669421566678E-13, -6.123233995736766085E-15, 50.00000000000000000 ) ) ;
#48 = PERSON_AND_ORGANIZATION ( #15, #291 ) ;
#49 = CONICAL_SURFACE ( 'NONE', #102, 1.499999999999996447, 0.1745329251994260922 ) ;
#50 = FACE_OUTER_BOUND ( 'NONE', #176, .T. ) ;
#51 = AXIS2_PLACEMENT_3D ( 'NONE', #268, #271, #127 ) ;
#52 = DIRECTION ( 'NONE',  ( 3.491481338843133355E-15, -1.224646799147353207E-16, 1.000000000000000000 ) ) ;
#53 = DIRECTION ( 'NONE',  ( -3.491481338843133355E-15, 1.224646799147353207E-16, -1.000000000000000000 ) ) ;
#54 = DIRECTION ( 'NONE',  ( 0.0000000000000000000, 1.000000000000000000, 0.0000000000000000000 ) ) ;
#55 = EDGE_LOOP ( 'NONE', ( #158 ) ) ;
#56 = UNCERTAINTY_MEASURE_WITH_UNIT (LENGTH_MEASURE( 1.000000000000000082E-05 ), #205, 'distance_accuracy_value', 'NONE');
#57 = CC_DESIGN_PERSON_AND_ORGANIZATION_ASSIGNMENT ( #138, #232, ( #103 ) ) ;
#58 = VERTEX_POINT ( 'NONE', #7 ) ;
#59 = EDGE_LOOP ( 'NONE', ( #225 ) ) ;
#60 = AXIS2_PLACEMENT_3D ( 'NONE', #273, #65, #164 ) ;
#61 = ORIENTED_EDGE ( 'NONE', *, *, #254, .T. ) ;
#62 = EDGE_CURVE ( 'NONE', #285, #285, #157, .T. ) ;
#63 = DATE_AND_TIME ( #226, #29 ) ;
#64 = MANIFOLD_SOLID_BREP ( 'Corps-Déplacer/Copier1[2]', #198 ) ;
#65 = DIRECTION ( 'NONE',  ( -3.491481338843133355E-15, 1.224646799147353207E-16, -1.000000000000000000 ) ) ;
#66 = DIRECTION ( 'NONE',  ( -3.491481338843133355E-15, 1.224646799147353207E-16, -1.000000000000000000 ) ) ;
#67 = AXIS2_PLACEMENT_3D ( 'NONE', #31, #195, #122 ) ;
#68 = CC_DESIGN_SECURITY_CLASSIFICATION ( #103, ( #13 ) ) ;
#69 = CALENDAR_DATE ( 2021, 30, 11 ) ;
#70 = DIRECTION ( 'NONE',  ( 0.0000000000000000000, 1.000000000000000000, 0.0000000000000000000 ) ) ;
#71 = DIRECTION ( 'NONE',  ( -3.491481338843133355E-15, 1.224646799147353207E-16, -1.000000000000000000 ) ) ;
#72 = COORDINATED_UNIVERSAL_TIME_OFFSET ( 1, 0, .AHEAD. ) ;
#73 = DIRECTION ( 'NONE',  ( -4.275831445896958607E-31, -1.000000000000000000, -1.224646799147353207E-16 ) ) ;
#74 = CARTESIAN_POINT ( 'NONE',  ( 5.358479882634335789E-14, -1.879501735712543302E-15, 15.34729635533384595 ) ) ;
#75 = EDGE_CURVE ( 'NONE', #8, #8, #95, .T. ) ;
#76 = DIRECTION ( 'NONE',  ( -5.012179425861387141E-31, -1.000000000000000000, -1.410803087163963107E-16 ) ) ;
#77 = CARTESIAN_POINT ( 'NONE',  ( 1.735266225405037467E-13, 1.499999999999995559, 49.70000000000000284 ) ) ;
#78 = FACE_BOUND ( 'NONE', #297, .T. ) ;
#79 = CONICAL_SURFACE ( 'NONE', #235, 0.7684999999999999609, 0.5235987755982940417 ) ;
#80 = ADVANCED_FACE ( 'NONE', ( #145, #276 ), #9, .T. ) ;
#81 = DIRECTION ( 'NONE',  ( -4.275831445896958607E-31, -1.000000000000000000, -1.224646799147353207E-16 ) ) ;
#82 = COORDINATED_UNIVERSAL_TIME_OFFSET ( 1, 0, .AHEAD. ) ;
#83 = ADVANCED_FACE ( 'NONE', ( #50, #214 ), #24, .T. ) ;
#84 = AXIS2_PLACEMENT_3D ( 'NONE', #91, #279, #70 ) ;
#85 = ORIENTED_EDGE ( 'NONE', *, *, #181, .F. ) ;
#86 = APPROVAL ( #110, 'UNSPECIFIED' ) ;
#87 = DIRECTION ( 'NONE',  ( 0.0000000000000000000, 1.000000000000000000, 0.0000000000000000000 ) ) ;
#88 = APPROVAL_DATE_TIME ( #142, #190 ) ;
#89 = CC_DESIGN_PERSON_AND_ORGANIZATION_ASSIGNMENT ( #209, #118, ( #230 ) ) ;
#90 = COORDINATED_UNIVERSAL_TIME_OFFSET ( 1, 0, .AHEAD. ) ;
#91 = CARTESIAN_POINT ( 'NONE',  ( 2.506627765991136237E-14, -8.792066668447528551E-16, 7.179267258583378108 ) ) ;
#92 = CARTESIAN_POINT ( 'NONE',  ( 2.444036937190193349E-14, -8.572527594031473190E-16, 7.000000000000000000 ) ) ;
#93 = ADVANCED_FACE ( 'NONE', ( #44, #256 ), #79, .T. ) ;
#94 = VERTEX_POINT ( 'NONE', #179 ) ;
#95 = CIRCLE ( 'NONE', #261, 1.200000000000001732 ) ;
#96 = DIRECTION ( 'NONE',  ( 3.491481338843133355E-15, -1.224646799147353207E-16, 1.000000000000000000 ) ) ;
#97 = APPLICATION_CONTEXT ( 'configuration controlled 3d designs of mechanical parts and assemblies' ) ;
#98 = CARTESIAN_POINT ( 'NONE',  ( 2.506627765991136237E-14, 0.6650000000000007017, 7.179267258583378108 ) ) ;
#99 = VERTEX_POINT ( 'NONE', #156 ) ;
#100 = ADVANCED_FACE ( 'NONE', ( #114, #186 ), #2, .T. ) ;
#101 = FACE_BOUND ( 'NONE', #228, .T. ) ;
#102 = AXIS2_PLACEMENT_3D ( 'NONE', #6, #52, #216 ) ;
#103 = SECURITY_CLASSIFICATION ( '', '', #144 ) ;
#104 = ORIENTED_EDGE ( 'NONE', *, *, #111, .T. ) ;
#105 = APPROVAL_DATE_TIME ( #251, #86 ) ;
#106 = EDGE_LOOP ( 'NONE', ( #36 ) ) ;
#107 = AXIS2_PLACEMENT_3D ( 'NONE', #245, #154, #54 ) ;
#108 = LOCAL_TIME ( 9, 32, 48.00000000000000000, #90 ) ;
#109 = ORIENTED_EDGE ( 'NONE', *, *, #254, .F. ) ;
#110 = APPROVAL_STATUS ( 'not_yet_approved' ) ;
#111 = EDGE_CURVE ( 'NONE', #262, #262, #17, .T. ) ;
#112 = ORIENTED_EDGE ( 'NONE', *, *, #181, .T. ) ;
#113 = CYLINDRICAL_SURFACE ( 'NONE', #165, 1.499999999999998890 ) ;
#114 = FACE_OUTER_BOUND ( 'NONE', #275, .T. ) ;
#115 = AXIS2_PLACEMENT_3D ( 'NONE', #139, #233, #207 ) ;
#116 = AXIS2_PLACEMENT_3D ( 'NONE', #143, #119, #87 ) ;
#117 = DIRECTION ( 'NONE',  ( 0.0000000000000000000, 1.000000000000000000, 0.0000000000000000000 ) ) ;
#118 = PERSON_AND_ORGANIZATION_ROLE ( 'design_owner' ) ;
#119 = DIRECTION ( 'NONE',  ( -3.491481338843133355E-15, 1.224646799147353207E-16, -1.000000000000000000 ) ) ;
#120 = EDGE_CURVE ( 'NONE', #58, #58, #252, .T. ) ;
#121 = CIRCLE ( 'NONE', #20, 0.6649999999999999245 ) ;
#122 = DIRECTION ( 'NONE',  ( 4.275831445896957731E-31, 1.000000000000000000, 1.224646799147353207E-16 ) ) ;
#123 = ORIENTED_EDGE ( 'NONE', *, *, #175, .T. ) ;
#124 = APPROVAL_STATUS ( 'not_yet_approved' ) ;
#125 = FACE_OUTER_BOUND ( 'NONE', #149, .T. ) ;
#126 = VERTEX_POINT ( 'NONE', #242 ) ;
#127 = DIRECTION ( 'NONE',  ( 1.000000000000000000, 0.0000000000000000000, 0.0000000000000000000 ) ) ;
#128 = PERSON_AND_ORGANIZATION ( #15, #291 ) ;
#129 = CARTESIAN_POINT ( 'NONE',  ( 2.444036937190193349E-14, 5.762826964878174639E-33, 7.000000000000000000 ) ) ;
#130 = AXIS2_PLACEMENT_3D ( 'NONE', #18, #280, #281 ) ;
#131 = APPLICATION_PROTOCOL_DEFINITION ( 'international standard', 'config_control_design', 1994, #188 ) ;
#132 = EDGE_CURVE ( 'NONE', #263, #263, #272, .T. ) ;
#133 = ORIENTED_EDGE ( 'NONE', *, *, #75, .T. ) ;
#134 =( NAMED_UNIT ( * ) SI_UNIT ( $, .STERADIAN. ) SOLID_ANGLE_UNIT ( ) );
#135 = SHAPE_DEFINITION_REPRESENTATION ( #43, #137 ) ;
#136 = CC_DESIGN_PERSON_AND_ORGANIZATION_ASSIGNMENT ( #237, #302, ( #296 ) ) ;
#137 = ADVANCED_BREP_SHAPE_REPRESENTATION ( '960836', ( #269, #64, #51 ), #204 ) ;
#138 = PERSON_AND_ORGANIZATION ( #15, #291 ) ;
#139 = CARTESIAN_POINT ( 'NONE',  ( 1.745740669421566678E-13, 8.998558695971067645E-33, 50.00000000000000000 ) ) ;
#140 = DIRECTION ( 'NONE',  ( -3.491481338843133355E-15, 1.224646799147353207E-16, -1.000000000000000000 ) ) ;
#141 = DIRECTION ( 'NONE',  ( 0.0000000000000000000, 1.000000000000000000, 0.0000000000000000000 ) ) ;
#142 = DATE_AND_TIME ( #301, #41 ) ;
#143 = CARTESIAN_POINT ( 'NONE',  ( 1.745740669421566678E-13, -6.123233995736766085E-15, 50.00000000000000000 ) ) ;
#144 = SECURITY_CLASSIFICATION_LEVEL ( 'unclassified' ) ;
#145 = FACE_OUTER_BOUND ( 'NONE', #267, .T. ) ;
#146 = CARTESIAN_POINT ( 'NONE',  ( 0.0000000000000000000, 0.0000000000000000000, 0.0000000000000000000 ) ) ;
#147 = EDGE_CURVE ( 'NONE', #126, #126, #283, .T. ) ;
#148 = DIRECTION ( 'NONE',  ( 3.491481338843133355E-15, -1.224646799147353207E-16, 1.000000000000000000 ) ) ;
#149 = EDGE_LOOP ( 'NONE', ( #264 ) ) ;
#150 = ADVANCED_FACE ( 'NONE', ( #170, #260 ), #113, .T. ) ;
#151 = AXIS2_PLACEMENT_3D ( 'NONE', #129, #171, #220 ) ;
#152 = CARTESIAN_POINT ( 'NONE',  ( -1.334406678548649245E-31, 4.680468572078699143E-33, -3.821892626786289003E-17 ) ) ;
#153 = LOCAL_TIME ( 9, 32, 48.00000000000000000, #284 ) ;
#154 = DIRECTION ( 'NONE',  ( -3.491481338843133355E-15, 1.224646799147353207E-16, -1.000000000000000000 ) ) ;
#155 = PERSON_AND_ORGANIZATION ( #15, #291 ) ;
#156 = CARTESIAN_POINT ( 'NONE',  ( 5.237222008264700033E-14, 0.6649999999999980371, 15.00000000000000000 ) ) ;
#157 = CIRCLE ( 'NONE', #84, 0.6650000000000014788 ) ;
#158 = ORIENTED_EDGE ( 'NONE', *, *, #132, .T. ) ;
#159 = ORIENTED_EDGE ( 'NONE', *, *, #249, .F. ) ;
#160 = ADVANCED_FACE ( 'NONE', ( #78, #288 ), #49, .T. ) ;
#161 = DATE_TIME_ROLE ( 'classification_date' ) ;
#162 = AXIS2_PLACEMENT_3D ( 'NONE', #259, #277, #191 ) ;
#163 = CC_DESIGN_APPROVAL ( #190, ( #296 ) ) ;
#164 = DIRECTION ( 'NONE',  ( 4.275831445896958607E-31, 1.000000000000000000, 1.224646799147353207E-16 ) ) ;
#165 = AXIS2_PLACEMENT_3D ( 'NONE', #300, #66, #282 ) ;
#166 = DATE_AND_TIME ( #69, #108 ) ;
#167 = DIRECTION ( 'NONE',  ( 0.0000000000000000000, 1.000000000000000000, 0.0000000000000000000 ) ) ;
#168 = CC_DESIGN_PERSON_AND_ORGANIZATION_ASSIGNMENT ( #48, #208, ( #13 ) ) ;
#169 = DIRECTION ( 'NONE',  ( -3.491481338843133355E-15, 1.224646799147353207E-16, -1.000000000000000000 ) ) ;
#170 = FACE_OUTER_BOUND ( 'NONE', #183, .T. ) ;
#171 = DIRECTION ( 'NONE',  ( 3.491481338843133355E-15, -1.224646799147353207E-16, 1.000000000000000000 ) ) ;
#172 = DIRECTION ( 'NONE',  ( -3.491481338843133355E-15, 1.224646799147353207E-16, -1.000000000000000000 ) ) ;
#173 = APPROVAL_PERSON_ORGANIZATION ( #155, #22, #244 ) ;
#174 = VERTEX_POINT ( 'NONE', #217 ) ;
#175 = EDGE_CURVE ( 'NONE', #174, #174, #178, .T. ) ;
#176 = EDGE_LOOP ( 'NONE', ( #112 ) ) ;
#177 = CALENDAR_DATE ( 2021, 30, 11 ) ;
#178 = CIRCLE ( 'NONE', #67, 0.6241624327025946384 ) ;
#179 = CARTESIAN_POINT ( 'NONE',  ( 2.444036937190193349E-14, 0.7684999999999990727, 7.000000000000000000 ) ) ;
#180 = EDGE_LOOP ( 'NONE', ( #104 ) ) ;
#181 = EDGE_CURVE ( 'NONE', #99, #99, #121, .T. ) ;
#182 = ORIENTED_EDGE ( 'NONE', *, *, #62, .T. ) ;
#183 = EDGE_LOOP ( 'NONE', ( #253 ) ) ;
#184 = AXIS2_PLACEMENT_3D ( 'NONE', #146, #212, #45 ) ;
#185 = APPROVAL_STATUS ( 'not_yet_approved' ) ;
#186 = FACE_OUTER_BOUND ( 'NONE', #246, .T. ) ;
#187 = CARTESIAN_POINT ( 'NONE',  ( 2.444036937190193349E-14, -8.572527594031473190E-16, 7.000000000000000000 ) ) ;
#188 = APPLICATION_CONTEXT ( 'configuration controlled 3d designs of mechanical parts and assemblies' ) ;
#189 = DIRECTION ( 'NONE',  ( -3.491481338843133355E-15, 1.224646799147353207E-16, -1.000000000000000000 ) ) ;
#190 = APPROVAL ( #185, 'UNSPECIFIED' ) ;
#191 = DIRECTION ( 'NONE',  ( 4.275831445896957731E-31, 1.000000000000000000, 1.224646799147353207E-16 ) ) ;
#192 = MECHANICAL_CONTEXT ( 'NONE', #188, 'mechanical' ) ;
#193 = AXIS2_PLACEMENT_3D ( 'NONE', #219, #148, #76 ) ;
#194 = FACE_OUTER_BOUND ( 'NONE', #59, .T. ) ;
#195 = DIRECTION ( 'NONE',  ( -3.491481338843133355E-15, 1.224646799147353207E-16, -1.000000000000000000 ) ) ;
#196 = FACE_OUTER_BOUND ( 'NONE', #289, .T. ) ;
#197 = CALENDAR_DATE ( 2021, 30, 11 ) ;
#198 = CLOSED_SHELL ( 'NONE', ( #270, #287, #100, #46 ) ) ;
#199 = CARTESIAN_POINT ( 'NONE',  ( 8.728703347107831416E-16, -3.061616997868382402E-17, 0.2499999999999999445 ) ) ;
#200 = ORIENTED_EDGE ( 'NONE', *, *, #111, .F. ) ;
#201 = EDGE_LOOP ( 'NONE', ( #221 ) ) ;
#202 = FACE_OUTER_BOUND ( 'NONE', #27, .T. ) ;
#203 = CLOSED_SHELL ( 'NONE', ( #274, #93, #83, #5, #160, #150, #80, #16 ) ) ;
#204 =( GEOMETRIC_REPRESENTATION_CONTEXT ( 3 ) GLOBAL_UNCERTAINTY_ASSIGNED_CONTEXT ( ( #56 ) ) GLOBAL_UNIT_ASSIGNED_CONTEXT ( ( #205, #248, #134 ) ) REPRESENTATION_CONTEXT ( 'NONE', 'WORKASPACE' ) );
#205 =( LENGTH_UNIT ( ) NAMED_UNIT ( * ) SI_UNIT ( .MILLI., .METRE. ) );
#206 = COORDINATED_UNIVERSAL_TIME_OFFSET ( 1, 0, .AHEAD. ) ;
#207 = DIRECTION ( 'NONE',  ( 4.275831445896958607E-31, 1.000000000000000000, 1.224646799147353207E-16 ) ) ;
#208 = PERSON_AND_ORGANIZATION_ROLE ( 'design_supplier' ) ;
#209 = PERSON_AND_ORGANIZATION ( #15, #291 ) ;
#210 = CARTESIAN_POINT ( 'NONE',  ( 1.735266225405037467E-13, -6.086494591762345225E-15, 49.70000000000000284 ) ) ;
#211 = CC_DESIGN_APPROVAL ( #86, ( #103 ) ) ;
#212 = DIRECTION ( 'NONE',  ( -3.491481338843133355E-15, 1.224646799147353207E-16, -1.000000000000000000 ) ) ;
#213 = APPLICATION_PROTOCOL_DEFINITION ( 'international standard', 'config_control_design', 1994, #97 ) ;
#214 = FACE_OUTER_BOUND ( 'NONE', #201, .T. ) ;
#215 = CC_DESIGN_PERSON_AND_ORGANIZATION_ASSIGNMENT ( #128, #222, ( #13 ) ) ;
#216 = DIRECTION ( 'NONE',  ( 0.0000000000000000000, -1.000000000000000000, 0.0000000000000000000 ) ) ;
#217 = CARTESIAN_POINT ( 'NONE',  ( -4.276423536147513034E-47, 0.6241624327025946384, 0.0000000000000000000 ) ) ;
#218 = DATE_AND_TIME ( #197, #153 ) ;
#219 = CARTESIAN_POINT ( 'NONE',  ( 8.728703347107831416E-16, -3.061616997868382402E-17, 0.2499999999999999445 ) ) ;
#220 = DIRECTION ( 'NONE',  ( -4.275831445896958607E-31, -1.000000000000000000, -1.224646799147353207E-16 ) ) ;
#221 = ORIENTED_EDGE ( 'NONE', *, *, #62, .F. ) ;
#222 = PERSON_AND_ORGANIZATION_ROLE ( 'creator' ) ;
#223 = AXIS2_PLACEMENT_3D ( 'NONE', #92, #189, #238 ) ;
#224 = CARTESIAN_POINT ( 'NONE',  ( 8.728703347107835360E-16, 0.7684999999999990727, 0.2500000000000000555 ) ) ;
#225 = ORIENTED_EDGE ( 'NONE', *, *, #249, .T. ) ;
#226 = CALENDAR_DATE ( 2021, 30, 11 ) ;
#227 = FACE_OUTER_BOUND ( 'NONE', #250, .T. ) ;
#228 = EDGE_LOOP ( 'NONE', ( #11 ) ) ;
#229 = APPROVAL_PERSON_ORGANIZATION ( #255, #190, #299 ) ;
#230 = PRODUCT ( '960836', '960836', '', ( #192 ) ) ;
#231 = EDGE_LOOP ( 'NONE', ( #14 ) ) ;
#232 = PERSON_AND_ORGANIZATION_ROLE ( 'classification_officer' ) ;
#233 = DIRECTION ( 'NONE',  ( -3.491481338843133355E-15, 1.224646799147353207E-16, -1.000000000000000000 ) ) ;
#234 = CARTESIAN_POINT ( 'NONE',  ( 2.444036937190193349E-14, 5.762826964878174639E-33, 7.000000000000000000 ) ) ;
#235 = AXIS2_PLACEMENT_3D ( 'NONE', #187, #21, #19 ) ;
#236 = LOCAL_TIME ( 9, 32, 48.00000000000000000, #82 ) ;
#237 = PERSON_AND_ORGANIZATION ( #15, #291 ) ;
#238 = DIRECTION ( 'NONE',  ( 0.0000000000000000000, 1.000000000000000000, 0.0000000000000000000 ) ) ;
#239 = ORIENTED_EDGE ( 'NONE', *, *, #147, .F. ) ;
#240 = CARTESIAN_POINT ( 'NONE',  ( 6.951713097960024221E-14, 1.499999999999994005, 19.91049764643279829 ) ) ;
#241 = CIRCLE ( 'NONE', #107, 0.7684999999999999609 ) ;
#242 = CARTESIAN_POINT ( 'NONE',  ( 5.358479882634335789E-14, 0.6953844939755792209, 15.34729635533384595 ) ) ;
#243 = PLANE ( 'NONE',  #151 ) ;
#244 = APPROVAL_ROLE ( '' ) ;
#245 = CARTESIAN_POINT ( 'NONE',  ( 2.444036937190193349E-14, -8.572527594031473190E-16, 7.000000000000000000 ) ) ;
#246 = EDGE_LOOP ( 'NONE', ( #61 ) ) ;
#247 = AXIS2_PLACEMENT_3D ( 'NONE', #234, #258, #73 ) ;
#248 =( NAMED_UNIT ( * ) PLANE_ANGLE_UNIT ( ) SI_UNIT ( $, .RADIAN. ) );
#249 = EDGE_CURVE ( 'NONE', #35, #35, #293, .T. ) ;
#250 = EDGE_LOOP ( 'NONE', ( #12 ) ) ;
#251 = DATE_AND_TIME ( #177, #236 ) ;
#252 = CIRCLE ( 'NONE', #223, 0.7684999999999999609 ) ;
#253 = ORIENTED_EDGE ( 'NONE', *, *, #132, .F. ) ;
#254 = EDGE_CURVE ( 'NONE', #94, #94, #241, .T. ) ;
#255 = PERSON_AND_ORGANIZATION ( #15, #291 ) ;
#256 = FACE_OUTER_BOUND ( 'NONE', #231, .T. ) ;
#257 = AXIS2_PLACEMENT_3D ( 'NONE', #210, #140, #141 ) ;
#258 = DIRECTION ( 'NONE',  ( 3.491481338843133355E-15, -1.224646799147353207E-16, 1.000000000000000000 ) ) ;
#259 = CARTESIAN_POINT ( 'NONE',  ( 0.0000000000000000000, 0.0000000000000000000, 0.0000000000000000000 ) ) ;
#260 = FACE_OUTER_BOUND ( 'NONE', #180, .T. ) ;
#261 = AXIS2_PLACEMENT_3D ( 'NONE', #47, #169, #117 ) ;
#262 = VERTEX_POINT ( 'NONE', #77 ) ;
#263 = VERTEX_POINT ( 'NONE', #240 ) ;
#264 = ORIENTED_EDGE ( 'NONE', *, *, #120, .T. ) ;
#265 = DIRECTION ( 'NONE',  ( 0.0000000000000000000, 1.000000000000000000, 0.0000000000000000000 ) ) ;
#266 = CARTESIAN_POINT ( 'NONE',  ( 5.237222008264700033E-14, -1.836970198721029589E-15, 15.00000000000000000 ) ) ;
#267 = EDGE_LOOP ( 'NONE', ( #200 ) ) ;
#268 = CARTESIAN_POINT ( 'NONE',  ( 0.0000000000000000000, 0.0000000000000000000, 0.0000000000000000000 ) ) ;
#269 = MANIFOLD_SOLID_BREP ( 'Corps-Déplacer/Copier1[1]', #203 ) ;
#270 = ADVANCED_FACE ( 'NONE', ( #196 ), #26, .F. ) ;
#271 = DIRECTION ( 'NONE',  ( 0.0000000000000000000, 0.0000000000000000000, 1.000000000000000000 ) ) ;
#272 = CIRCLE ( 'NONE', #130, 1.499999999999996447 ) ;
#273 = CARTESIAN_POINT ( 'NONE',  ( 5.237222008264700033E-14, -1.734723475976807094E-15, 15.00000000000000000 ) ) ;
#274 = ADVANCED_FACE ( 'NONE', ( #125 ), #243, .F. ) ;
#275 = EDGE_LOOP ( 'NONE', ( #159 ) ) ;
#276 = FACE_BOUND ( 'NONE', #292, .T. ) ;
#277 = DIRECTION ( 'NONE',  ( -3.491481338843133355E-15, 1.224646799147353207E-16, -1.000000000000000000 ) ) ;
#278 = AXIS2_PLACEMENT_3D ( 'NONE', #152, #96, #81 ) ;
#279 = DIRECTION ( 'NONE',  ( -3.491481338843133355E-15, 1.224646799147353207E-16, -1.000000000000000000 ) ) ;
#280 = DIRECTION ( 'NONE',  ( -3.491481338843133355E-15, 1.224646799147353207E-16, -1.000000000000000000 ) ) ;
#281 = DIRECTION ( 'NONE',  ( 0.0000000000000000000, 1.000000000000000000, 0.0000000000000000000 ) ) ;
#282 = DIRECTION ( 'NONE',  ( 4.275831445896958607E-31, 1.000000000000000000, 1.224646799147353454E-16 ) ) ;
#283 = CIRCLE ( 'NONE', #290, 0.6953844939755811083 ) ;
#284 = COORDINATED_UNIVERSAL_TIME_OFFSET ( 1, 0, .AHEAD. ) ;
#285 = VERTEX_POINT ( 'NONE', #98 ) ;
#286 = EDGE_LOOP ( 'NONE', ( #109 ) ) ;
#287 = ADVANCED_FACE ( 'NONE', ( #101, #194 ), #4, .T. ) ;
#288 = FACE_OUTER_BOUND ( 'NONE', #55, .T. ) ;
#289 = EDGE_LOOP ( 'NONE', ( #123 ) ) ;
#290 = AXIS2_PLACEMENT_3D ( 'NONE', #74, #71, #167 ) ;
#291 = ORGANIZATION ( 'UNSPECIFIED', 'UNSPECIFIED', '' ) ;
#292 = EDGE_LOOP ( 'NONE', ( #133 ) ) ;
#293 = CIRCLE ( 'NONE', #28, 0.7684999999999990727 ) ;
#294 = CC_DESIGN_APPROVAL ( #22, ( #13 ) ) ;
#295 = PLANE ( 'NONE',  #115 ) ;
#296 = PRODUCT_DEFINITION ( 'UNKNOWN', '', #13, #32 ) ;
#297 = EDGE_LOOP ( 'NONE', ( #239 ) ) ;
#298 = FACE_OUTER_BOUND ( 'NONE', #286, .T. ) ;
#299 = APPROVAL_ROLE ( '' ) ;
#300 = CARTESIAN_POINT ( 'NONE',  ( 0.0000000000000000000, 0.0000000000000000000, 0.0000000000000000000 ) ) ;
#301 = CALENDAR_DATE ( 2021, 30, 11 ) ;
#302 = PERSON_AND_ORGANIZATION_ROLE ( 'creator' ) ;
#303 = PLANE ( 'NONE',  #247 ) ;
ENDSEC;
END-ISO-10303-21;
