ISO-10303-21;
HEADER;
FILE_DESCRIPTION (( 'STEP AP203' ),
    '1' );
FILE_NAME ('960753.step',
    '2021-11-29T14:49:35',
    ( '' ),
    ( '' ),
    'SwSTEP 2.0',
    'SolidWorks 2019',
    '' );
FILE_SCHEMA (( 'CONFIG_CONTROL_DESIGN' ));
ENDSEC;

DATA;
#1 = FACE_OUTER_BOUND ( 'NONE', #272, .T. ) ;
#2 = FACE_OUTER_BOUND ( 'NONE', #91, .T. ) ;
#3 = ADVANCED_BREP_SHAPE_REPRESENTATION ( '960753', ( #152, #250, #295 ), #19 ) ;
#4 = CARTESIAN_POINT ( 'NONE',  ( 4.189777606611760026E-14, -1.469576158976823750E-15, 12.00000000000000000 ) ) ;
#5 = CARTESIAN_POINT ( 'NONE',  ( 1.326762908760390423E-13, -4.653657836759941152E-15, 38.00000000000000000 ) ) ;
#6 = CARTESIAN_POINT ( 'NONE',  ( 1.745740669421566678E-14, 0.5984999999999994769, 5.000000000000000000 ) ) ;
#7 = FACE_OUTER_BOUND ( 'NONE', #279, .T. ) ;
#8 = DIRECTION ( 'NONE',  ( -3.491481338843133355E-15, 1.224646799147352961E-16, -1.000000000000000000 ) ) ;
#9 = DIRECTION ( 'NONE',  ( -3.491481338843133355E-15, 1.224646799147352961E-16, -1.000000000000000000 ) ) ;
#10 = COORDINATED_UNIVERSAL_TIME_OFFSET ( 1, 0, .AHEAD. ) ;
#11 = APPROVAL_DATE_TIME ( #32, #144 ) ;
#12 = CARTESIAN_POINT ( 'NONE',  ( 1.814378921295066152E-14, -6.363984574927323514E-16, 5.196587766659071406 ) ) ;
#13 = EDGE_CURVE ( 'NONE', #176, #176, #230, .T. ) ;
#14 = APPROVAL_STATUS ( 'not_yet_approved' ) ;
#15 = DIRECTION ( 'NONE',  ( 4.275831445896957731E-31, 1.000000000000000000, 1.224646799147353207E-16 ) ) ;
#16 = CARTESIAN_POINT ( 'NONE',  ( 1.316288464743861212E-13, 1.499999999999998668, 37.69999999999999574 ) ) ;
#17 = AXIS2_PLACEMENT_3D ( 'NONE', #125, #79, #214 ) ;
#18 = DATE_AND_TIME ( #291, #39 ) ;
#19 =( GEOMETRIC_REPRESENTATION_CONTEXT ( 3 ) GLOBAL_UNCERTAINTY_ASSIGNED_CONTEXT ( ( #191 ) ) GLOBAL_UNIT_ASSIGNED_CONTEXT ( ( #29, #219, #212 ) ) REPRESENTATION_CONTEXT ( 'NONE', 'WORKASPACE' ) );
#20 = EDGE_CURVE ( 'NONE', #67, #67, #28, .T. ) ;
#21 = FACE_OUTER_BOUND ( 'NONE', #72, .T. ) ;
#22 = AXIS2_PLACEMENT_3D ( 'NONE', #255, #9, #124 ) ;
#23 = ORIENTED_EDGE ( 'NONE', *, *, #224, .T. ) ;
#24 = DIRECTION ( 'NONE',  ( 4.275831445896957731E-31, 1.000000000000000000, 1.224646799147352961E-16 ) ) ;
#25 = DIRECTION ( 'NONE',  ( 0.0000000000000000000, 1.000000000000000000, 0.0000000000000000000 ) ) ;
#26 = FACE_OUTER_BOUND ( 'NONE', #179, .T. ) ;
#27 = CARTESIAN_POINT ( 'NONE',  ( 1.745740669421566678E-14, -6.123233995736765296E-16, 5.000000000000000000 ) ) ;
#28 = CIRCLE ( 'NONE', #145, 1.500000000000003331 ) ;
#29 =( LENGTH_UNIT ( ) NAMED_UNIT ( * ) SI_UNIT ( .MILLI., .METRE. ) );
#30 = CARTESIAN_POINT ( 'NONE',  ( -9.709610056474084468E-32, 3.405672756816121819E-33, -2.780942847511040466E-17 ) ) ;
#31 = ORIENTED_EDGE ( 'NONE', *, *, #213, .T. ) ;
#32 = DATE_AND_TIME ( #171, #201 ) ;
#33 = EDGE_LOOP ( 'NONE', ( #202 ) ) ;
#34 = DIRECTION ( 'NONE',  ( -3.491481338843133355E-15, 1.224646799147352961E-16, -1.000000000000000000 ) ) ;
#35 = PERSON_AND_ORGANIZATION_ROLE ( 'classification_officer' ) ;
#36 = DIRECTION ( 'NONE',  ( -3.491481338843133355E-15, 1.224646799147352961E-16, -1.000000000000000000 ) ) ;
#37 = PERSON_AND_ORGANIZATION ( #294, #157 ) ;
#38 = AXIS2_PLACEMENT_3D ( 'NONE', #98, #146, #181 ) ;
#39 = LOCAL_TIME ( 15, 49, 35.00000000000000000, #131 ) ;
#40 = APPROVAL_ROLE ( '' ) ;
#41 = DIRECTION ( 'NONE',  ( -3.491481338843133355E-15, 1.224646799147352961E-16, -1.000000000000000000 ) ) ;
#42 = PRODUCT_RELATED_PRODUCT_CATEGORY ( 'detail', '', ( #180 ) ) ;
#43 = PERSON_AND_ORGANIZATION ( #294, #157 ) ;
#44 = AXIS2_PLACEMENT_3D ( 'NONE', #163, #147, #120 ) ;
#45 = EDGE_LOOP ( 'NONE', ( #199 ) ) ;
#46 = CC_DESIGN_PERSON_AND_ORGANIZATION_ASSIGNMENT ( #83, #109, ( #164 ) ) ;
#47 = LOCAL_TIME ( 15, 49, 35.00000000000000000, #289 ) ;
#48 = EDGE_LOOP ( 'NONE', ( #233 ) ) ;
#49 = DIRECTION ( 'NONE',  ( -3.491481338843133355E-15, 1.224646799147352961E-16, -1.000000000000000000 ) ) ;
#50 = FACE_BOUND ( 'NONE', #118, .T. ) ;
#51 = CC_DESIGN_PERSON_AND_ORGANIZATION_ASSIGNMENT ( #195, #35, ( #173 ) ) ;
#52 = ORIENTED_EDGE ( 'NONE', *, *, #224, .F. ) ;
#53 = AXIS2_PLACEMENT_3D ( 'NONE', #239, #36, #128 ) ;
#54 = ORIENTED_EDGE ( 'NONE', *, *, #119, .T. ) ;
#55 = CARTESIAN_POINT ( 'NONE',  ( 1.745740669421566678E-14, -6.123233995736765296E-16, 5.000000000000000000 ) ) ;
#56 = APPLICATION_CONTEXT ( 'configuration controlled 3d designs of mechanical parts and assemblies' ) ;
#57 = FACE_OUTER_BOUND ( 'NONE', #45, .T. ) ;
#58 = APPLICATION_PROTOCOL_DEFINITION ( 'international standard', 'config_control_design', 1994, #251 ) ;
#59 = ADVANCED_FACE ( 'NONE', ( #107, #284 ), #75, .T. ) ;
#60 = SECURITY_CLASSIFICATION_LEVEL ( 'unclassified' ) ;
#61 = FACE_OUTER_BOUND ( 'NONE', #48, .T. ) ;
#62 = DATE_AND_TIME ( #87, #47 ) ;
#63 = CARTESIAN_POINT ( 'NONE',  ( 4.311035480981396413E-14, 0.5153844939755791721, 12.34729635533384773 ) ) ;
#64 = APPROVAL_PERSON_ORGANIZATION ( #192, #144, #174 ) ;
#65 = PRODUCT_DEFINITION_SHAPE ( 'NONE', 'NONE',  #267 ) ;
#66 = DATE_TIME_ROLE ( 'creation_date' ) ;
#67 = VERTEX_POINT ( 'NONE', #16 ) ;
#68 = VERTEX_POINT ( 'NONE', #298 ) ;
#69 = ORIENTED_EDGE ( 'NONE', *, *, #170, .T. ) ;
#70 = LOCAL_TIME ( 15, 49, 35.00000000000000000, #10 ) ;
#71 = APPROVAL_PERSON_ORGANIZATION ( #43, #300, #40 ) ;
#72 = EDGE_LOOP ( 'NONE', ( #69 ) ) ;
#73 = ORIENTED_EDGE ( 'NONE', *, *, #13, .T. ) ;
#74 = CONICAL_SURFACE ( 'NONE', #44, 1.200000000000003286, 0.7853981633974453924 ) ;
#75 = CYLINDRICAL_SURFACE ( 'NONE', #175, 0.5984999999999996989 ) ;
#76 = ADVANCED_FACE ( 'NONE', ( #100, #57 ), #259, .F. ) ;
#77 = ORIENTED_EDGE ( 'NONE', *, *, #112, .F. ) ;
#78 = VERTEX_POINT ( 'NONE', #240 ) ;
#79 = DIRECTION ( 'NONE',  ( -3.491481338843133355E-15, 1.224646799147352961E-16, -1.000000000000000000 ) ) ;
#80 = CARTESIAN_POINT ( 'NONE',  ( 8.728703347107833388E-16, 0.5984999999999994769, 0.2500000000000000000 ) ) ;
#81 = CONICAL_SURFACE ( 'NONE', #95, 0.5984999999999994769, 0.5235987755982927094 ) ;
#82 = CARTESIAN_POINT ( 'NONE',  ( 8.728703347107831416E-16, -3.061616997868381785E-17, 0.2499999999999999445 ) ) ;
#83 = PERSON_AND_ORGANIZATION ( #294, #157 ) ;
#84 = CYLINDRICAL_SURFACE ( 'NONE', #127, 0.4849999999999998757 ) ;
#85 = CARTESIAN_POINT ( 'NONE',  ( 1.745740669421566678E-14, 4.488031149615597999E-33, 5.000000000000000000 ) ) ;
#86 = APPLICATION_PROTOCOL_DEFINITION ( 'international standard', 'config_control_design', 1994, #56 ) ;
#87 = CALENDAR_DATE ( 2021, 29, 11 ) ;
#88 = APPROVAL_STATUS ( 'not_yet_approved' ) ;
#89 = CIRCLE ( 'NONE', #277, 0.5153844939755807264 ) ;
#90 = CC_DESIGN_SECURITY_CLASSIFICATION ( #173, ( #164 ) ) ;
#91 = EDGE_LOOP ( 'NONE', ( #229 ) ) ;
#92 = ORIENTED_EDGE ( 'NONE', *, *, #170, .F. ) ;
#93 = CARTESIAN_POINT ( 'NONE',  ( 4.189777606611760026E-14, 0.4849999999999988765, 12.00000000000000000 ) ) ;
#94 = EDGE_CURVE ( 'NONE', #265, #265, #89, .T. ) ;
#95 = AXIS2_PLACEMENT_3D ( 'NONE', #82, #166, #205 ) ;
#96 = DIRECTION ( 'NONE',  ( -3.491481338843133355E-15, 1.224646799147352961E-16, -1.000000000000000000 ) ) ;
#97 = EDGE_LOOP ( 'NONE', ( #162 ) ) ;
#98 = CARTESIAN_POINT ( 'NONE',  ( 1.745740669421566678E-14, 4.488031149615597999E-33, 5.000000000000000000 ) ) ;
#99 = ADVANCED_FACE ( 'NONE', ( #231, #140 ), #74, .T. ) ;
#100 = FACE_OUTER_BOUND ( 'NONE', #246, .T. ) ;
#101 = CYLINDRICAL_SURFACE ( 'NONE', #113, 1.500000000000000444 ) ;
#102 = EDGE_LOOP ( 'NONE', ( #136 ) ) ;
#103 = DIRECTION ( 'NONE',  ( 1.000000000000000000, 0.0000000000000000000, 0.0000000000000000000 ) ) ;
#104 = CC_DESIGN_DATE_AND_TIME_ASSIGNMENT ( #268, #66, ( #267 ) ) ;
#105 = EDGE_LOOP ( 'NONE', ( #73 ) ) ;
#106 = DIRECTION ( 'NONE',  ( 0.0000000000000000000, 0.0000000000000000000, 1.000000000000000000 ) ) ;
#107 = FACE_OUTER_BOUND ( 'NONE', #102, .T. ) ;
#108 = CALENDAR_DATE ( 2021, 29, 11 ) ;
#109 = PERSON_AND_ORGANIZATION_ROLE ( 'design_supplier' ) ;
#110 = DIRECTION ( 'NONE',  ( -3.491481338843133355E-15, 1.224646799147352961E-16, -1.000000000000000000 ) ) ;
#111 = APPROVAL_DATE_TIME ( #186, #184 ) ;
#112 = EDGE_CURVE ( 'NONE', #193, #193, #178, .T. ) ;
#113 = AXIS2_PLACEMENT_3D ( 'NONE', #207, #41, #15 ) ;
#114 = ADVANCED_FACE ( 'NONE', ( #1 ), #238, .T. ) ;
#115 = FACE_BOUND ( 'NONE', #156, .T. ) ;
#116 = EDGE_LOOP ( 'NONE', ( #54 ) ) ;
#117 = VERTEX_POINT ( 'NONE', #93 ) ;
#118 = EDGE_LOOP ( 'NONE', ( #31 ) ) ;
#119 = EDGE_CURVE ( 'NONE', #68, #68, #247, .T. ) ;
#120 = DIRECTION ( 'NONE',  ( 0.0000000000000000000, 1.000000000000000000, 0.0000000000000000000 ) ) ;
#121 = CARTESIAN_POINT ( 'NONE',  ( 1.316288464743861212E-13, -4.616918432785520292E-15, 37.69999999999999574 ) ) ;
#122 = EDGE_LOOP ( 'NONE', ( #134 ) ) ;
#123 = DIRECTION ( 'NONE',  ( -4.275831445896957731E-31, -1.000000000000000000, -1.224646799147352961E-16 ) ) ;
#124 = DIRECTION ( 'NONE',  ( 0.0000000000000000000, 1.000000000000000000, 0.0000000000000000000 ) ) ;
#125 = CARTESIAN_POINT ( 'NONE',  ( 4.189777606611760026E-14, -1.301042606982605321E-15, 12.00000000000000000 ) ) ;
#126 = DIRECTION ( 'NONE',  ( 0.0000000000000000000, 1.000000000000000000, 0.0000000000000000000 ) ) ;
#127 = AXIS2_PLACEMENT_3D ( 'NONE', #245, #96, #223 ) ;
#128 = DIRECTION ( 'NONE',  ( 3.217928060797389182E-31, 1.000000000000000000, 9.057662259695115447E-17 ) ) ;
#129 = PERSON_AND_ORGANIZATION_ROLE ( 'creator' ) ;
#130 = DIRECTION ( 'NONE',  ( -3.491481338843133355E-15, 1.224646799147352961E-16, -1.000000000000000000 ) ) ;
#131 = COORDINATED_UNIVERSAL_TIME_OFFSET ( 1, 0, .AHEAD. ) ;
#132 = AXIS2_PLACEMENT_3D ( 'NONE', #4, #183, #218 ) ;
#133 = CARTESIAN_POINT ( 'NONE',  ( 6.260689839836381496E-14, -2.195954389763516575E-15, 17.93132837396403545 ) ) ;
#134 = ORIENTED_EDGE ( 'NONE', *, *, #213, .F. ) ;
#135 = FACE_OUTER_BOUND ( 'NONE', #122, .T. ) ;
#136 = ORIENTED_EDGE ( 'NONE', *, *, #206, .F. ) ;
#137 = AXIS2_PLACEMENT_3D ( 'NONE', #142, #8, #263 ) ;
#138 = AXIS2_PLACEMENT_3D ( 'NONE', #27, #258, #203 ) ;
#139 = ADVANCED_FACE ( 'NONE', ( #211, #7 ), #81, .T. ) ;
#140 = FACE_BOUND ( 'NONE', #105, .T. ) ;
#141 = CARTESIAN_POINT ( 'NONE',  ( 1.814378921295066152E-14, -6.363984574927323514E-16, 5.196587766659071406 ) ) ;
#142 = CARTESIAN_POINT ( 'NONE',  ( -1.941922011294816894E-31, 6.811345513632243638E-33, -5.561885695022080932E-17 ) ) ;
#143 = DIRECTION ( 'NONE',  ( -3.491481338843133355E-15, 1.224646799147352961E-16, -1.000000000000000000 ) ) ;
#144 = APPROVAL ( #88, 'UNSPECIFIED' ) ;
#145 = AXIS2_PLACEMENT_3D ( 'NONE', #121, #161, #281 ) ;
#146 = DIRECTION ( 'NONE',  ( 3.491481338843133355E-15, -1.224646799147352961E-16, 1.000000000000000000 ) ) ;
#147 = DIRECTION ( 'NONE',  ( -3.491481338843133355E-15, 1.224646799147352961E-16, -1.000000000000000000 ) ) ;
#148 = APPROVAL_ROLE ( '' ) ;
#149 = DIRECTION ( 'NONE',  ( -4.275831445896957731E-31, -1.000000000000000000, -1.224646799147352961E-16 ) ) ;
#150 = DATE_TIME_ROLE ( 'classification_date' ) ;
#151 = CIRCLE ( 'NONE', #132, 0.4850000000000003753 ) ;
#152 = MANIFOLD_SOLID_BREP ( 'Corps-Déplacer/Copier1[1]', #244 ) ;
#153 = CONICAL_SURFACE ( 'NONE', #241, 1.499999999999997558, 0.1745329251994261754 ) ;
#154 = ORIENTED_EDGE ( 'NONE', *, *, #206, .T. ) ;
#155 = ADVANCED_FACE ( 'NONE', ( #276, #50 ), #222, .T. ) ;
#156 = EDGE_LOOP ( 'NONE', ( #159 ) ) ;
#157 = ORGANIZATION ( 'UNSPECIFIED', 'UNSPECIFIED', '' ) ;
#158 = CC_DESIGN_PERSON_AND_ORGANIZATION_ASSIGNMENT ( #190, #129, ( #164 ) ) ;
#159 = ORIENTED_EDGE ( 'NONE', *, *, #94, .F. ) ;
#160 = AXIS2_PLACEMENT_3D ( 'NONE', #228, #130, #220 ) ;
#161 = DIRECTION ( 'NONE',  ( -3.491481338843133355E-15, 1.224646799147352961E-16, -1.000000000000000000 ) ) ;
#162 = ORIENTED_EDGE ( 'NONE', *, *, #119, .F. ) ;
#163 = CARTESIAN_POINT ( 'NONE',  ( 1.326762908760390423E-13, -4.653657836759941152E-15, 38.00000000000000000 ) ) ;
#164 = PRODUCT_DEFINITION_FORMATION_WITH_SPECIFIED_SOURCE ( 'ANY', '', #180, .NOT_KNOWN. ) ;
#165 = CC_DESIGN_APPROVAL ( #300, ( #173 ) ) ;
#166 = DIRECTION ( 'NONE',  ( 3.491481338843133355E-15, -1.224646799147352961E-16, 1.000000000000000000 ) ) ;
#167 = PERSON_AND_ORGANIZATION ( #294, #157 ) ;
#168 = PLANE ( 'NONE',  #266 ) ;
#169 = MECHANICAL_CONTEXT ( 'NONE', #56, 'mechanical' ) ;
#170 = EDGE_CURVE ( 'NONE', #117, #117, #151, .T. ) ;
#171 = CALENDAR_DATE ( 2021, 29, 11 ) ;
#172 = VERTEX_POINT ( 'NONE', #6 ) ;
#173 = SECURITY_CLASSIFICATION ( '', '', #60 ) ;
#174 = APPROVAL_ROLE ( '' ) ;
#175 = AXIS2_PLACEMENT_3D ( 'NONE', #236, #256, #24 ) ;
#176 = VERTEX_POINT ( 'NONE', #271 ) ;
#177 = CC_DESIGN_PERSON_AND_ORGANIZATION_ASSIGNMENT ( #167, #282, ( #180 ) ) ;
#178 = CIRCLE ( 'NONE', #138, 0.5985000000000000320 ) ;
#179 = EDGE_LOOP ( 'NONE', ( #225 ) ) ;
#180 = PRODUCT ( '960753', '960753', '', ( #169 ) ) ;
#181 = DIRECTION ( 'NONE',  ( -4.275831445896957731E-31, -1.000000000000000000, -1.224646799147352961E-16 ) ) ;
#182 = APPROVAL_PERSON_ORGANIZATION ( #37, #184, #148 ) ;
#183 = DIRECTION ( 'NONE',  ( -3.491481338843133355E-15, 1.224646799147352961E-16, -1.000000000000000000 ) ) ;
#184 = APPROVAL ( #14, 'UNSPECIFIED' ) ;
#185 = DIRECTION ( 'NONE',  ( 0.0000000000000000000, 1.000000000000000000, 0.0000000000000000000 ) ) ;
#186 = DATE_AND_TIME ( #108, #70 ) ;
#187 = EDGE_LOOP ( 'NONE', ( #209 ) ) ;
#188 = AXIS2_PLACEMENT_3D ( 'NONE', #12, #110, #287 ) ;
#189 = PERSON_AND_ORGANIZATION ( #294, #157 ) ;
#190 = PERSON_AND_ORGANIZATION ( #294, #157 ) ;
#191 = UNCERTAINTY_MEASURE_WITH_UNIT (LENGTH_MEASURE( 1.000000000000000082E-05 ), #29, 'distance_accuracy_value', 'NONE');
#192 = PERSON_AND_ORGANIZATION ( #294, #157 ) ;
#193 = VERTEX_POINT ( 'NONE', #293 ) ;
#194 = ADVANCED_FACE ( 'NONE', ( #61 ), #168, .F. ) ;
#195 = PERSON_AND_ORGANIZATION ( #294, #157 ) ;
#196 = CIRCLE ( 'NONE', #53, 0.5984999999999994769 ) ;
#197 = DIRECTION ( 'NONE',  ( 3.491481338843133355E-15, -1.224646799147352961E-16, 1.000000000000000000 ) ) ;
#198 = CC_DESIGN_PERSON_AND_ORGANIZATION_ASSIGNMENT ( #189, #280, ( #267 ) ) ;
#199 = ORIENTED_EDGE ( 'NONE', *, *, #94, .T. ) ;
#200 = EDGE_LOOP ( 'NONE', ( #249 ) ) ;
#201 = LOCAL_TIME ( 15, 49, 35.00000000000000000, #286 ) ;
#202 = ORIENTED_EDGE ( 'NONE', *, *, #227, .F. ) ;
#203 = DIRECTION ( 'NONE',  ( 0.0000000000000000000, 1.000000000000000000, 0.0000000000000000000 ) ) ;
#204 = FACE_OUTER_BOUND ( 'NONE', #97, .T. ) ;
#205 = DIRECTION ( 'NONE',  ( -3.217928060797389182E-31, -1.000000000000000000, -9.057662259695115447E-17 ) ) ;
#206 = EDGE_CURVE ( 'NONE', #243, #243, #196, .T. ) ;
#207 = CARTESIAN_POINT ( 'NONE',  ( 0.0000000000000000000, 0.0000000000000000000, 0.0000000000000000000 ) ) ;
#208 = AXIS2_PLACEMENT_3D ( 'NONE', #55, #34, #126 ) ;
#209 = ORIENTED_EDGE ( 'NONE', *, *, #20, .F. ) ;
#210 = PLANE ( 'NONE',  #160 ) ;
#211 = FACE_BOUND ( 'NONE', #274, .T. ) ;
#212 =( NAMED_UNIT ( * ) SI_UNIT ( $, .STERADIAN. ) SOLID_ANGLE_UNIT ( ) );
#213 = EDGE_CURVE ( 'NONE', #78, #78, #297, .T. ) ;
#214 = DIRECTION ( 'NONE',  ( 4.275831445896957731E-31, 1.000000000000000000, 1.224646799147352961E-16 ) ) ;
#215 = FACE_OUTER_BOUND ( 'NONE', #299, .T. ) ;
#216 = CIRCLE ( 'NONE', #137, 0.4541624327025950425 ) ;
#217 = DESIGN_CONTEXT ( 'detailed design', #251, 'design' ) ;
#218 = DIRECTION ( 'NONE',  ( 0.0000000000000000000, 1.000000000000000000, 0.0000000000000000000 ) ) ;
#219 =( NAMED_UNIT ( * ) PLANE_ANGLE_UNIT ( ) SI_UNIT ( $, .RADIAN. ) );
#220 = DIRECTION ( 'NONE',  ( 4.275831445896957731E-31, 1.000000000000000000, 1.224646799147352961E-16 ) ) ;
#221 = AXIS2_PLACEMENT_3D ( 'NONE', #30, #278, #123 ) ;
#222 = CONICAL_SURFACE ( 'NONE', #273, 0.4849999999999994316, 0.5235987755982935976 ) ;
#223 = DIRECTION ( 'NONE',  ( 4.275831445896957731E-31, 1.000000000000000000, 1.224646799147352961E-16 ) ) ;
#224 = EDGE_CURVE ( 'NONE', #288, #288, #216, .T. ) ;
#225 = ORIENTED_EDGE ( 'NONE', *, *, #13, .F. ) ;
#226 = CC_DESIGN_APPROVAL ( #144, ( #164 ) ) ;
#227 = EDGE_CURVE ( 'NONE', #172, #172, #302, .T. ) ;
#228 = CARTESIAN_POINT ( 'NONE',  ( 1.326762908760390423E-13, 8.998558695971099120E-33, 38.00000000000000000 ) ) ;
#229 = ORIENTED_EDGE ( 'NONE', *, *, #20, .T. ) ;
#230 = CIRCLE ( 'NONE', #235, 1.200000000000003286 ) ;
#231 = FACE_OUTER_BOUND ( 'NONE', #187, .T. ) ;
#232 = DIRECTION ( 'NONE',  ( -3.491481338843133355E-15, 1.224646799147352961E-16, -1.000000000000000000 ) ) ;
#233 = ORIENTED_EDGE ( 'NONE', *, *, #227, .T. ) ;
#234 = CARTESIAN_POINT ( 'NONE',  ( 0.0000000000000000000, 0.4541624327025950425, 0.0000000000000000000 ) ) ;
#235 = AXIS2_PLACEMENT_3D ( 'NONE', #5, #49, #261 ) ;
#236 = CARTESIAN_POINT ( 'NONE',  ( 0.0000000000000000000, 0.0000000000000000000, 0.0000000000000000000 ) ) ;
#237 = ADVANCED_FACE ( 'NONE', ( #215 ), #275, .F. ) ;
#238 = PLANE ( 'NONE',  #38 ) ;
#239 = CARTESIAN_POINT ( 'NONE',  ( 8.728703347107831416E-16, -3.061616997868381785E-17, 0.2499999999999999445 ) ) ;
#240 = CARTESIAN_POINT ( 'NONE',  ( 1.814378921295066152E-14, 0.4849999999999987654, 5.196587766659071406 ) ) ;
#241 = AXIS2_PLACEMENT_3D ( 'NONE', #133, #197, #248 ) ;
#242 = ADVANCED_FACE ( 'NONE', ( #204, #2 ), #101, .T. ) ;
#243 = VERTEX_POINT ( 'NONE', #80 ) ;
#244 = CLOSED_SHELL ( 'NONE', ( #194, #155, #303, #76, #269, #242, #99, #254 ) ) ;
#245 = CARTESIAN_POINT ( 'NONE',  ( 0.0000000000000000000, 0.0000000000000000000, 0.0000000000000000000 ) ) ;
#246 = EDGE_LOOP ( 'NONE', ( #92 ) ) ;
#247 = CIRCLE ( 'NONE', #22, 1.499999999999997558 ) ;
#248 = DIRECTION ( 'NONE',  ( 0.0000000000000000000, -1.000000000000000000, 0.0000000000000000000 ) ) ;
#249 = ORIENTED_EDGE ( 'NONE', *, *, #112, .T. ) ;
#250 = MANIFOLD_SOLID_BREP ( 'Corps-Déplacer/Copier1[2]', #253 ) ;
#251 = APPLICATION_CONTEXT ( 'configuration controlled 3d designs of mechanical parts and assemblies' ) ;
#252 = CARTESIAN_POINT ( 'NONE',  ( 4.311035480981396413E-14, -1.512107695968337463E-15, 12.34729635533384773 ) ) ;
#253 = CLOSED_SHELL ( 'NONE', ( #237, #139, #59, #114 ) ) ;
#254 = ADVANCED_FACE ( 'NONE', ( #26 ), #210, .F. ) ;
#255 = CARTESIAN_POINT ( 'NONE',  ( 6.260689839836381496E-14, -2.195954389763516575E-15, 17.93132837396403545 ) ) ;
#256 = DIRECTION ( 'NONE',  ( -3.491481338843133355E-15, 1.224646799147352961E-16, -1.000000000000000000 ) ) ;
#257 = COORDINATED_UNIVERSAL_TIME_OFFSET ( 1, 0, .AHEAD. ) ;
#258 = DIRECTION ( 'NONE',  ( -3.491481338843133355E-15, 1.224646799147352961E-16, -1.000000000000000000 ) ) ;
#259 = TOROIDAL_SURFACE ( 'NONE', #17, 2.485000000000000320, 2.000000000000000888 ) ;
#260 = SHAPE_DEFINITION_REPRESENTATION ( #65, #3 ) ;
#261 = DIRECTION ( 'NONE',  ( 0.0000000000000000000, 1.000000000000000000, 0.0000000000000000000 ) ) ;
#262 = CARTESIAN_POINT ( 'NONE',  ( 0.0000000000000000000, 0.0000000000000000000, 0.0000000000000000000 ) ) ;
#263 = DIRECTION ( 'NONE',  ( 4.275831445896957731E-31, 1.000000000000000000, 1.224646799147352961E-16 ) ) ;
#264 = DIRECTION ( 'NONE',  ( 3.491481338843133355E-15, -1.224646799147352961E-16, 1.000000000000000000 ) ) ;
#265 = VERTEX_POINT ( 'NONE', #63 ) ;
#266 = AXIS2_PLACEMENT_3D ( 'NONE', #85, #264, #149 ) ;
#267 = PRODUCT_DEFINITION ( 'UNKNOWN', '', #164, #217 ) ;
#268 = DATE_AND_TIME ( #292, #270 ) ;
#269 = ADVANCED_FACE ( 'NONE', ( #115, #301 ), #153, .T. ) ;
#270 = LOCAL_TIME ( 15, 49, 35.00000000000000000, #257 ) ;
#271 = CARTESIAN_POINT ( 'NONE',  ( 1.326762908760390423E-13, 1.199999999999998845, 38.00000000000000000 ) ) ;
#272 = EDGE_LOOP ( 'NONE', ( #77 ) ) ;
#273 = AXIS2_PLACEMENT_3D ( 'NONE', #141, #232, #25 ) ;
#274 = EDGE_LOOP ( 'NONE', ( #52 ) ) ;
#275 = PLANE ( 'NONE',  #221 ) ;
#276 = FACE_OUTER_BOUND ( 'NONE', #33, .T. ) ;
#277 = AXIS2_PLACEMENT_3D ( 'NONE', #252, #143, #185 ) ;
#278 = DIRECTION ( 'NONE',  ( 3.491481338843133355E-15, -1.224646799147352961E-16, 1.000000000000000000 ) ) ;
#279 = EDGE_LOOP ( 'NONE', ( #154 ) ) ;
#280 = PERSON_AND_ORGANIZATION_ROLE ( 'creator' ) ;
#281 = DIRECTION ( 'NONE',  ( 0.0000000000000000000, 1.000000000000000000, 0.0000000000000000000 ) ) ;
#282 = PERSON_AND_ORGANIZATION_ROLE ( 'design_owner' ) ;
#283 = APPROVAL_DATE_TIME ( #18, #300 ) ;
#284 = FACE_OUTER_BOUND ( 'NONE', #200, .T. ) ;
#285 = CC_DESIGN_APPROVAL ( #184, ( #267 ) ) ;
#286 = COORDINATED_UNIVERSAL_TIME_OFFSET ( 1, 0, .AHEAD. ) ;
#287 = DIRECTION ( 'NONE',  ( 0.0000000000000000000, 1.000000000000000000, 0.0000000000000000000 ) ) ;
#288 = VERTEX_POINT ( 'NONE', #234 ) ;
#289 = COORDINATED_UNIVERSAL_TIME_OFFSET ( 1, 0, .AHEAD. ) ;
#290 = CC_DESIGN_DATE_AND_TIME_ASSIGNMENT ( #62, #150, ( #173 ) ) ;
#291 = CALENDAR_DATE ( 2021, 29, 11 ) ;
#292 = CALENDAR_DATE ( 2021, 29, 11 ) ;
#293 = CARTESIAN_POINT ( 'NONE',  ( 1.745740669421566678E-14, 0.5984999999999994769, 5.000000000000000000 ) ) ;
#294 = PERSON ( 'UNSPECIFIED', 'UNSPECIFIED', 'UNSPECIFIED', ('UNSPECIFIED'), ('UNSPECIFIED'), ('UNSPECIFIED') ) ;
#295 = AXIS2_PLACEMENT_3D ( 'NONE', #262, #106, #103 ) ;
#296 = APPROVAL_STATUS ( 'not_yet_approved' ) ;
#297 = CIRCLE ( 'NONE', #188, 0.4849999999999994316 ) ;
#298 = CARTESIAN_POINT ( 'NONE',  ( 6.260689839836381496E-14, 1.499999999999995559, 17.93132837396403545 ) ) ;
#299 = EDGE_LOOP ( 'NONE', ( #23 ) ) ;
#300 = APPROVAL ( #296, 'UNSPECIFIED' ) ;
#301 = FACE_OUTER_BOUND ( 'NONE', #116, .T. ) ;
#302 = CIRCLE ( 'NONE', #208, 0.5985000000000000320 ) ;
#303 = ADVANCED_FACE ( 'NONE', ( #135, #21 ), #84, .T. ) ;
ENDSEC;
END-ISO-10303-21;
