ISO-10303-21;
HEADER;
FILE_DESCRIPTION (( 'STEP AP203' ),
    '1' );
FILE_NAME ('960752.step',
    '2021-10-13T11:36:30',
    ( '' ),
    ( '' ),
    'SwSTEP 2.0',
    'SolidWorks 2019',
    '' );
FILE_SCHEMA (( 'CONFIG_CONTROL_DESIGN' ));
ENDSEC;

DATA;
#1 = FACE_OUTER_BOUND ( 'NONE', #53, .T. ) ;
#2 = ORIENTED_EDGE ( 'NONE', *, *, #110, .T. ) ;
#3 = DIRECTION ( 'NONE',  ( 3.491481338843133355E-15, -1.224646799147353207E-16, 1.000000000000000000 ) ) ;
#4 = ORIENTED_EDGE ( 'NONE', *, *, #155, .T. ) ;
#5 = APPROVAL_PERSON_ORGANIZATION ( #135, #225, #88 ) ;
#6 = CARTESIAN_POINT ( 'NONE',  ( 7.681258945454893382E-14, -2.800000000000014477, 22.00000000000000000 ) ) ;
#7 = FACE_OUTER_BOUND ( 'NONE', #100, .T. ) ;
#8 = EDGE_CURVE ( 'NONE', #109, #109, #65, .T. ) ;
#9 = DIRECTION ( 'NONE',  ( -3.491481338843133355E-15, 4.327174794786742882E-16, -1.000000000000000000 ) ) ;
#10 = CC_DESIGN_PERSON_AND_ORGANIZATION_ASSIGNMENT ( #239, #242, ( #196 ) ) ;
#11 = AXIS2_PLACEMENT_3D ( 'NONE', #36, #121, #245 ) ;
#12 = CARTESIAN_POINT ( 'NONE',  ( 2.304377683636468267E-13, -8.082668874372532400E-15, 66.00000000000000000 ) ) ;
#13 = VERTEX_POINT ( 'NONE', #146 ) ;
#14 = ADVANCED_FACE ( 'NONE', ( #38 ), #76, .T. ) ;
#15 = DATE_TIME_ROLE ( 'classification_date' ) ;
#16 = AXIS2_PLACEMENT_3D ( 'NONE', #40, #195, #105 ) ;
#17 = DIRECTION ( 'NONE',  ( 0.0000000000000000000, 0.0000000000000000000, 1.000000000000000000 ) ) ;
#18 = AXIS2_PLACEMENT_3D ( 'NONE', #208, #57, #25 ) ;
#19 = ORIENTED_EDGE ( 'NONE', *, *, #155, .F. ) ;
#20 = EDGE_LOOP ( 'NONE', ( #2 ) ) ;
#21 = EDGE_CURVE ( 'NONE', #82, #82, #133, .T. ) ;
#22 = CARTESIAN_POINT ( 'NONE',  ( 1.033979830460931271E-13, -1.281465093601472668E-14, 29.61435935394487728 ) ) ;
#23 = CIRCLE ( 'NONE', #11, 2.299999999999996714 ) ;
#24 = DIRECTION ( 'NONE',  ( -3.491481338843133355E-15, 1.224646799147353207E-16, -1.000000000000000000 ) ) ;
#25 = DIRECTION ( 'NONE',  ( 4.275831445896958607E-31, 1.000000000000000000, 1.224646799147353207E-16 ) ) ;
#26 = ORIENTED_EDGE ( 'NONE', *, *, #8, .F. ) ;
#27 = DIRECTION ( 'NONE',  ( -3.491481338843133355E-15, 4.327174794786742882E-16, -1.000000000000000000 ) ) ;
#28 = VERTEX_POINT ( 'NONE', #172 ) ;
#29 = CC_DESIGN_PERSON_AND_ORGANIZATION_ASSIGNMENT ( #71, #70, ( #42 ) ) ;
#30 = CYLINDRICAL_SURFACE ( 'NONE', #108, 2.800000000000004707 ) ;
#31 = APPROVAL_STATUS ( 'not_yet_approved' ) ;
#32 = PERSON_AND_ORGANIZATION ( #103, #92 ) ;
#33 = SHAPE_DEFINITION_REPRESENTATION ( #232, #165 ) ;
#34 = CIRCLE ( 'NONE', #202, 2.800000000000004707 ) ;
#35 = DIRECTION ( 'NONE',  ( -3.491481338843133355E-15, 4.327174794786742882E-16, -1.000000000000000000 ) ) ;
#36 = CARTESIAN_POINT ( 'NONE',  ( 2.304377683636468267E-13, -8.082668874372532400E-15, 66.00000000000000000 ) ) ;
#37 = DIRECTION ( 'NONE',  ( 0.0000000000000000000, -1.000000000000000000, 0.0000000000000000000 ) ) ;
#38 = FACE_OUTER_BOUND ( 'NONE', #260, .T. ) ;
#39 = ORIENTED_EDGE ( 'NONE', *, *, #84, .F. ) ;
#40 = CARTESIAN_POINT ( 'NONE',  ( 3.812385842504463344E-15, -1.337204947137063450E-16, 1.091910702798617239 ) ) ;
#41 = CARTESIAN_POINT ( 'NONE',  ( 2.304377683636468267E-13, 2.299999999999988720, 66.00000000000000000 ) ) ;
#42 = PRODUCT_DEFINITION ( 'UNKNOWN', '', #113, #168 ) ;
#43 = FACE_BOUND ( 'NONE', #61, .T. ) ;
#44 = APPROVAL_PERSON_ORGANIZATION ( #32, #72, #262 ) ;
#45 = LOCAL_TIME ( 13, 36, 30.00000000000000000, #115 ) ;
#46 = ORIENTED_EDGE ( 'NONE', *, *, #110, .F. ) ;
#47 = DATE_AND_TIME ( #148, #119 ) ;
#48 = ADVANCED_FACE ( 'NONE', ( #1, #158 ), #257, .F. ) ;
#49 = PERSON_AND_ORGANIZATION ( #103, #92 ) ;
#50 = AXIS2_PLACEMENT_3D ( 'NONE', #249, #247, #224 ) ;
#51 = CC_DESIGN_PERSON_AND_ORGANIZATION_ASSIGNMENT ( #114, #117, ( #113 ) ) ;
#52 = SECURITY_CLASSIFICATION_LEVEL ( 'unclassified' ) ;
#53 = EDGE_LOOP ( 'NONE', ( #112 ) ) ;
#54 = DIRECTION ( 'NONE',  ( -4.275831445896958607E-31, -1.000000000000000000, -1.224646799147353207E-16 ) ) ;
#55 = CLOSED_SHELL ( 'NONE', ( #116, #161, #62, #251, #130, #48, #209 ) ) ;
#56 = LOCAL_TIME ( 13, 36, 30.00000000000000000, #132 ) ;
#57 = DIRECTION ( 'NONE',  ( -3.491481338843133355E-15, 1.224646799147353207E-16, -1.000000000000000000 ) ) ;
#58 = DIRECTION ( 'NONE',  ( 3.491481338843133355E-15, -4.327174794786742882E-16, 1.000000000000000000 ) ) ;
#59 = EDGE_CURVE ( 'NONE', #13, #13, #137, .T. ) ;
#60 = DIRECTION ( 'NONE',  ( 0.0000000000000000000, -1.000000000000000000, 0.0000000000000000000 ) ) ;
#61 = EDGE_LOOP ( 'NONE', ( #149 ) ) ;
#62 = ADVANCED_FACE ( 'NONE', ( #160 ), #99, .F. ) ;
#63 = CARTESIAN_POINT ( 'NONE',  ( 0.0000000000000000000, 0.0000000000000000000, 0.0000000000000000000 ) ) ;
#64 = CYLINDRICAL_SURFACE ( 'NONE', #246, 2.800000000000004707 ) ;
#65 = CIRCLE ( 'NONE', #147, 2.800000000000004707 ) ;
#66 = DIRECTION ( 'NONE',  ( -4.275831445896958607E-31, -1.000000000000000000, -1.224646799147353207E-16 ) ) ;
#67 = FACE_OUTER_BOUND ( 'NONE', #201, .T. ) ;
#68 = VERTEX_POINT ( 'NONE', #166 ) ;
#69 = CC_DESIGN_APPROVAL ( #98, ( #113 ) ) ;
#70 = PERSON_AND_ORGANIZATION_ROLE ( 'creator' ) ;
#71 = PERSON_AND_ORGANIZATION ( #103, #92 ) ;
#72 = APPROVAL ( #244, 'UNSPECIFIED' ) ;
#73 = EDGE_LOOP ( 'NONE', ( #124 ) ) ;
#74 = APPLICATION_CONTEXT ( 'configuration controlled 3d designs of mechanical parts and assemblies' ) ;
#75 = AXIS2_PLACEMENT_3D ( 'NONE', #207, #24, #186 ) ;
#76 = PLANE ( 'NONE',  #218 ) ;
#77 = EDGE_LOOP ( 'NONE', ( #93 ) ) ;
#78 = AXIS2_PLACEMENT_3D ( 'NONE', #206, #35, #156 ) ;
#79 = CYLINDRICAL_SURFACE ( 'NONE', #75, 2.999999999999994227 ) ;
#80 = FACE_BOUND ( 'NONE', #184, .T. ) ;
#81 = EDGE_LOOP ( 'NONE', ( #182 ) ) ;
#82 = VERTEX_POINT ( 'NONE', #169 ) ;
#83 = DIRECTION ( 'NONE',  ( 0.0000000000000000000, -1.000000000000000000, 0.0000000000000000000 ) ) ;
#84 = EDGE_CURVE ( 'NONE', #129, #129, #34, .T. ) ;
#85 = DIRECTION ( 'NONE',  ( 3.491481338843133355E-15, -4.327174794786742882E-16, 1.000000000000000000 ) ) ;
#86 = VERTEX_POINT ( 'NONE', #41 ) ;
#87 = MECHANICAL_CONTEXT ( 'NONE', #74, 'mechanical' ) ;
#88 = APPROVAL_ROLE ( '' ) ;
#89 = DATE_AND_TIME ( #237, #56 ) ;
#90 = CALENDAR_DATE ( 2021, 13, 10 ) ;
#91 = ORIENTED_EDGE ( 'NONE', *, *, #59, .T. ) ;
#92 = ORGANIZATION ( 'UNSPECIFIED', 'UNSPECIFIED', '' ) ;
#93 = ORIENTED_EDGE ( 'NONE', *, *, #21, .F. ) ;
#94 = EDGE_LOOP ( 'NONE', ( #91 ) ) ;
#95 = DIRECTION ( 'NONE',  ( -3.491481338843133355E-15, 1.224646799147353207E-16, -1.000000000000000000 ) ) ;
#96 = CONICAL_SURFACE ( 'NONE', #241, 3.500000000000007105, 0.5235987755982984826 ) ;
#97 = CC_DESIGN_APPROVAL ( #225, ( #196 ) ) ;
#98 = APPROVAL ( #31, 'UNSPECIFIED' ) ;
#99 = PLANE ( 'NONE',  #18 ) ;
#100 = EDGE_LOOP ( 'NONE', ( #140 ) ) ;
#101 = CARTESIAN_POINT ( 'NONE',  ( 1.064216945823706567E-13, -1.318939526590484019E-14, 30.48038475772933609 ) ) ;
#102 = EDGE_CURVE ( 'NONE', #231, #231, #211, .T. ) ;
#103 = PERSON ( 'UNSPECIFIED', 'UNSPECIFIED', 'UNSPECIFIED', ('UNSPECIFIED'), ('UNSPECIFIED'), ('UNSPECIFIED') ) ;
#104 = CARTESIAN_POINT ( 'NONE',  ( 0.0000000000000000000, 0.0000000000000000000, 0.0000000000000000000 ) ) ;
#105 = DIRECTION ( 'NONE',  ( -5.135813185032647042E-31, -1.000000000000000000, -1.445602896647344340E-16 ) ) ;
#106 = EDGE_CURVE ( 'NONE', #86, #86, #23, .T. ) ;
#107 = AXIS2_PLACEMENT_3D ( 'NONE', #159, #163, #123 ) ;
#108 = AXIS2_PLACEMENT_3D ( 'NONE', #104, #213, #125 ) ;
#109 = VERTEX_POINT ( 'NONE', #234 ) ;
#110 = EDGE_CURVE ( 'NONE', #28, #28, #170, .T. ) ;
#111 = PERSON_AND_ORGANIZATION_ROLE ( 'creator' ) ;
#112 = ORIENTED_EDGE ( 'NONE', *, *, #59, .F. ) ;
#113 = PRODUCT_DEFINITION_FORMATION_WITH_SPECIFIED_SOURCE ( 'ANY', '', #194, .NOT_KNOWN. ) ;
#114 = PERSON_AND_ORGANIZATION ( #103, #92 ) ;
#115 = COORDINATED_UNIVERSAL_TIME_OFFSET ( 1, 0, .AHEAD. ) ;
#116 = ADVANCED_FACE ( 'NONE', ( #138, #120 ), #79, .T. ) ;
#117 = PERSON_AND_ORGANIZATION_ROLE ( 'design_supplier' ) ;
#118 = CLOSED_SHELL ( 'NONE', ( #243, #183, #14 ) ) ;
#119 = LOCAL_TIME ( 13, 36, 30.00000000000000000, #134 ) ;
#120 = FACE_OUTER_BOUND ( 'NONE', #261, .T. ) ;
#121 = DIRECTION ( 'NONE',  ( -3.491481338843133355E-15, 1.224646799147353207E-16, -1.000000000000000000 ) ) ;
#122 = DIRECTION ( 'NONE',  ( 0.0000000000000000000, 1.000000000000000000, 0.0000000000000000000 ) ) ;
#123 = DIRECTION ( 'NONE',  ( 0.0000000000000000000, 1.000000000000000000, 0.0000000000000000000 ) ) ;
#124 = ORIENTED_EDGE ( 'NONE', *, *, #106, .F. ) ;
#125 = DIRECTION ( 'NONE',  ( 1.510825004591028030E-30, 1.000000000000000000, 4.327174794786742882E-16 ) ) ;
#126 = AXIS2_PLACEMENT_3D ( 'NONE', #12, #236, #254 ) ;
#127 = FACE_OUTER_BOUND ( 'NONE', #180, .T. ) ;
#128 =( GEOMETRIC_REPRESENTATION_CONTEXT ( 3 ) GLOBAL_UNCERTAINTY_ASSIGNED_CONTEXT ( ( #235 ) ) GLOBAL_UNIT_ASSIGNED_CONTEXT ( ( #229, #193, #233 ) ) REPRESENTATION_CONTEXT ( 'NONE', 'WORKASPACE' ) );
#129 = VERTEX_POINT ( 'NONE', #255 ) ;
#130 = ADVANCED_FACE ( 'NONE', ( #80, #197 ), #96, .T. ) ;
#131 = COORDINATED_UNIVERSAL_TIME_OFFSET ( 1, 0, .AHEAD. ) ;
#132 = COORDINATED_UNIVERSAL_TIME_OFFSET ( 1, 0, .AHEAD. ) ;
#133 = CIRCLE ( 'NONE', #141, 2.999999999999996891 ) ;
#134 = COORDINATED_UNIVERSAL_TIME_OFFSET ( 1, 0, .AHEAD. ) ;
#135 = PERSON_AND_ORGANIZATION ( #103, #92 ) ;
#136 = CC_DESIGN_DATE_AND_TIME_ASSIGNMENT ( #89, #15, ( #196 ) ) ;
#137 = CIRCLE ( 'NONE', #107, 2.800000000000009148 ) ;
#138 = FACE_OUTER_BOUND ( 'NONE', #20, .T. ) ;
#139 = CARTESIAN_POINT ( 'NONE',  ( 7.681258945454893382E-14, -9.519784548530834340E-15, 22.00000000000000000 ) ) ;
#140 = ORIENTED_EDGE ( 'NONE', *, *, #84, .T. ) ;
#141 = AXIS2_PLACEMENT_3D ( 'NONE', #185, #142, #122 ) ;
#142 = DIRECTION ( 'NONE',  ( -3.491481338843133355E-15, 1.224646799147353207E-16, -1.000000000000000000 ) ) ;
#143 = DIRECTION ( 'NONE',  ( 0.0000000000000000000, 1.000000000000000000, 0.0000000000000000000 ) ) ;
#144 = CC_DESIGN_DATE_AND_TIME_ASSIGNMENT ( #151, #179, ( #42 ) ) ;
#145 = FACE_OUTER_BOUND ( 'NONE', #94, .T. ) ;
#146 = CARTESIAN_POINT ( 'NONE',  ( 1.012529588264508673E-13, 2.799999999999996714, 29.00000000000000000 ) ) ;
#147 = AXIS2_PLACEMENT_3D ( 'NONE', #263, #95, #222 ) ;
#148 = CALENDAR_DATE ( 2021, 13, 10 ) ;
#149 = ORIENTED_EDGE ( 'NONE', *, *, #106, .T. ) ;
#150 = PERSON_AND_ORGANIZATION ( #103, #92 ) ;
#151 = DATE_AND_TIME ( #176, #157 ) ;
#152 = AXIS2_PLACEMENT_3D ( 'NONE', #167, #190, #66 ) ;
#153 = APPROVAL_DATE_TIME ( #47, #98 ) ;
#154 = APPLICATION_PROTOCOL_DEFINITION ( 'international standard', 'config_control_design', 1994, #74 ) ;
#155 = EDGE_CURVE ( 'NONE', #68, #68, #214, .T. ) ;
#156 = DIRECTION ( 'NONE',  ( 1.555083828596460050E-30, 1.000000000000000000, 4.327174794786742389E-16 ) ) ;
#157 = LOCAL_TIME ( 13, 36, 30.00000000000000000, #258 ) ;
#158 = FACE_OUTER_BOUND ( 'NONE', #177, .T. ) ;
#159 = CARTESIAN_POINT ( 'NONE',  ( 1.012529588264508673E-13, -1.254880690488155436E-14, 29.00000000000000000 ) ) ;
#160 = FACE_OUTER_BOUND ( 'NONE', #73, .T. ) ;
#161 = ADVANCED_FACE ( 'NONE', ( #253, #43 ), #174, .T. ) ;
#162 = LOCAL_TIME ( 13, 36, 30.00000000000000000, #131 ) ;
#163 = DIRECTION ( 'NONE',  ( -3.491481338843133355E-15, 4.327174794786742882E-16, -1.000000000000000000 ) ) ;
#164 = APPROVAL_PERSON_ORGANIZATION ( #150, #98, #203 ) ;
#165 = ADVANCED_BREP_SHAPE_REPRESENTATION ( '960752', ( #187, #199, #221 ), #128 ) ;
#166 = CARTESIAN_POINT ( 'NONE',  ( 1.029986994958724529E-13, 2.933974596215559227, 29.50000000000000711 ) ) ;
#167 = CARTESIAN_POINT ( 'NONE',  ( 7.681258945454893382E-14, 2.249639673992776559E-32, 22.00000000000000000 ) ) ;
#168 = DESIGN_CONTEXT ( 'detailed design', #198, 'design' ) ;
#169 = CARTESIAN_POINT ( 'NONE',  ( 2.279937314264566018E-13, 2.999999999999989342, 65.29999999999999716 ) ) ;
#170 = CIRCLE ( 'NONE', #230, 2.999999999999994227 ) ;
#171 = FACE_OUTER_BOUND ( 'NONE', #228, .T. ) ;
#172 = CARTESIAN_POINT ( 'NONE',  ( 1.033979830460931271E-13, -3.000000000000007550, 29.61435935394487728 ) ) ;
#173 = APPLICATION_PROTOCOL_DEFINITION ( 'international standard', 'config_control_design', 1994, #198 ) ;
#174 = CONICAL_SURFACE ( 'NONE', #126, 2.299999999999996714, 0.7853981633974439491 ) ;
#175 = DATE_AND_TIME ( #90, #45 ) ;
#176 = CALENDAR_DATE ( 2021, 13, 10 ) ;
#177 = EDGE_LOOP ( 'NONE', ( #4 ) ) ;
#178 = PRODUCT_RELATED_PRODUCT_CATEGORY ( 'detail', '', ( #194 ) ) ;
#179 = DATE_TIME_ROLE ( 'creation_date' ) ;
#180 = EDGE_LOOP ( 'NONE', ( #26 ) ) ;
#181 = CC_DESIGN_SECURITY_CLASSIFICATION ( #196, ( #113 ) ) ;
#182 = ORIENTED_EDGE ( 'NONE', *, *, #102, .F. ) ;
#183 = ADVANCED_FACE ( 'NONE', ( #7, #127 ), #30, .T. ) ;
#184 = EDGE_LOOP ( 'NONE', ( #19 ) ) ;
#185 = CARTESIAN_POINT ( 'NONE',  ( 2.279937314264566018E-13, -7.996943598432214956E-15, 65.29999999999999716 ) ) ;
#186 = DIRECTION ( 'NONE',  ( 4.275831445896959482E-31, 1.000000000000000000, 1.224646799147353454E-16 ) ) ;
#187 = MANIFOLD_SOLID_BREP ( 'Corps-Déplacer/Copier1[1]', #55 ) ;
#188 = CC_DESIGN_PERSON_AND_ORGANIZATION_ASSIGNMENT ( #49, #111, ( #113 ) ) ;
#189 = AXIS2_PLACEMENT_3D ( 'NONE', #250, #9, #143 ) ;
#190 = DIRECTION ( 'NONE',  ( 3.491481338843133355E-15, -1.224646799147353207E-16, 1.000000000000000000 ) ) ;
#191 = DIRECTION ( 'NONE',  ( 1.510825004591028030E-30, 1.000000000000000000, 4.327174794786742882E-16 ) ) ;
#192 = CC_DESIGN_PERSON_AND_ORGANIZATION_ASSIGNMENT ( #219, #259, ( #194 ) ) ;
#193 =( NAMED_UNIT ( * ) PLANE_ANGLE_UNIT ( ) SI_UNIT ( $, .RADIAN. ) );
#194 = PRODUCT ( '960752', '960752', '', ( #87 ) ) ;
#195 = DIRECTION ( 'NONE',  ( 3.491481338843133355E-15, -1.224646799147353207E-16, 1.000000000000000000 ) ) ;
#196 = SECURITY_CLASSIFICATION ( '', '', #52 ) ;
#197 = FACE_OUTER_BOUND ( 'NONE', #238, .T. ) ;
#198 = APPLICATION_CONTEXT ( 'configuration controlled 3d designs of mechanical parts and assemblies' ) ;
#199 = MANIFOLD_SOLID_BREP ( 'Corps-Déplacer/Copier1[2]', #118 ) ;
#200 = APPROVAL_DATE_TIME ( #256, #72 ) ;
#201 = EDGE_LOOP ( 'NONE', ( #216 ) ) ;
#202 = AXIS2_PLACEMENT_3D ( 'NONE', #139, #223, #60 ) ;
#203 = APPROVAL_ROLE ( '' ) ;
#204 = DIRECTION ( 'NONE',  ( 1.000000000000000000, 0.0000000000000000000, 0.0000000000000000000 ) ) ;
#205 = CC_DESIGN_APPROVAL ( #72, ( #42 ) ) ;
#206 = CARTESIAN_POINT ( 'NONE',  ( 1.012529588264508799E-13, -1.257674520083185143E-14, 29.00000000000000355 ) ) ;
#207 = CARTESIAN_POINT ( 'NONE',  ( 0.0000000000000000000, 0.0000000000000000000, 0.0000000000000000000 ) ) ;
#208 = CARTESIAN_POINT ( 'NONE',  ( 2.304377683636468267E-13, 1.724723750061122017E-32, 66.00000000000000000 ) ) ;
#209 = ADVANCED_FACE ( 'NONE', ( #171 ), #212, .F. ) ;
#210 = ORIENTED_EDGE ( 'NONE', *, *, #21, .T. ) ;
#211 = CIRCLE ( 'NONE', #50, 2.800000000000004707 ) ;
#212 = PLANE ( 'NONE',  #152 ) ;
#213 = DIRECTION ( 'NONE',  ( -3.491481338843133355E-15, 4.327174794786742882E-16, -1.000000000000000000 ) ) ;
#214 = CIRCLE ( 'NONE', #189, 2.933974596215572106 ) ;
#215 = CALENDAR_DATE ( 2021, 13, 10 ) ;
#216 = ORIENTED_EDGE ( 'NONE', *, *, #8, .T. ) ;
#217 = CARTESIAN_POINT ( 'NONE',  ( 0.0000000000000000000, 0.0000000000000000000, 0.0000000000000000000 ) ) ;
#218 = AXIS2_PLACEMENT_3D ( 'NONE', #248, #3, #54 ) ;
#219 = PERSON_AND_ORGANIZATION ( #103, #92 ) ;
#220 = APPROVAL_DATE_TIME ( #175, #225 ) ;
#221 = AXIS2_PLACEMENT_3D ( 'NONE', #217, #17, #204 ) ;
#222 = DIRECTION ( 'NONE',  ( -5.502656983963521750E-31, -1.000000000000000000, -1.548860246407860871E-16 ) ) ;
#223 = DIRECTION ( 'NONE',  ( -3.491481338843133355E-15, 1.224646799147353207E-16, -1.000000000000000000 ) ) ;
#224 = DIRECTION ( 'NONE',  ( 0.0000000000000000000, -1.000000000000000000, 0.0000000000000000000 ) ) ;
#225 = APPROVAL ( #240, 'UNSPECIFIED' ) ;
#226 = CONICAL_SURFACE ( 'NONE', #16, 2.999999999999989342, 1.221730476396026610 ) ;
#227 = ORIENTED_EDGE ( 'NONE', *, *, #102, .T. ) ;
#228 = EDGE_LOOP ( 'NONE', ( #227 ) ) ;
#229 =( LENGTH_UNIT ( ) NAMED_UNIT ( * ) SI_UNIT ( .MILLI., .METRE. ) );
#230 = AXIS2_PLACEMENT_3D ( 'NONE', #22, #58, #37 ) ;
#231 = VERTEX_POINT ( 'NONE', #6 ) ;
#232 = PRODUCT_DEFINITION_SHAPE ( 'NONE', 'NONE',  #42 ) ;
#233 =( NAMED_UNIT ( * ) SI_UNIT ( $, .STERADIAN. ) SOLID_ANGLE_UNIT ( ) );
#234 = CARTESIAN_POINT ( 'NONE',  ( 3.558226786337515267E-15, -2.800000000000004707, 1.019116655945381034 ) ) ;
#235 = UNCERTAINTY_MEASURE_WITH_UNIT (LENGTH_MEASURE( 1.000000000000000082E-05 ), #229, 'distance_accuracy_value', 'NONE');
#236 = DIRECTION ( 'NONE',  ( -3.491481338843133355E-15, 1.224646799147353207E-16, -1.000000000000000000 ) ) ;
#237 = CALENDAR_DATE ( 2021, 13, 10 ) ;
#238 = EDGE_LOOP ( 'NONE', ( #46 ) ) ;
#239 = PERSON_AND_ORGANIZATION ( #103, #92 ) ;
#240 = APPROVAL_STATUS ( 'not_yet_approved' ) ;
#241 = AXIS2_PLACEMENT_3D ( 'NONE', #101, #85, #83 ) ;
#242 = PERSON_AND_ORGANIZATION_ROLE ( 'classification_officer' ) ;
#243 = ADVANCED_FACE ( 'NONE', ( #67 ), #226, .T. ) ;
#244 = APPROVAL_STATUS ( 'not_yet_approved' ) ;
#245 = DIRECTION ( 'NONE',  ( 0.0000000000000000000, 1.000000000000000000, 0.0000000000000000000 ) ) ;
#246 = AXIS2_PLACEMENT_3D ( 'NONE', #63, #27, #191 ) ;
#247 = DIRECTION ( 'NONE',  ( -3.491481338843133355E-15, 1.224646799147353207E-16, -1.000000000000000000 ) ) ;
#248 = CARTESIAN_POINT ( 'NONE',  ( 7.681258945454893382E-14, 2.249639673992776559E-32, 22.00000000000000000 ) ) ;
#249 = CARTESIAN_POINT ( 'NONE',  ( 7.681258945454893382E-14, -9.519784548530834340E-15, 22.00000000000000000 ) ) ;
#250 = CARTESIAN_POINT ( 'NONE',  ( 1.029986994958724529E-13, -1.276516564462089466E-14, 29.50000000000000711 ) ) ;
#251 = ADVANCED_FACE ( 'NONE', ( #145, #252 ), #64, .T. ) ;
#252 = FACE_OUTER_BOUND ( 'NONE', #81, .T. ) ;
#253 = FACE_OUTER_BOUND ( 'NONE', #77, .T. ) ;
#254 = DIRECTION ( 'NONE',  ( 0.0000000000000000000, 1.000000000000000000, 0.0000000000000000000 ) ) ;
#255 = CARTESIAN_POINT ( 'NONE',  ( 7.681258945454893382E-14, -2.800000000000014477, 22.00000000000000000 ) ) ;
#256 = DATE_AND_TIME ( #215, #162 ) ;
#257 = TOROIDAL_SURFACE ( 'NONE', #78, 3.800000000000009148, 0.9999999999999986677 ) ;
#258 = COORDINATED_UNIVERSAL_TIME_OFFSET ( 1, 0, .AHEAD. ) ;
#259 = PERSON_AND_ORGANIZATION_ROLE ( 'design_owner' ) ;
#260 = EDGE_LOOP ( 'NONE', ( #39 ) ) ;
#261 = EDGE_LOOP ( 'NONE', ( #210 ) ) ;
#262 = APPROVAL_ROLE ( '' ) ;
#263 = CARTESIAN_POINT ( 'NONE',  ( 3.558226786337516844E-15, -1.248057950661266041E-16, 1.019116655945381478 ) ) ;
ENDSEC;
END-ISO-10303-21;
