ISO-10303-21;
HEADER;
FILE_DESCRIPTION (( 'STEP AP203' ),
    '1' );
FILE_NAME ('960664.step',
    '2021-11-08T12:44:20',
    ( '' ),
    ( '' ),
    'SwSTEP 2.0',
    'SolidWorks 2019',
    '' );
FILE_SCHEMA (( 'CONFIG_CONTROL_DESIGN' ));
ENDSEC;

DATA;
#1 = AXIS2_PLACEMENT_3D ( 'NONE', #32, #123, #95 ) ;
#2 = CLOSED_SHELL ( 'NONE', ( #20, #129, #114 ) ) ;
#3 = CARTESIAN_POINT ( 'NONE',  ( 2.444036937190192402E-14, -3.000000000000000000, 6.999999999999997335 ) ) ;
#4 = MANIFOLD_SOLID_BREP ( 'Corps-Déplacer/Copier1[2]', #2 ) ;
#5 = DIRECTION ( 'NONE',  ( 3.491481338843133355E-15, -1.224646799147353207E-16, 1.000000000000000000 ) ) ;
#6 = APPROVAL_ROLE ( '' ) ;
#7 = PLANE ( 'NONE',  #146 ) ;
#8 = COORDINATED_UNIVERSAL_TIME_OFFSET ( 1, 0, .AHEAD. ) ;
#9 = DIRECTION ( 'NONE',  ( -4.275831445896958607E-31, -1.000000000000000000, -1.224646799147353207E-16 ) ) ;
#10 = ORIENTED_EDGE ( 'NONE', *, *, #54, .T. ) ;
#11 = DIRECTION ( 'NONE',  ( 3.491481338843133355E-15, -1.225232690407966814E-16, 1.000000000000000000 ) ) ;
#12 = COORDINATED_UNIVERSAL_TIME_OFFSET ( 1, 0, .AHEAD. ) ;
#13 = PERSON_AND_ORGANIZATION_ROLE ( 'design_supplier' ) ;
#14 = CARTESIAN_POINT ( 'NONE',  ( 0.0000000000000000000, 0.0000000000000000000, 0.0000000000000000000 ) ) ;
#15 = DESIGN_CONTEXT ( 'detailed design', #49, 'design' ) ;
#16 = CC_DESIGN_PERSON_AND_ORGANIZATION_ASSIGNMENT ( #23, #61, ( #130 ) ) ;
#17 = VERTEX_POINT ( 'NONE', #82 ) ;
#18 = AXIS2_PLACEMENT_3D ( 'NONE', #182, #221, #158 ) ;
#19 = LOCAL_TIME ( 13, 44, 20.00000000000000000, #8 ) ;
#20 = ADVANCED_FACE ( 'NONE', ( #58 ), #7, .T. ) ;
#21 = PERSON_AND_ORGANIZATION ( #172, #145 ) ;
#22 = FACE_BOUND ( 'NONE', #45, .T. ) ;
#23 = PERSON_AND_ORGANIZATION ( #172, #145 ) ;
#24 = EDGE_CURVE ( 'NONE', #171, #171, #140, .T. ) ;
#25 = CARTESIAN_POINT ( 'NONE',  ( 2.444036937190192402E-14, -8.576628832855765725E-16, 6.999999999999997335 ) ) ;
#26 = DIRECTION ( 'NONE',  ( 3.491481338843133355E-15, -1.224646799147353207E-16, 1.000000000000000000 ) ) ;
#27 = EDGE_LOOP ( 'NONE', ( #217 ) ) ;
#28 = DATE_AND_TIME ( #148, #19 ) ;
#29 = DIRECTION ( 'NONE',  ( 0.0000000000000000000, 1.000000000000000000, 0.0000000000000000000 ) ) ;
#30 = PRODUCT_DEFINITION_SHAPE ( 'NONE', 'NONE',  #183 ) ;
#31 = CARTESIAN_POINT ( 'NONE',  ( 3.048779244445691059E-14, -1.069879410373669655E-15, 8.732050807568894513 ) ) ;
#32 = CARTESIAN_POINT ( 'NONE',  ( 1.745740669421566678E-13, -6.123233995736766085E-15, 50.00000000000000000 ) ) ;
#33 = DIRECTION ( 'NONE',  ( 3.491481338843133355E-15, -1.224646799147353207E-16, 1.000000000000000000 ) ) ;
#34 = CIRCLE ( 'NONE', #1, 3.200000000000000178 ) ;
#35 = AXIS2_PLACEMENT_3D ( 'NONE', #31, #51, #53 ) ;
#36 = CARTESIAN_POINT ( 'NONE',  ( 2.444036937190192402E-14, -3.000000000000000000, 6.999999999999997335 ) ) ;
#37 = PRODUCT_RELATED_PRODUCT_CATEGORY ( 'detail', '', ( #115 ) ) ;
#38 = CIRCLE ( 'NONE', #80, 2.999999999999999112 ) ;
#39 = EDGE_LOOP ( 'NONE', ( #62 ) ) ;
#40 = VERTEX_POINT ( 'NONE', #134 ) ;
#41 = DATE_AND_TIME ( #192, #50 ) ;
#42 = DIRECTION ( 'NONE',  ( -4.275831445896958607E-31, -1.000000000000000000, -1.224646799147353207E-16 ) ) ;
#43 = LOCAL_TIME ( 13, 44, 20.00000000000000000, #198 ) ;
#44 = LOCAL_TIME ( 13, 44, 20.00000000000000000, #77 ) ;
#45 = EDGE_LOOP ( 'NONE', ( #10 ) ) ;
#46 = DATE_AND_TIME ( #124, #43 ) ;
#47 = DIRECTION ( 'NONE',  ( 4.275831445896958607E-31, 1.000000000000000000, 1.224646799147353207E-16 ) ) ;
#48 = SHAPE_DEFINITION_REPRESENTATION ( #30, #110 ) ;
#49 = APPLICATION_CONTEXT ( 'configuration controlled 3d designs of mechanical parts and assemblies' ) ;
#50 = LOCAL_TIME ( 13, 44, 20.00000000000000000, #12 ) ;
#51 = DIRECTION ( 'NONE',  ( 3.491481338843133355E-15, -1.225232690407966814E-16, 1.000000000000000000 ) ) ;
#52 = CARTESIAN_POINT ( 'NONE',  ( 1.745740669421566678E-13, 2.399615652258963414E-32, 50.00000000000000000 ) ) ;
#53 = DIRECTION ( 'NONE',  ( 0.0000000000000000000, -1.000000000000000000, 0.0000000000000000000 ) ) ;
#54 = EDGE_CURVE ( 'NONE', #169, #169, #94, .T. ) ;
#55 = CARTESIAN_POINT ( 'NONE',  ( 3.048779244445691059E-14, -1.069879410373669655E-15, 8.732050807568894513 ) ) ;
#56 = ORIENTED_EDGE ( 'NONE', *, *, #185, .F. ) ;
#57 = APPROVAL_ROLE ( '' ) ;
#58 = FACE_OUTER_BOUND ( 'NONE', #27, .T. ) ;
#59 = ORIENTED_EDGE ( 'NONE', *, *, #92, .T. ) ;
#60 = AXIS2_PLACEMENT_3D ( 'NONE', #161, #132, #76 ) ;
#61 = PERSON_AND_ORGANIZATION_ROLE ( 'classification_officer' ) ;
#62 = ORIENTED_EDGE ( 'NONE', *, *, #154, .T. ) ;
#63 = CC_DESIGN_APPROVAL ( #177, ( #130 ) ) ;
#64 = CC_DESIGN_APPROVAL ( #65, ( #162 ) ) ;
#65 = APPROVAL ( #86, 'UNSPECIFIED' ) ;
#66 = ADVANCED_FACE ( 'NONE', ( #176 ), #206, .F. ) ;
#67 = DIRECTION ( 'NONE',  ( 3.491481338843133355E-15, -1.225232690407966814E-16, 1.000000000000000000 ) ) ;
#68 = CARTESIAN_POINT ( 'NONE',  ( 1.717808818710821611E-13, 3.999999999999994227, 49.20000000000000284 ) ) ;
#69 = ORIENTED_EDGE ( 'NONE', *, *, #54, .F. ) ;
#70 = DATE_AND_TIME ( #122, #44 ) ;
#71 = DIRECTION ( 'NONE',  ( 0.0000000000000000000, 1.000000000000000000, 0.0000000000000000000 ) ) ;
#72 = DIRECTION ( 'NONE',  ( 0.0000000000000000000, -1.000000000000000000, 0.0000000000000000000 ) ) ;
#73 = EDGE_LOOP ( 'NONE', ( #139 ) ) ;
#74 = AXIS2_PLACEMENT_3D ( 'NONE', #199, #108, #29 ) ;
#75 = SECURITY_CLASSIFICATION_LEVEL ( 'unclassified' ) ;
#76 = DIRECTION ( 'NONE',  ( -4.277877074299981008E-31, -1.000000000000000000, -1.225232690407967060E-16 ) ) ;
#77 = COORDINATED_UNIVERSAL_TIME_OFFSET ( 1, 0, .AHEAD. ) ;
#78 = FACE_OUTER_BOUND ( 'NONE', #120, .T. ) ;
#79 = PLANE ( 'NONE',  #174 ) ;
#80 = AXIS2_PLACEMENT_3D ( 'NONE', #25, #153, #72 ) ;
#81 = CC_DESIGN_PERSON_AND_ORGANIZATION_ASSIGNMENT ( #211, #88, ( #115 ) ) ;
#82 = CARTESIAN_POINT ( 'NONE',  ( 1.745740669421566678E-13, 3.199999999999993960, 50.00000000000000000 ) ) ;
#83 = ADVANCED_FACE ( 'NONE', ( #197, #126 ), #121, .T. ) ;
#84 = CLOSED_SHELL ( 'NONE', ( #141, #83, #164, #207, #66 ) ) ;
#85 = EDGE_LOOP ( 'NONE', ( #69 ) ) ;
#86 = APPROVAL_STATUS ( 'not_yet_approved' ) ;
#87 = AXIS2_PLACEMENT_3D ( 'NONE', #90, #33, #93 ) ;
#88 = PERSON_AND_ORGANIZATION_ROLE ( 'design_owner' ) ;
#89 = PERSON_AND_ORGANIZATION ( #172, #145 ) ;
#90 = CARTESIAN_POINT ( 'NONE',  ( -6.413786353522006010E-31, 2.249653418127174851E-32, -1.836981421658449757E-16 ) ) ;
#91 = PERSON_AND_ORGANIZATION ( #172, #145 ) ;
#92 = EDGE_CURVE ( 'NONE', #40, #40, #201, .T. ) ;
#93 = DIRECTION ( 'NONE',  ( -4.275831445896958607E-31, -1.000000000000000000, -1.224646799147353207E-16 ) ) ;
#94 = CIRCLE ( 'NONE', #128, 2.999999999999999112 ) ;
#95 = DIRECTION ( 'NONE',  ( 0.0000000000000000000, 1.000000000000000000, 0.0000000000000000000 ) ) ;
#96 = EDGE_LOOP ( 'NONE', ( #102 ) ) ;
#97 = ORIENTED_EDGE ( 'NONE', *, *, #24, .T. ) ;
#98 = FACE_OUTER_BOUND ( 'NONE', #209, .T. ) ;
#99 = APPROVAL_ROLE ( '' ) ;
#100 = CALENDAR_DATE ( 2021, 8, 11 ) ;
#101 = LOCAL_TIME ( 13, 44, 20.00000000000000000, #208 ) ;
#102 = ORIENTED_EDGE ( 'NONE', *, *, #24, .F. ) ;
#103 = PERSON_AND_ORGANIZATION ( #172, #145 ) ;
#104 = CARTESIAN_POINT ( 'NONE',  ( 0.0000000000000000000, 0.0000000000000000000, 0.0000000000000000000 ) ) ;
#105 = CC_DESIGN_DATE_AND_TIME_ASSIGNMENT ( #70, #142, ( #183 ) ) ;
#106 = FACE_OUTER_BOUND ( 'NONE', #136, .T. ) ;
#107 = PERSON_AND_ORGANIZATION ( #172, #145 ) ;
#108 = DIRECTION ( 'NONE',  ( -3.491481338843133355E-15, 1.224646799147353207E-16, -1.000000000000000000 ) ) ;
#109 =( LENGTH_UNIT ( ) NAMED_UNIT ( * ) SI_UNIT ( .MILLI., .METRE. ) );
#110 = ADVANCED_BREP_SHAPE_REPRESENTATION ( '960664', ( #144, #4, #210 ), #219 ) ;
#111 = APPROVAL_PERSON_ORGANIZATION ( #21, #177, #6 ) ;
#112 =( NAMED_UNIT ( * ) PLANE_ANGLE_UNIT ( ) SI_UNIT ( $, .RADIAN. ) );
#113 = EDGE_CURVE ( 'NONE', #17, #17, #34, .T. ) ;
#114 = ADVANCED_FACE ( 'NONE', ( #163 ), #195, .F. ) ;
#115 = PRODUCT ( '960664', '960664', '', ( #215 ) ) ;
#116 = FACE_OUTER_BOUND ( 'NONE', #73, .T. ) ;
#117 = PERSON_AND_ORGANIZATION_ROLE ( 'creator' ) ;
#118 = EDGE_LOOP ( 'NONE', ( #59 ) ) ;
#119 = CONICAL_SURFACE ( 'NONE', #202, 3.999999999999997335, 0.5235987755982930425 ) ;
#120 = EDGE_LOOP ( 'NONE', ( #56 ) ) ;
#121 = CONICAL_SURFACE ( 'NONE', #74, 3.200000000000000178, 0.7853981633974469467 ) ;
#122 = CALENDAR_DATE ( 2021, 8, 11 ) ;
#123 = DIRECTION ( 'NONE',  ( -3.491481338843133355E-15, 1.224646799147353207E-16, -1.000000000000000000 ) ) ;
#124 = CALENDAR_DATE ( 2021, 8, 11 ) ;
#125 = CYLINDRICAL_SURFACE ( 'NONE', #167, 3.999999999999997335 ) ;
#126 = FACE_BOUND ( 'NONE', #170, .T. ) ;
#127 = DIRECTION ( 'NONE',  ( -3.491481338843133355E-15, 1.224646799147353207E-16, -1.000000000000000000 ) ) ;
#128 = AXIS2_PLACEMENT_3D ( 'NONE', #131, #67, #203 ) ;
#129 = ADVANCED_FACE ( 'NONE', ( #156, #78 ), #159, .T. ) ;
#130 = SECURITY_CLASSIFICATION ( '', '', #75 ) ;
#131 = CARTESIAN_POINT ( 'NONE',  ( 2.444036937190192402E-14, -8.576628832855765725E-16, 6.999999999999997335 ) ) ;
#132 = DIRECTION ( 'NONE',  ( 3.491481338843133355E-15, -1.225232690407966814E-16, 1.000000000000000000 ) ) ;
#133 = DATE_TIME_ROLE ( 'classification_date' ) ;
#134 = CARTESIAN_POINT ( 'NONE',  ( -2.566726244579988605E-30, -2.999999999999999112, -7.351396142447798911E-16 ) ) ;
#135 = APPLICATION_PROTOCOL_DEFINITION ( 'international standard', 'config_control_design', 1994, #187 ) ;
#136 = EDGE_LOOP ( 'NONE', ( #97 ) ) ;
#137 = DATE_AND_TIME ( #100, #101 ) ;
#138 = APPROVAL ( #189, 'UNSPECIFIED' ) ;
#139 = ORIENTED_EDGE ( 'NONE', *, *, #113, .F. ) ;
#140 = CIRCLE ( 'NONE', #150, 4.000000000000000000 ) ;
#141 = ADVANCED_FACE ( 'NONE', ( #106, #179 ), #125, .T. ) ;
#142 = DATE_TIME_ROLE ( 'creation_date' ) ;
#143 = CC_DESIGN_DATE_AND_TIME_ASSIGNMENT ( #46, #133, ( #130 ) ) ;
#144 = MANIFOLD_SOLID_BREP ( 'Corps-Déplacer/Copier1[1]', #84 ) ;
#145 = ORGANIZATION ( 'UNSPECIFIED', 'UNSPECIFIED', '' ) ;
#146 = AXIS2_PLACEMENT_3D ( 'NONE', #193, #5, #42 ) ;
#147 = CC_DESIGN_PERSON_AND_ORGANIZATION_ASSIGNMENT ( #103, #13, ( #162 ) ) ;
#148 = CALENDAR_DATE ( 2021, 8, 11 ) ;
#149 = DIRECTION ( 'NONE',  ( -3.491481338843133355E-15, 1.224646799147353207E-16, -1.000000000000000000 ) ) ;
#150 = AXIS2_PLACEMENT_3D ( 'NONE', #151, #168, #71 ) ;
#151 = CARTESIAN_POINT ( 'NONE',  ( 1.717808818710821611E-13, -6.025262251804977651E-15, 49.20000000000000284 ) ) ;
#152 = PERSON_AND_ORGANIZATION_ROLE ( 'creator' ) ;
#153 = DIRECTION ( 'NONE',  ( 3.491481338843133355E-15, -1.225232690407966814E-16, 1.000000000000000000 ) ) ;
#154 = EDGE_CURVE ( 'NONE', #184, #184, #200, .T. ) ;
#155 = PERSON_AND_ORGANIZATION ( #172, #145 ) ;
#156 = FACE_OUTER_BOUND ( 'NONE', #118, .T. ) ;
#157 = APPROVAL_DATE_TIME ( #137, #177 ) ;
#158 = DIRECTION ( 'NONE',  ( -4.277877074299981884E-31, -1.000000000000000000, -1.225232690407966814E-16 ) ) ;
#159 = CYLINDRICAL_SURFACE ( 'NONE', #60, 2.999999999999999112 ) ;
#160 = APPROVAL_PERSON_ORGANIZATION ( #155, #65, #99 ) ;
#161 = CARTESIAN_POINT ( 'NONE',  ( -2.025941305359930978E-30, 0.0000000000000000000, -5.802526517387047816E-16 ) ) ;
#162 = PRODUCT_DEFINITION_FORMATION_WITH_SPECIFIED_SOURCE ( 'ANY', '', #115, .NOT_KNOWN. ) ;
#163 = FACE_OUTER_BOUND ( 'NONE', #204, .T. ) ;
#164 = ADVANCED_FACE ( 'NONE', ( #116 ), #79, .F. ) ;
#165 = CARTESIAN_POINT ( 'NONE',  ( 3.048779244445691059E-14, -3.999999999999998224, 8.732050807568894513 ) ) ;
#166 = AXIS2_PLACEMENT_3D ( 'NONE', #175, #26, #9 ) ;
#167 = AXIS2_PLACEMENT_3D ( 'NONE', #104, #127, #222 ) ;
#168 = DIRECTION ( 'NONE',  ( -3.491481338843133355E-15, 1.224646799147353207E-16, -1.000000000000000000 ) ) ;
#169 = VERTEX_POINT ( 'NONE', #3 ) ;
#170 = EDGE_LOOP ( 'NONE', ( #190 ) ) ;
#171 = VERTEX_POINT ( 'NONE', #68 ) ;
#172 = PERSON ( 'UNSPECIFIED', 'UNSPECIFIED', 'UNSPECIFIED', ('UNSPECIFIED'), ('UNSPECIFIED'), ('UNSPECIFIED') ) ;
#173 = DIRECTION ( 'NONE',  ( 0.0000000000000000000, 0.0000000000000000000, 1.000000000000000000 ) ) ;
#174 = AXIS2_PLACEMENT_3D ( 'NONE', #52, #149, #47 ) ;
#175 = CARTESIAN_POINT ( 'NONE',  ( 2.444036937190193033E-14, -1.517883041479707983E-15, 6.999999999999999112 ) ) ;
#176 = FACE_OUTER_BOUND ( 'NONE', #85, .T. ) ;
#177 = APPROVAL ( #196, 'UNSPECIFIED' ) ;
#178 = APPROVAL_DATE_TIME ( #28, #138 ) ;
#179 = FACE_OUTER_BOUND ( 'NONE', #39, .T. ) ;
#180 =( NAMED_UNIT ( * ) SI_UNIT ( $, .STERADIAN. ) SOLID_ANGLE_UNIT ( ) );
#181 = APPROVAL_PERSON_ORGANIZATION ( #91, #138, #57 ) ;
#182 = CARTESIAN_POINT ( 'NONE',  ( -1.283363122289994302E-30, -2.605859739128669213E-32, -3.675698071223899456E-16 ) ) ;
#183 = PRODUCT_DEFINITION ( 'UNKNOWN', '', #162, #15 ) ;
#184 = VERTEX_POINT ( 'NONE', #165 ) ;
#185 = EDGE_CURVE ( 'NONE', #223, #223, #38, .T. ) ;
#186 = CC_DESIGN_PERSON_AND_ORGANIZATION_ASSIGNMENT ( #89, #117, ( #183 ) ) ;
#187 = APPLICATION_CONTEXT ( 'configuration controlled 3d designs of mechanical parts and assemblies' ) ;
#188 = ORIENTED_EDGE ( 'NONE', *, *, #92, .F. ) ;
#189 = APPROVAL_STATUS ( 'not_yet_approved' ) ;
#190 = ORIENTED_EDGE ( 'NONE', *, *, #113, .T. ) ;
#191 = CC_DESIGN_SECURITY_CLASSIFICATION ( #130, ( #162 ) ) ;
#192 = CALENDAR_DATE ( 2021, 8, 11 ) ;
#193 = CARTESIAN_POINT ( 'NONE',  ( 2.444036937190193033E-14, -1.517883041479707983E-15, 6.999999999999999112 ) ) ;
#194 = APPROVAL_DATE_TIME ( #41, #65 ) ;
#195 = PLANE ( 'NONE',  #87 ) ;
#196 = APPROVAL_STATUS ( 'not_yet_approved' ) ;
#197 = FACE_OUTER_BOUND ( 'NONE', #96, .T. ) ;
#198 = COORDINATED_UNIVERSAL_TIME_OFFSET ( 1, 0, .AHEAD. ) ;
#199 = CARTESIAN_POINT ( 'NONE',  ( 1.745740669421566678E-13, -6.123233995736766085E-15, 50.00000000000000000 ) ) ;
#200 = CIRCLE ( 'NONE', #35, 3.999999999999997335 ) ;
#201 = CIRCLE ( 'NONE', #18, 2.999999999999999112 ) ;
#202 = AXIS2_PLACEMENT_3D ( 'NONE', #55, #11, #214 ) ;
#203 = DIRECTION ( 'NONE',  ( 0.0000000000000000000, -1.000000000000000000, 0.0000000000000000000 ) ) ;
#204 = EDGE_LOOP ( 'NONE', ( #188 ) ) ;
#205 = DIRECTION ( 'NONE',  ( 1.000000000000000000, 0.0000000000000000000, 0.0000000000000000000 ) ) ;
#206 = PLANE ( 'NONE',  #166 ) ;
#207 = ADVANCED_FACE ( 'NONE', ( #22, #98 ), #119, .T. ) ;
#208 = COORDINATED_UNIVERSAL_TIME_OFFSET ( 1, 0, .AHEAD. ) ;
#209 = EDGE_LOOP ( 'NONE', ( #213 ) ) ;
#210 = AXIS2_PLACEMENT_3D ( 'NONE', #14, #173, #205 ) ;
#211 = PERSON_AND_ORGANIZATION ( #172, #145 ) ;
#212 = CC_DESIGN_APPROVAL ( #138, ( #183 ) ) ;
#213 = ORIENTED_EDGE ( 'NONE', *, *, #154, .F. ) ;
#214 = DIRECTION ( 'NONE',  ( 0.0000000000000000000, -1.000000000000000000, 0.0000000000000000000 ) ) ;
#215 = MECHANICAL_CONTEXT ( 'NONE', #187, 'mechanical' ) ;
#216 = CC_DESIGN_PERSON_AND_ORGANIZATION_ASSIGNMENT ( #107, #152, ( #162 ) ) ;
#217 = ORIENTED_EDGE ( 'NONE', *, *, #185, .T. ) ;
#218 = APPLICATION_PROTOCOL_DEFINITION ( 'international standard', 'config_control_design', 1994, #49 ) ;
#219 =( GEOMETRIC_REPRESENTATION_CONTEXT ( 3 ) GLOBAL_UNCERTAINTY_ASSIGNED_CONTEXT ( ( #220 ) ) GLOBAL_UNIT_ASSIGNED_CONTEXT ( ( #109, #112, #180 ) ) REPRESENTATION_CONTEXT ( 'NONE', 'WORKASPACE' ) );
#220 = UNCERTAINTY_MEASURE_WITH_UNIT (LENGTH_MEASURE( 1.000000000000000082E-05 ), #109, 'distance_accuracy_value', 'NONE');
#221 = DIRECTION ( 'NONE',  ( 3.491481338843133355E-15, -1.225232690407966814E-16, 1.000000000000000000 ) ) ;
#222 = DIRECTION ( 'NONE',  ( 4.275831445896957731E-31, 1.000000000000000000, 1.224646799147353207E-16 ) ) ;
#223 = VERTEX_POINT ( 'NONE', #36 ) ;
ENDSEC;
END-ISO-10303-21;
