ISO-10303-21;
HEADER;
FILE_DESCRIPTION (( 'STEP AP203' ),
    '1' );
FILE_NAME ('960663.step',
    '2021-11-08T12:44:20',
    ( '' ),
    ( '' ),
    'SwSTEP 2.0',
    'SolidWorks 2019',
    '' );
FILE_SCHEMA (( 'CONFIG_CONTROL_DESIGN' ));
ENDSEC;

DATA;
#1 = CARTESIAN_POINT ( 'NONE',  ( 2.746408090817941257E-14, -2.999999999999999112, 7.866025403784445480 ) ) ;
#2 = PERSON_AND_ORGANIZATION_ROLE ( 'design_owner' ) ;
#3 = EDGE_CURVE ( 'NONE', #13, #13, #80, .T. ) ;
#4 = COORDINATED_UNIVERSAL_TIME_OFFSET ( 1, 0, .AHEAD. ) ;
#5 =( NAMED_UNIT ( * ) PLANE_ANGLE_UNIT ( ) SI_UNIT ( $, .RADIAN. ) );
#6 = AXIS2_PLACEMENT_3D ( 'NONE', #192, #16, #193 ) ;
#7 =( NAMED_UNIT ( * ) SI_UNIT ( $, .STERADIAN. ) SOLID_ANGLE_UNIT ( ) );
#8 = ORIENTED_EDGE ( 'NONE', *, *, #183, .F. ) ;
#9 = COORDINATED_UNIVERSAL_TIME_OFFSET ( 1, 0, .AHEAD. ) ;
#10 = ORIENTED_EDGE ( 'NONE', *, *, #26, .F. ) ;
#11 = AXIS2_PLACEMENT_3D ( 'NONE', #154, #66, #221 ) ;
#12 = EDGE_LOOP ( 'NONE', ( #99 ) ) ;
#13 = VERTEX_POINT ( 'NONE', #18 ) ;
#14 = FACE_OUTER_BOUND ( 'NONE', #190, .T. ) ;
#15 = AXIS2_PLACEMENT_3D ( 'NONE', #105, #89, #178 ) ;
#16 = DIRECTION ( 'NONE',  ( 3.491481338843133355E-15, -1.225232690407966814E-16, 1.000000000000000000 ) ) ;
#17 = DESIGN_CONTEXT ( 'detailed design', #158, 'design' ) ;
#18 = CARTESIAN_POINT ( 'NONE',  ( 2.444036937190193033E-14, -2.500000000000000444, 6.999999999999999112 ) ) ;
#19 = APPLICATION_CONTEXT ( 'configuration controlled 3d designs of mechanical parts and assemblies' ) ;
#20 = DIRECTION ( 'NONE',  ( 0.0000000000000000000, 1.000000000000000000, 0.0000000000000000000 ) ) ;
#21 = ADVANCED_FACE ( 'NONE', ( #48, #116 ), #208, .T. ) ;
#22 = APPROVAL_STATUS ( 'not_yet_approved' ) ;
#23 = COORDINATED_UNIVERSAL_TIME_OFFSET ( 1, 0, .AHEAD. ) ;
#24 = AXIS2_PLACEMENT_3D ( 'NONE', #149, #117, #202 ) ;
#25 =( LENGTH_UNIT ( ) NAMED_UNIT ( * ) SI_UNIT ( .MILLI., .METRE. ) );
#26 = EDGE_CURVE ( 'NONE', #119, #119, #84, .T. ) ;
#27 = ORIENTED_EDGE ( 'NONE', *, *, #183, .T. ) ;
#28 = PERSON_AND_ORGANIZATION_ROLE ( 'design_supplier' ) ;
#29 = ORIENTED_EDGE ( 'NONE', *, *, #26, .T. ) ;
#30 = DIRECTION ( 'NONE',  ( -3.491481338843133355E-15, 1.224646799147353207E-16, -1.000000000000000000 ) ) ;
#31 = EDGE_LOOP ( 'NONE', ( #152 ) ) ;
#32 = ORGANIZATION ( 'UNSPECIFIED', 'UNSPECIFIED', '' ) ;
#33 = APPROVAL ( #42, 'UNSPECIFIED' ) ;
#34 = FACE_OUTER_BOUND ( 'NONE', #186, .T. ) ;
#35 = DIRECTION ( 'NONE',  ( 4.275831445896958607E-31, 1.000000000000000000, 1.224646799147353454E-16 ) ) ;
#36 = LOCAL_TIME ( 13, 44, 20.00000000000000000, #23 ) ;
#37 = AXIS2_PLACEMENT_3D ( 'NONE', #96, #47, #184 ) ;
#38 = CARTESIAN_POINT ( 'NONE',  ( 2.746408090817941257E-14, -9.637711468296229166E-16, 7.866025403784445480 ) ) ;
#39 = DIRECTION ( 'NONE',  ( 3.491481338843133355E-15, -1.225232690407966814E-16, 1.000000000000000000 ) ) ;
#40 = VERTEX_POINT ( 'NONE', #72 ) ;
#41 = PERSON_AND_ORGANIZATION_ROLE ( 'classification_officer' ) ;
#42 = APPROVAL_STATUS ( 'not_yet_approved' ) ;
#43 = PRODUCT_DEFINITION ( 'UNKNOWN', '', #213, #17 ) ;
#44 = ORIENTED_EDGE ( 'NONE', *, *, #191, .F. ) ;
#45 = PERSON_AND_ORGANIZATION ( #94, #32 ) ;
#46 = ORIENTED_EDGE ( 'NONE', *, *, #141, .F. ) ;
#47 = DIRECTION ( 'NONE',  ( 0.0000000000000000000, 0.0000000000000000000, 1.000000000000000000 ) ) ;
#48 = FACE_OUTER_BOUND ( 'NONE', #85, .T. ) ;
#49 = CALENDAR_DATE ( 2021, 8, 11 ) ;
#50 = DIRECTION ( 'NONE',  ( 3.491481338843133355E-15, -1.225232690407966814E-16, 1.000000000000000000 ) ) ;
#51 = DIRECTION ( 'NONE',  ( -3.491481338843133355E-15, 1.224646799147353207E-16, -1.000000000000000000 ) ) ;
#52 = CARTESIAN_POINT ( 'NONE',  ( 1.745740669421566678E-13, -6.123233995736766085E-15, 50.00000000000000000 ) ) ;
#53 = ADVANCED_BREP_SHAPE_REPRESENTATION ( '960663', ( #133, #131, #37 ), #163 ) ;
#54 = CC_DESIGN_APPROVAL ( #109, ( #43 ) ) ;
#55 = DIRECTION ( 'NONE',  ( -3.491481338843133355E-15, 1.224646799147353207E-16, -1.000000000000000000 ) ) ;
#56 = CARTESIAN_POINT ( 'NONE',  ( 2.444036937190193033E-14, -2.500000000000000444, 6.999999999999999112 ) ) ;
#57 = DATE_TIME_ROLE ( 'classification_date' ) ;
#58 = AXIS2_PLACEMENT_3D ( 'NONE', #187, #30, #122 ) ;
#59 = ADVANCED_FACE ( 'NONE', ( #195 ), #121, .T. ) ;
#60 = APPLICATION_PROTOCOL_DEFINITION ( 'international standard', 'config_control_design', 1994, #19 ) ;
#61 = DATE_AND_TIME ( #180, #100 ) ;
#62 = ORIENTED_EDGE ( 'NONE', *, *, #141, .T. ) ;
#63 = AXIS2_PLACEMENT_3D ( 'NONE', #108, #136, #207 ) ;
#64 = CC_DESIGN_PERSON_AND_ORGANIZATION_ASSIGNMENT ( #114, #28, ( #213 ) ) ;
#65 = EDGE_LOOP ( 'NONE', ( #62 ) ) ;
#66 = DIRECTION ( 'NONE',  ( -3.491481338843133355E-15, 1.224646799147353207E-16, -1.000000000000000000 ) ) ;
#67 = ADVANCED_FACE ( 'NONE', ( #175, #138 ), #222, .T. ) ;
#68 = AXIS2_PLACEMENT_3D ( 'NONE', #87, #39, #155 ) ;
#69 = FACE_OUTER_BOUND ( 'NONE', #200, .T. ) ;
#70 = PLANE ( 'NONE',  #201 ) ;
#71 = CARTESIAN_POINT ( 'NONE',  ( 1.745740669421566678E-13, 2.399999999999995026, 50.00000000000000000 ) ) ;
#72 = CARTESIAN_POINT ( 'NONE',  ( 1.724791781388508004E-13, 2.999999999999994671, 49.39999999999999858 ) ) ;
#73 = CC_DESIGN_PERSON_AND_ORGANIZATION_ASSIGNMENT ( #129, #161, ( #213 ) ) ;
#74 = APPLICATION_PROTOCOL_DEFINITION ( 'international standard', 'config_control_design', 1994, #158 ) ;
#75 = LOCAL_TIME ( 13, 44, 20.00000000000000000, #113 ) ;
#76 = CLOSED_SHELL ( 'NONE', ( #67, #21, #174, #166, #77 ) ) ;
#77 = ADVANCED_FACE ( 'NONE', ( #34 ), #70, .F. ) ;
#78 = PERSON_AND_ORGANIZATION ( #94, #32 ) ;
#79 = AXIS2_PLACEMENT_3D ( 'NONE', #205, #55, #35 ) ;
#80 = CIRCLE ( 'NONE', #24, 2.499999999999999556 ) ;
#81 = CALENDAR_DATE ( 2021, 8, 11 ) ;
#82 = DATE_AND_TIME ( #81, #75 ) ;
#83 = EDGE_LOOP ( 'NONE', ( #27 ) ) ;
#84 = CIRCLE ( 'NONE', #68, 2.999999999999998224 ) ;
#85 = EDGE_LOOP ( 'NONE', ( #46 ) ) ;
#86 = ADVANCED_FACE ( 'NONE', ( #106, #69 ), #139, .T. ) ;
#87 = CARTESIAN_POINT ( 'NONE',  ( 2.746408090817941257E-14, -9.637711468296229166E-16, 7.866025403784445480 ) ) ;
#88 = PLANE ( 'NONE',  #11 ) ;
#89 = DIRECTION ( 'NONE',  ( 3.491481338843133355E-15, -1.225232690407966814E-16, 1.000000000000000000 ) ) ;
#90 = FACE_OUTER_BOUND ( 'NONE', #12, .T. ) ;
#91 = DIRECTION ( 'NONE',  ( -4.275831445896958607E-31, -1.000000000000000000, -1.224646799147353207E-16 ) ) ;
#92 = AXIS2_PLACEMENT_3D ( 'NONE', #196, #51, #20 ) ;
#93 = MECHANICAL_CONTEXT ( 'NONE', #19, 'mechanical' ) ;
#94 = PERSON ( 'UNSPECIFIED', 'UNSPECIFIED', 'UNSPECIFIED', ('UNSPECIFIED'), ('UNSPECIFIED'), ('UNSPECIFIED') ) ;
#95 = APPROVAL_PERSON_ORGANIZATION ( #78, #109, #168 ) ;
#96 = CARTESIAN_POINT ( 'NONE',  ( 0.0000000000000000000, 0.0000000000000000000, 0.0000000000000000000 ) ) ;
#97 = SECURITY_CLASSIFICATION ( '', '', #142 ) ;
#98 = APPROVAL_STATUS ( 'not_yet_approved' ) ;
#99 = ORIENTED_EDGE ( 'NONE', *, *, #101, .F. ) ;
#100 = LOCAL_TIME ( 13, 44, 20.00000000000000000, #110 ) ;
#101 = EDGE_CURVE ( 'NONE', #223, #223, #111, .T. ) ;
#102 = DIRECTION ( 'NONE',  ( 3.491481338843133355E-15, -1.224646799147353207E-16, 1.000000000000000000 ) ) ;
#103 = DIRECTION ( 'NONE',  ( -4.277877074299982760E-31, -1.000000000000000000, -1.225232690407966814E-16 ) ) ;
#104 = APPROVAL_PERSON_ORGANIZATION ( #197, #188, #146 ) ;
#105 = CARTESIAN_POINT ( 'NONE',  ( -1.069469268574995427E-30, -3.356457311950840929E-32, -3.063081726019916542E-16 ) ) ;
#106 = FACE_OUTER_BOUND ( 'NONE', #167, .T. ) ;
#107 = CC_DESIGN_DATE_AND_TIME_ASSIGNMENT ( #216, #57, ( #97 ) ) ;
#108 = CARTESIAN_POINT ( 'NONE',  ( 2.444036937190193033E-14, 2.249639673992782033E-32, 6.999999999999999112 ) ) ;
#109 = APPROVAL ( #98, 'UNSPECIFIED' ) ;
#110 = COORDINATED_UNIVERSAL_TIME_OFFSET ( 1, 0, .AHEAD. ) ;
#111 = CIRCLE ( 'NONE', #185, 2.400000000000001243 ) ;
#112 = CC_DESIGN_PERSON_AND_ORGANIZATION_ASSIGNMENT ( #127, #162, ( #43 ) ) ;
#113 = COORDINATED_UNIVERSAL_TIME_OFFSET ( 1, 0, .AHEAD. ) ;
#114 = PERSON_AND_ORGANIZATION ( #94, #32 ) ;
#115 = CIRCLE ( 'NONE', #15, 2.499999999999999556 ) ;
#116 = FACE_BOUND ( 'NONE', #31, .T. ) ;
#117 = DIRECTION ( 'NONE',  ( 3.491481338843133355E-15, -1.225232690407966814E-16, 1.000000000000000000 ) ) ;
#118 = CC_DESIGN_APPROVAL ( #188, ( #213 ) ) ;
#119 = VERTEX_POINT ( 'NONE', #1 ) ;
#120 = DIRECTION ( 'NONE',  ( 3.491481338843133355E-15, -1.224646799147353207E-16, 1.000000000000000000 ) ) ;
#121 = PLANE ( 'NONE',  #63 ) ;
#122 = DIRECTION ( 'NONE',  ( 0.0000000000000000000, 1.000000000000000000, 0.0000000000000000000 ) ) ;
#123 = DIRECTION ( 'NONE',  ( -4.275831445896958607E-31, -1.000000000000000000, -1.224646799147353207E-16 ) ) ;
#124 = CC_DESIGN_PERSON_AND_ORGANIZATION_ASSIGNMENT ( #45, #2, ( #203 ) ) ;
#125 = DATE_TIME_ROLE ( 'creation_date' ) ;
#126 = CC_DESIGN_SECURITY_CLASSIFICATION ( #97, ( #213 ) ) ;
#127 = PERSON_AND_ORGANIZATION ( #94, #32 ) ;
#128 = DATE_AND_TIME ( #144, #160 ) ;
#129 = PERSON_AND_ORGANIZATION ( #94, #32 ) ;
#130 = EDGE_LOOP ( 'NONE', ( #10 ) ) ;
#131 = MANIFOLD_SOLID_BREP ( 'Corps-Déplacer/Copier1[2]', #181 ) ;
#132 = APPROVAL_PERSON_ORGANIZATION ( #199, #33, #182 ) ;
#133 = MANIFOLD_SOLID_BREP ( 'Corps-Déplacer/Copier1[1]', #76 ) ;
#134 = ORIENTED_EDGE ( 'NONE', *, *, #3, .F. ) ;
#135 = CC_DESIGN_DATE_AND_TIME_ASSIGNMENT ( #61, #125, ( #43 ) ) ;
#136 = DIRECTION ( 'NONE',  ( 3.491481338843133355E-15, -1.224646799147353207E-16, 1.000000000000000000 ) ) ;
#137 = DIRECTION ( 'NONE',  ( 3.491481338843133355E-15, -1.225232690407966814E-16, 1.000000000000000000 ) ) ;
#138 = FACE_OUTER_BOUND ( 'NONE', #147, .T. ) ;
#139 = CYLINDRICAL_SURFACE ( 'NONE', #189, 2.499999999999999556 ) ;
#140 = VERTEX_POINT ( 'NONE', #56 ) ;
#141 = EDGE_CURVE ( 'NONE', #40, #40, #198, .T. ) ;
#142 = SECURITY_CLASSIFICATION_LEVEL ( 'unclassified' ) ;
#143 = CIRCLE ( 'NONE', #6, 2.499999999999999556 ) ;
#144 = CALENDAR_DATE ( 2021, 8, 11 ) ;
#145 = ADVANCED_FACE ( 'NONE', ( #14 ), #177, .F. ) ;
#146 = APPROVAL_ROLE ( '' ) ;
#147 = EDGE_LOOP ( 'NONE', ( #29 ) ) ;
#148 = CALENDAR_DATE ( 2021, 8, 11 ) ;
#149 = CARTESIAN_POINT ( 'NONE',  ( 2.444036937190193033E-14, -8.576628832855767697E-16, 6.999999999999999112 ) ) ;
#150 = DATE_AND_TIME ( #49, #36 ) ;
#151 = LOCAL_TIME ( 13, 44, 20.00000000000000000, #9 ) ;
#152 = ORIENTED_EDGE ( 'NONE', *, *, #101, .T. ) ;
#153 = CARTESIAN_POINT ( 'NONE',  ( 2.444036937190193033E-14, 2.249639673992782033E-32, 6.999999999999999112 ) ) ;
#154 = CARTESIAN_POINT ( 'NONE',  ( 1.745740669421566678E-13, 1.799711739194220919E-32, 50.00000000000000000 ) ) ;
#155 = DIRECTION ( 'NONE',  ( 0.0000000000000000000, -1.000000000000000000, 0.0000000000000000000 ) ) ;
#156 = UNCERTAINTY_MEASURE_WITH_UNIT (LENGTH_MEASURE( 1.000000000000000082E-05 ), #25, 'distance_accuracy_value', 'NONE');
#157 = DIRECTION ( 'NONE',  ( 0.0000000000000000000, -1.000000000000000000, 0.0000000000000000000 ) ) ;
#158 = APPLICATION_CONTEXT ( 'configuration controlled 3d designs of mechanical parts and assemblies' ) ;
#159 = FACE_BOUND ( 'NONE', #83, .T. ) ;
#160 = LOCAL_TIME ( 13, 44, 20.00000000000000000, #4 ) ;
#161 = PERSON_AND_ORGANIZATION_ROLE ( 'creator' ) ;
#162 = PERSON_AND_ORGANIZATION_ROLE ( 'creator' ) ;
#163 =( GEOMETRIC_REPRESENTATION_CONTEXT ( 3 ) GLOBAL_UNCERTAINTY_ASSIGNED_CONTEXT ( ( #156 ) ) GLOBAL_UNIT_ASSIGNED_CONTEXT ( ( #25, #5, #7 ) ) REPRESENTATION_CONTEXT ( 'NONE', 'WORKASPACE' ) );
#164 = AXIS2_PLACEMENT_3D ( 'NONE', #38, #50, #157 ) ;
#165 = CARTESIAN_POINT ( 'NONE',  ( -2.138938537149990854E-30, -2.499999999999999556, -6.126163452039833083E-16 ) ) ;
#166 = ADVANCED_FACE ( 'NONE', ( #159, #206 ), #170, .T. ) ;
#167 = EDGE_LOOP ( 'NONE', ( #171 ) ) ;
#168 = APPROVAL_ROLE ( '' ) ;
#169 = ORIENTED_EDGE ( 'NONE', *, *, #3, .T. ) ;
#170 = CONICAL_SURFACE ( 'NONE', #164, 2.999999999999998224, 0.5235987755982939307 ) ;
#171 = ORIENTED_EDGE ( 'NONE', *, *, #191, .T. ) ;
#172 = PRODUCT_RELATED_PRODUCT_CATEGORY ( 'detail', '', ( #203 ) ) ;
#173 = PRODUCT_DEFINITION_SHAPE ( 'NONE', 'NONE',  #43 ) ;
#174 = ADVANCED_FACE ( 'NONE', ( #90 ), #88, .F. ) ;
#175 = FACE_OUTER_BOUND ( 'NONE', #65, .T. ) ;
#176 = APPROVAL_DATE_TIME ( #150, #33 ) ;
#177 = PLANE ( 'NONE',  #212 ) ;
#178 = DIRECTION ( 'NONE',  ( -4.277877074299982760E-31, -1.000000000000000000, -1.225232690407966814E-16 ) ) ;
#179 = CARTESIAN_POINT ( 'NONE',  ( -2.025941305359930978E-30, 0.0000000000000000000, -5.802526517387047816E-16 ) ) ;
#180 = CALENDAR_DATE ( 2021, 8, 11 ) ;
#181 = CLOSED_SHELL ( 'NONE', ( #59, #86, #145 ) ) ;
#182 = APPROVAL_ROLE ( '' ) ;
#183 = EDGE_CURVE ( 'NONE', #140, #140, #143, .T. ) ;
#184 = DIRECTION ( 'NONE',  ( 1.000000000000000000, 0.0000000000000000000, 0.0000000000000000000 ) ) ;
#185 = AXIS2_PLACEMENT_3D ( 'NONE', #52, #210, #194 ) ;
#186 = EDGE_LOOP ( 'NONE', ( #8 ) ) ;
#187 = CARTESIAN_POINT ( 'NONE',  ( 1.745740669421566678E-13, -6.123233995736766085E-15, 50.00000000000000000 ) ) ;
#188 = APPROVAL ( #22, 'UNSPECIFIED' ) ;
#189 = AXIS2_PLACEMENT_3D ( 'NONE', #179, #137, #103 ) ;
#190 = EDGE_LOOP ( 'NONE', ( #44 ) ) ;
#191 = EDGE_CURVE ( 'NONE', #204, #204, #115, .T. ) ;
#192 = CARTESIAN_POINT ( 'NONE',  ( 2.444036937190193033E-14, -8.576628832855767697E-16, 6.999999999999999112 ) ) ;
#193 = DIRECTION ( 'NONE',  ( 0.0000000000000000000, -1.000000000000000000, 0.0000000000000000000 ) ) ;
#194 = DIRECTION ( 'NONE',  ( 0.0000000000000000000, 1.000000000000000000, 0.0000000000000000000 ) ) ;
#195 = FACE_OUTER_BOUND ( 'NONE', #217, .T. ) ;
#196 = CARTESIAN_POINT ( 'NONE',  ( 1.724791781388508004E-13, -6.049755187787925154E-15, 49.39999999999999858 ) ) ;
#197 = PERSON_AND_ORGANIZATION ( #94, #32 ) ;
#198 = CIRCLE ( 'NONE', #92, 3.000000000000000888 ) ;
#199 = PERSON_AND_ORGANIZATION ( #94, #32 ) ;
#200 = EDGE_LOOP ( 'NONE', ( #134 ) ) ;
#201 = AXIS2_PLACEMENT_3D ( 'NONE', #153, #102, #123 ) ;
#202 = DIRECTION ( 'NONE',  ( 0.0000000000000000000, -1.000000000000000000, 0.0000000000000000000 ) ) ;
#203 = PRODUCT ( '960663', '960663', '', ( #93 ) ) ;
#204 = VERTEX_POINT ( 'NONE', #165 ) ;
#205 = CARTESIAN_POINT ( 'NONE',  ( 0.0000000000000000000, 0.0000000000000000000, 0.0000000000000000000 ) ) ;
#206 = FACE_OUTER_BOUND ( 'NONE', #130, .T. ) ;
#207 = DIRECTION ( 'NONE',  ( -4.275831445896958607E-31, -1.000000000000000000, -1.224646799147353207E-16 ) ) ;
#208 = CONICAL_SURFACE ( 'NONE', #58, 2.400000000000001243, 0.7853981633974453924 ) ;
#209 = CC_DESIGN_PERSON_AND_ORGANIZATION_ASSIGNMENT ( #214, #41, ( #97 ) ) ;
#210 = DIRECTION ( 'NONE',  ( -3.491481338843133355E-15, 1.224646799147353207E-16, -1.000000000000000000 ) ) ;
#211 = APPROVAL_DATE_TIME ( #128, #188 ) ;
#212 = AXIS2_PLACEMENT_3D ( 'NONE', #219, #120, #91 ) ;
#213 = PRODUCT_DEFINITION_FORMATION_WITH_SPECIFIED_SOURCE ( 'ANY', '', #203, .NOT_KNOWN. ) ;
#214 = PERSON_AND_ORGANIZATION ( #94, #32 ) ;
#215 = APPROVAL_DATE_TIME ( #82, #109 ) ;
#216 = DATE_AND_TIME ( #148, #151 ) ;
#217 = EDGE_LOOP ( 'NONE', ( #169 ) ) ;
#218 = SHAPE_DEFINITION_REPRESENTATION ( #173, #53 ) ;
#219 = CARTESIAN_POINT ( 'NONE',  ( -4.275870630573528458E-31, 1.499773526796246595E-32, -1.224658022084773523E-16 ) ) ;
#220 = CC_DESIGN_APPROVAL ( #33, ( #97 ) ) ;
#221 = DIRECTION ( 'NONE',  ( 4.275831445896958607E-31, 1.000000000000000000, 1.224646799147353207E-16 ) ) ;
#222 = CYLINDRICAL_SURFACE ( 'NONE', #79, 2.999999999999998224 ) ;
#223 = VERTEX_POINT ( 'NONE', #71 ) ;
ENDSEC;
END-ISO-10303-21;
