ISO-10303-21;
HEADER;
FILE_DESCRIPTION (( 'STEP AP203' ),
    '1' );
FILE_NAME ('960662.step',
    '2021-11-08T12:44:19',
    ( '' ),
    ( '' ),
    'SwSTEP 2.0',
    'SolidWorks 2019',
    '' );
FILE_SCHEMA (( 'CONFIG_CONTROL_DESIGN' ));
ENDSEC;

DATA;
#1 = CIRCLE ( 'NONE', #200, 2.999999999999998224 ) ;
#2 = EDGE_LOOP ( 'NONE', ( #62 ) ) ;
#3 = FACE_BOUND ( 'NONE', #93, .T. ) ;
#4 = CC_DESIGN_SECURITY_CLASSIFICATION ( #65, ( #178 ) ) ;
#5 = DIRECTION ( 'NONE',  ( 3.491481338843133355E-15, -1.224646799147353207E-16, 1.000000000000000000 ) ) ;
#6 = CARTESIAN_POINT ( 'NONE',  ( -1.925044683434991454E-30, -2.249999999999999556, -5.513547106835848690E-16 ) ) ;
#7 = ORIENTED_EDGE ( 'NONE', *, *, #59, .F. ) ;
#8 = APPROVAL ( #169, 'UNSPECIFIED' ) ;
#9 = PLANE ( 'NONE',  #149 ) ;
#10 = COORDINATED_UNIVERSAL_TIME_OFFSET ( 1, 0, .AHEAD. ) ;
#11 = FACE_OUTER_BOUND ( 'NONE', #43, .T. ) ;
#12 = CIRCLE ( 'NONE', #128, 2.249999999999999556 ) ;
#13 =( LENGTH_UNIT ( ) NAMED_UNIT ( * ) SI_UNIT ( .MILLI., .METRE. ) );
#14 = APPLICATION_PROTOCOL_DEFINITION ( 'international standard', 'config_control_design', 1994, #67 ) ;
#15 = PERSON_AND_ORGANIZATION_ROLE ( 'design_supplier' ) ;
#16 = SHAPE_DEFINITION_REPRESENTATION ( #26, #100 ) ;
#17 = AXIS2_PLACEMENT_3D ( 'NONE', #50, #141, #187 ) ;
#18 = CIRCLE ( 'NONE', #81, 2.400000000000001243 ) ;
#19 = EDGE_CURVE ( 'NONE', #220, #220, #1, .T. ) ;
#20 = PRODUCT_RELATED_PRODUCT_CATEGORY ( 'detail', '', ( #64 ) ) ;
#21 = ORIENTED_EDGE ( 'NONE', *, *, #125, .T. ) ;
#22 = DIRECTION ( 'NONE',  ( 3.491481338843133355E-15, -1.224646799147353207E-16, 1.000000000000000000 ) ) ;
#23 = EDGE_CURVE ( 'NONE', #135, #135, #18, .T. ) ;
#24 = CC_DESIGN_APPROVAL ( #8, ( #195 ) ) ;
#25 = EDGE_LOOP ( 'NONE', ( #214 ) ) ;
#26 = PRODUCT_DEFINITION_SHAPE ( 'NONE', 'NONE',  #195 ) ;
#27 = EDGE_LOOP ( 'NONE', ( #129 ) ) ;
#28 = UNCERTAINTY_MEASURE_WITH_UNIT (LENGTH_MEASURE( 1.000000000000000082E-05 ), #13, 'distance_accuracy_value', 'NONE');
#29 = AXIS2_PLACEMENT_3D ( 'NONE', #170, #75, #55 ) ;
#30 = DATE_AND_TIME ( #161, #174 ) ;
#31 = DIRECTION ( 'NONE',  ( 0.0000000000000000000, -1.000000000000000000, 0.0000000000000000000 ) ) ;
#32 = DATE_AND_TIME ( #185, #90 ) ;
#33 = CARTESIAN_POINT ( 'NONE',  ( -4.275870630573528458E-31, 1.499773526796246595E-32, -1.224658022084773523E-16 ) ) ;
#34 = PERSON_AND_ORGANIZATION ( #116, #41 ) ;
#35 = CIRCLE ( 'NONE', #106, 2.249999999999999556 ) ;
#36 = CARTESIAN_POINT ( 'NONE',  ( 2.094888803305880013E-14, -2.250000000000000444, 6.000000000000000000 ) ) ;
#37 = PERSON_AND_ORGANIZATION_ROLE ( 'creator' ) ;
#38 = APPROVAL ( #74, 'UNSPECIFIED' ) ;
#39 = ORIENTED_EDGE ( 'NONE', *, *, #23, .T. ) ;
#40 = DIRECTION ( 'NONE',  ( -4.275831445896958607E-31, -1.000000000000000000, -1.224646799147353207E-16 ) ) ;
#41 = ORGANIZATION ( 'UNSPECIFIED', 'UNSPECIFIED', '' ) ;
#42 = APPROVAL ( #117, 'UNSPECIFIED' ) ;
#43 = EDGE_LOOP ( 'NONE', ( #127 ) ) ;
#44 = ORIENTED_EDGE ( 'NONE', *, *, #23, .F. ) ;
#45 = EDGE_LOOP ( 'NONE', ( #94 ) ) ;
#46 = CARTESIAN_POINT ( 'NONE',  ( 2.094888803305880013E-14, -7.351396142447802855E-16, 6.000000000000000000 ) ) ;
#47 = DATE_TIME_ROLE ( 'creation_date' ) ;
#48 = LOCAL_TIME ( 13, 44, 19.00000000000000000, #118 ) ;
#49 = EDGE_LOOP ( 'NONE', ( #58 ) ) ;
#50 = CARTESIAN_POINT ( 'NONE',  ( -9.625223417174957268E-31, -3.731756098361928155E-32, -2.756773553417924345E-16 ) ) ;
#51 = APPLICATION_PROTOCOL_DEFINITION ( 'international standard', 'config_control_design', 1994, #121 ) ;
#52 = DIRECTION ( 'NONE',  ( -3.491481338843133355E-15, 1.224646799147353207E-16, -1.000000000000000000 ) ) ;
#53 = APPROVAL_ROLE ( '' ) ;
#54 = CIRCLE ( 'NONE', #63, 3.000000000000000888 ) ;
#55 = DIRECTION ( 'NONE',  ( 4.275831445896958607E-31, 1.000000000000000000, 1.224646799147353207E-16 ) ) ;
#56 = FACE_OUTER_BOUND ( 'NONE', #207, .T. ) ;
#57 = CALENDAR_DATE ( 2021, 8, 11 ) ;
#58 = ORIENTED_EDGE ( 'NONE', *, *, #150, .F. ) ;
#59 = EDGE_CURVE ( 'NONE', #192, #192, #12, .T. ) ;
#60 = PLANE ( 'NONE',  #179 ) ;
#61 = AXIS2_PLACEMENT_3D ( 'NONE', #89, #157, #218 ) ;
#62 = ORIENTED_EDGE ( 'NONE', *, *, #126, .T. ) ;
#63 = AXIS2_PLACEMENT_3D ( 'NONE', #166, #52, #122 ) ;
#64 = PRODUCT ( '960662', '960662', '', ( #124 ) ) ;
#65 = SECURITY_CLASSIFICATION ( '', '', #102 ) ;
#66 = DIRECTION ( 'NONE',  ( 0.0000000000000000000, 1.000000000000000000, 0.0000000000000000000 ) ) ;
#67 = APPLICATION_CONTEXT ( 'configuration controlled 3d designs of mechanical parts and assemblies' ) ;
#68 = CC_DESIGN_DATE_AND_TIME_ASSIGNMENT ( #160, #47, ( #195 ) ) ;
#69 = APPROVAL_DATE_TIME ( #201, #42 ) ;
#70 = PLANE ( 'NONE',  #29 ) ;
#71 = DIRECTION ( 'NONE',  ( 3.491481338843133355E-15, -1.225232690407966814E-16, 1.000000000000000000 ) ) ;
#72 = DATE_TIME_ROLE ( 'classification_date' ) ;
#73 = FACE_OUTER_BOUND ( 'NONE', #2, .T. ) ;
#74 = APPROVAL_STATUS ( 'not_yet_approved' ) ;
#75 = DIRECTION ( 'NONE',  ( -3.491481338843133355E-15, 1.224646799147353207E-16, -1.000000000000000000 ) ) ;
#76 = PERSON_AND_ORGANIZATION_ROLE ( 'design_owner' ) ;
#77 = ADVANCED_FACE ( 'NONE', ( #155 ), #70, .F. ) ;
#78 = CARTESIAN_POINT ( 'NONE',  ( 2.094888803305880013E-14, 2.249639673992782033E-32, 6.000000000000000000 ) ) ;
#79 = FACE_OUTER_BOUND ( 'NONE', #45, .T. ) ;
#80 = CC_DESIGN_DATE_AND_TIME_ASSIGNMENT ( #30, #72, ( #65 ) ) ;
#81 = AXIS2_PLACEMENT_3D ( 'NONE', #84, #215, #66 ) ;
#82 = VERTEX_POINT ( 'NONE', #180 ) ;
#83 = VERTEX_POINT ( 'NONE', #111 ) ;
#84 = CARTESIAN_POINT ( 'NONE',  ( 1.745740669421566678E-13, -6.123233995736766085E-15, 50.00000000000000000 ) ) ;
#85 = LOCAL_TIME ( 13, 44, 19.00000000000000000, #154 ) ;
#86 = PERSON_AND_ORGANIZATION ( #116, #41 ) ;
#87 = ADVANCED_FACE ( 'NONE', ( #139, #119 ), #212, .T. ) ;
#88 = CARTESIAN_POINT ( 'NONE',  ( -2.025941305359930978E-30, 0.0000000000000000000, -5.802526517387047816E-16 ) ) ;
#89 = CARTESIAN_POINT ( 'NONE',  ( 0.0000000000000000000, 0.0000000000000000000, 0.0000000000000000000 ) ) ;
#90 = LOCAL_TIME ( 13, 44, 19.00000000000000000, #10 ) ;
#91 = CYLINDRICAL_SURFACE ( 'NONE', #153, 2.249999999999999556 ) ;
#92 = DATE_AND_TIME ( #99, #85 ) ;
#93 = EDGE_LOOP ( 'NONE', ( #39 ) ) ;
#94 = ORIENTED_EDGE ( 'NONE', *, *, #59, .T. ) ;
#95 = DIRECTION ( 'NONE',  ( 0.0000000000000000000, -1.000000000000000000, 0.0000000000000000000 ) ) ;
#96 = CYLINDRICAL_SURFACE ( 'NONE', #61, 2.999999999999998224 ) ;
#97 = ADVANCED_FACE ( 'NONE', ( #73, #11 ), #96, .T. ) ;
#98 = CLOSED_SHELL ( 'NONE', ( #193, #134, #164 ) ) ;
#99 = CALENDAR_DATE ( 2021, 8, 11 ) ;
#100 = ADVANCED_BREP_SHAPE_REPRESENTATION ( '960662', ( #108, #107, #165 ), #196 ) ;
#101 = APPROVAL_PERSON_ORGANIZATION ( #204, #38, #53 ) ;
#102 = SECURITY_CLASSIFICATION_LEVEL ( 'unclassified' ) ;
#103 = PERSON_AND_ORGANIZATION_ROLE ( 'classification_officer' ) ;
#104 = AXIS2_PLACEMENT_3D ( 'NONE', #159, #140, #152 ) ;
#105 = FACE_OUTER_BOUND ( 'NONE', #217, .T. ) ;
#106 = AXIS2_PLACEMENT_3D ( 'NONE', #143, #190, #205 ) ;
#107 = MANIFOLD_SOLID_BREP ( 'Corps-Déplacer/Copier1[2]', #98 ) ;
#108 = MANIFOLD_SOLID_BREP ( 'Corps-Déplacer/Copier1[1]', #138 ) ;
#109 = ORIENTED_EDGE ( 'NONE', *, *, #126, .F. ) ;
#110 = CC_DESIGN_PERSON_AND_ORGANIZATION_ASSIGNMENT ( #86, #103, ( #65 ) ) ;
#111 = CARTESIAN_POINT ( 'NONE',  ( 1.724791781388508004E-13, 2.999999999999994671, 49.39999999999999858 ) ) ;
#112 = DIRECTION ( 'NONE',  ( -4.275831445896958607E-31, -1.000000000000000000, -1.224646799147353207E-16 ) ) ;
#113 = FACE_OUTER_BOUND ( 'NONE', #49, .T. ) ;
#114 = CC_DESIGN_PERSON_AND_ORGANIZATION_ASSIGNMENT ( #216, #158, ( #195 ) ) ;
#115 = CC_DESIGN_APPROVAL ( #42, ( #178 ) ) ;
#116 = PERSON ( 'UNSPECIFIED', 'UNSPECIFIED', 'UNSPECIFIED', ('UNSPECIFIED'), ('UNSPECIFIED'), ('UNSPECIFIED') ) ;
#117 = APPROVAL_STATUS ( 'not_yet_approved' ) ;
#118 = COORDINATED_UNIVERSAL_TIME_OFFSET ( 1, 0, .AHEAD. ) ;
#119 = FACE_OUTER_BOUND ( 'NONE', #25, .T. ) ;
#120 = APPROVAL_DATE_TIME ( #32, #8 ) ;
#121 = APPLICATION_CONTEXT ( 'configuration controlled 3d designs of mechanical parts and assemblies' ) ;
#122 = DIRECTION ( 'NONE',  ( 0.0000000000000000000, 1.000000000000000000, 0.0000000000000000000 ) ) ;
#123 = DIRECTION ( 'NONE',  ( 3.491481338843133355E-15, -1.224646799147353207E-16, 1.000000000000000000 ) ) ;
#124 = MECHANICAL_CONTEXT ( 'NONE', #121, 'mechanical' ) ;
#125 = EDGE_CURVE ( 'NONE', #197, #197, #144, .T. ) ;
#126 = EDGE_CURVE ( 'NONE', #83, #83, #54, .T. ) ;
#127 = ORIENTED_EDGE ( 'NONE', *, *, #19, .T. ) ;
#128 = AXIS2_PLACEMENT_3D ( 'NONE', #46, #172, #31 ) ;
#129 = ORIENTED_EDGE ( 'NONE', *, *, #150, .T. ) ;
#130 = CARTESIAN_POINT ( 'NONE',  ( 2.548445533747504715E-14, -8.943020095608501961E-16, 7.299038105676674881 ) ) ;
#131 = EDGE_LOOP ( 'NONE', ( #7 ) ) ;
#132 = APPROVAL_PERSON_ORGANIZATION ( #223, #8, #203 ) ;
#133 =( NAMED_UNIT ( * ) PLANE_ANGLE_UNIT ( ) SI_UNIT ( $, .RADIAN. ) );
#134 = ADVANCED_FACE ( 'NONE', ( #191, #171 ), #91, .T. ) ;
#135 = VERTEX_POINT ( 'NONE', #186 ) ;
#136 = DIRECTION ( 'NONE',  ( 1.000000000000000000, 0.0000000000000000000, 0.0000000000000000000 ) ) ;
#137 = CONICAL_SURFACE ( 'NONE', #183, 2.400000000000001243, 0.7853981633974453924 ) ;
#138 = CLOSED_SHELL ( 'NONE', ( #97, #209, #77, #87, #168 ) ) ;
#139 = FACE_BOUND ( 'NONE', #27, .T. ) ;
#140 = DIRECTION ( 'NONE',  ( 3.491481338843133355E-15, -1.225232690407966814E-16, 1.000000000000000000 ) ) ;
#141 = DIRECTION ( 'NONE',  ( 3.491481338843133355E-15, -1.225232690407966814E-16, 1.000000000000000000 ) ) ;
#142 = COORDINATED_UNIVERSAL_TIME_OFFSET ( 1, 0, .AHEAD. ) ;
#143 = CARTESIAN_POINT ( 'NONE',  ( 2.094888803305880013E-14, -7.351396142447802855E-16, 6.000000000000000000 ) ) ;
#144 = CIRCLE ( 'NONE', #17, 2.249999999999999556 ) ;
#145 = CALENDAR_DATE ( 2021, 8, 11 ) ;
#146 =( NAMED_UNIT ( * ) SI_UNIT ( $, .STERADIAN. ) SOLID_ANGLE_UNIT ( ) );
#147 = DIRECTION ( 'NONE',  ( -3.491481338843133355E-15, 1.224646799147353207E-16, -1.000000000000000000 ) ) ;
#148 = EDGE_LOOP ( 'NONE', ( #44 ) ) ;
#149 = AXIS2_PLACEMENT_3D ( 'NONE', #213, #5, #175 ) ;
#150 = EDGE_CURVE ( 'NONE', #82, #82, #35, .T. ) ;
#151 = DESIGN_CONTEXT ( 'detailed design', #67, 'design' ) ;
#152 = DIRECTION ( 'NONE',  ( 0.0000000000000000000, -1.000000000000000000, 0.0000000000000000000 ) ) ;
#153 = AXIS2_PLACEMENT_3D ( 'NONE', #88, #71, #222 ) ;
#154 = COORDINATED_UNIVERSAL_TIME_OFFSET ( 1, 0, .AHEAD. ) ;
#155 = FACE_OUTER_BOUND ( 'NONE', #148, .T. ) ;
#156 = AXIS2_PLACEMENT_3D ( 'NONE', #33, #123, #112 ) ;
#157 = DIRECTION ( 'NONE',  ( -3.491481338843133355E-15, 1.224646799147353207E-16, -1.000000000000000000 ) ) ;
#158 = PERSON_AND_ORGANIZATION_ROLE ( 'creator' ) ;
#159 = CARTESIAN_POINT ( 'NONE',  ( 2.548445533747504715E-14, -8.943020095608501961E-16, 7.299038105676674881 ) ) ;
#160 = DATE_AND_TIME ( #57, #211 ) ;
#161 = CALENDAR_DATE ( 2021, 8, 11 ) ;
#162 = CC_DESIGN_PERSON_AND_ORGANIZATION_ASSIGNMENT ( #221, #15, ( #178 ) ) ;
#163 = APPROVAL_PERSON_ORGANIZATION ( #206, #42, #188 ) ;
#164 = ADVANCED_FACE ( 'NONE', ( #56 ), #202, .F. ) ;
#165 = AXIS2_PLACEMENT_3D ( 'NONE', #194, #184, #136 ) ;
#166 = CARTESIAN_POINT ( 'NONE',  ( 1.724791781388508004E-13, -6.049755187787925154E-15, 49.39999999999999858 ) ) ;
#167 = DIRECTION ( 'NONE',  ( 3.491481338843133355E-15, -1.225232690407966814E-16, 1.000000000000000000 ) ) ;
#168 = ADVANCED_FACE ( 'NONE', ( #113 ), #9, .F. ) ;
#169 = APPROVAL_STATUS ( 'not_yet_approved' ) ;
#170 = CARTESIAN_POINT ( 'NONE',  ( 1.745740669421566678E-13, 1.799711739194220919E-32, 50.00000000000000000 ) ) ;
#171 = FACE_OUTER_BOUND ( 'NONE', #131, .T. ) ;
#172 = DIRECTION ( 'NONE',  ( 3.491481338843133355E-15, -1.225232690407966814E-16, 1.000000000000000000 ) ) ;
#173 = APPROVAL_DATE_TIME ( #92, #38 ) ;
#174 = LOCAL_TIME ( 13, 44, 19.00000000000000000, #219 ) ;
#175 = DIRECTION ( 'NONE',  ( -4.275831445896958607E-31, -1.000000000000000000, -1.224646799147353207E-16 ) ) ;
#176 = DIRECTION ( 'NONE',  ( 0.0000000000000000000, 1.000000000000000000, 0.0000000000000000000 ) ) ;
#177 = CARTESIAN_POINT ( 'NONE',  ( 1.745740669421566678E-13, -6.123233995736766085E-15, 50.00000000000000000 ) ) ;
#178 = PRODUCT_DEFINITION_FORMATION_WITH_SPECIFIED_SOURCE ( 'ANY', '', #64, .NOT_KNOWN. ) ;
#179 = AXIS2_PLACEMENT_3D ( 'NONE', #78, #22, #40 ) ;
#180 = CARTESIAN_POINT ( 'NONE',  ( 2.094888803305880013E-14, -2.250000000000000444, 6.000000000000000000 ) ) ;
#181 = CC_DESIGN_PERSON_AND_ORGANIZATION_ASSIGNMENT ( #198, #37, ( #178 ) ) ;
#182 = CC_DESIGN_PERSON_AND_ORGANIZATION_ASSIGNMENT ( #34, #76, ( #64 ) ) ;
#183 = AXIS2_PLACEMENT_3D ( 'NONE', #177, #147, #176 ) ;
#184 = DIRECTION ( 'NONE',  ( 0.0000000000000000000, 0.0000000000000000000, 1.000000000000000000 ) ) ;
#185 = CALENDAR_DATE ( 2021, 8, 11 ) ;
#186 = CARTESIAN_POINT ( 'NONE',  ( 1.745740669421566678E-13, 2.399999999999995026, 50.00000000000000000 ) ) ;
#187 = DIRECTION ( 'NONE',  ( -4.277877074299981884E-31, -1.000000000000000000, -1.225232690407966567E-16 ) ) ;
#188 = APPROVAL_ROLE ( '' ) ;
#189 = CC_DESIGN_APPROVAL ( #38, ( #65 ) ) ;
#190 = DIRECTION ( 'NONE',  ( 3.491481338843133355E-15, -1.225232690407966814E-16, 1.000000000000000000 ) ) ;
#191 = FACE_OUTER_BOUND ( 'NONE', #210, .T. ) ;
#192 = VERTEX_POINT ( 'NONE', #36 ) ;
#193 = ADVANCED_FACE ( 'NONE', ( #79 ), #60, .T. ) ;
#194 = CARTESIAN_POINT ( 'NONE',  ( 0.0000000000000000000, 0.0000000000000000000, 0.0000000000000000000 ) ) ;
#195 = PRODUCT_DEFINITION ( 'UNKNOWN', '', #178, #151 ) ;
#196 =( GEOMETRIC_REPRESENTATION_CONTEXT ( 3 ) GLOBAL_UNCERTAINTY_ASSIGNED_CONTEXT ( ( #28 ) ) GLOBAL_UNIT_ASSIGNED_CONTEXT ( ( #13, #133, #146 ) ) REPRESENTATION_CONTEXT ( 'NONE', 'WORKASPACE' ) );
#197 = VERTEX_POINT ( 'NONE', #6 ) ;
#198 = PERSON_AND_ORGANIZATION ( #116, #41 ) ;
#199 = CARTESIAN_POINT ( 'NONE',  ( 2.548445533747504715E-14, -2.999999999999999112, 7.299038105676674881 ) ) ;
#200 = AXIS2_PLACEMENT_3D ( 'NONE', #130, #167, #95 ) ;
#201 = DATE_AND_TIME ( #145, #48 ) ;
#202 = PLANE ( 'NONE',  #156 ) ;
#203 = APPROVAL_ROLE ( '' ) ;
#204 = PERSON_AND_ORGANIZATION ( #116, #41 ) ;
#205 = DIRECTION ( 'NONE',  ( 0.0000000000000000000, -1.000000000000000000, 0.0000000000000000000 ) ) ;
#206 = PERSON_AND_ORGANIZATION ( #116, #41 ) ;
#207 = EDGE_LOOP ( 'NONE', ( #208 ) ) ;
#208 = ORIENTED_EDGE ( 'NONE', *, *, #125, .F. ) ;
#209 = ADVANCED_FACE ( 'NONE', ( #105, #3 ), #137, .T. ) ;
#210 = EDGE_LOOP ( 'NONE', ( #21 ) ) ;
#211 = LOCAL_TIME ( 13, 44, 19.00000000000000000, #142 ) ;
#212 = CONICAL_SURFACE ( 'NONE', #104, 2.999999999999998224, 0.5235987755982927094 ) ;
#213 = CARTESIAN_POINT ( 'NONE',  ( 2.094888803305880013E-14, 2.249639673992782033E-32, 6.000000000000000000 ) ) ;
#214 = ORIENTED_EDGE ( 'NONE', *, *, #19, .F. ) ;
#215 = DIRECTION ( 'NONE',  ( -3.491481338843133355E-15, 1.224646799147353207E-16, -1.000000000000000000 ) ) ;
#216 = PERSON_AND_ORGANIZATION ( #116, #41 ) ;
#217 = EDGE_LOOP ( 'NONE', ( #109 ) ) ;
#218 = DIRECTION ( 'NONE',  ( 4.275831445896958607E-31, 1.000000000000000000, 1.224646799147353454E-16 ) ) ;
#219 = COORDINATED_UNIVERSAL_TIME_OFFSET ( 1, 0, .AHEAD. ) ;
#220 = VERTEX_POINT ( 'NONE', #199 ) ;
#221 = PERSON_AND_ORGANIZATION ( #116, #41 ) ;
#222 = DIRECTION ( 'NONE',  ( -4.277877074299982760E-31, -1.000000000000000000, -1.225232690407966321E-16 ) ) ;
#223 = PERSON_AND_ORGANIZATION ( #116, #41 ) ;
ENDSEC;
END-ISO-10303-21;
