ISO-10303-21;
HEADER;
FILE_DESCRIPTION (( 'STEP AP203' ),
    '1' );
FILE_NAME ('960661.step',
    '2021-11-08T12:44:18',
    ( '' ),
    ( '' ),
    'SwSTEP 2.0',
    'SolidWorks 2019',
    '' );
FILE_SCHEMA (( 'CONFIG_CONTROL_DESIGN' ));
ENDSEC;

DATA;
#1 = CARTESIAN_POINT ( 'NONE',  ( 1.466422162314116009E-13, 1.599999999999995648, 42.00000000000000000 ) ) ;
#2 = CC_DESIGN_DATE_AND_TIME_ASSIGNMENT ( #115, #168, ( #66 ) ) ;
#3 = ADVANCED_FACE ( 'NONE', ( #71, #92 ), #104, .T. ) ;
#4 = CIRCLE ( 'NONE', #124, 1.999999999999994449 ) ;
#5 = CC_DESIGN_PERSON_AND_ORGANIZATION_ASSIGNMENT ( #20, #19, ( #39 ) ) ;
#6 = ORIENTED_EDGE ( 'NONE', *, *, #44, .F. ) ;
#7 = APPLICATION_PROTOCOL_DEFINITION ( 'international standard', 'config_control_design', 1994, #28 ) ;
#8 = MECHANICAL_CONTEXT ( 'NONE', #28, 'mechanical' ) ;
#9 = COORDINATED_UNIVERSAL_TIME_OFFSET ( 1, 0, .AHEAD. ) ;
#10 = DIRECTION ( 'NONE',  ( 3.491481338843133355E-15, -1.224646799147353454E-16, 1.000000000000000000 ) ) ;
#11 = EDGE_CURVE ( 'NONE', #52, #52, #59, .T. ) ;
#12 = ORIENTED_EDGE ( 'NONE', *, *, #159, .F. ) ;
#13 = DIRECTION ( 'NONE',  ( -3.491481338843133355E-15, 1.224646799147353454E-16, -1.000000000000000000 ) ) ;
#14 = APPROVAL_DATE_TIME ( #93, #193 ) ;
#15 = DIRECTION ( 'NONE',  ( -3.491481338843133355E-15, 1.224646799147353454E-16, -1.000000000000000000 ) ) ;
#16 = PERSON_AND_ORGANIZATION ( #120, #83 ) ;
#17 = CARTESIAN_POINT ( 'NONE',  ( 1.745740669421566678E-14, 1.999999999999994005, 5.000000000000000000 ) ) ;
#18 = AXIS2_PLACEMENT_3D ( 'NONE', #27, #10, #63 ) ;
#19 = PERSON_AND_ORGANIZATION_ROLE ( 'classification_officer' ) ;
#20 = PERSON_AND_ORGANIZATION ( #120, #83 ) ;
#21 = APPROVAL_ROLE ( '' ) ;
#22 = CARTESIAN_POINT ( 'NONE',  ( -1.710341786457019064E-30, 5.999071428308326526E-32, -4.898613569630944526E-16 ) ) ;
#23 = PERSON_AND_ORGANIZATION_ROLE ( 'creator' ) ;
#24 = CARTESIAN_POINT ( 'NONE',  ( 1.466422162314116009E-13, -5.143516556418884900E-15, 42.00000000000000000 ) ) ;
#25 = DESIGN_CONTEXT ( 'detailed design', #162, 'design' ) ;
#26 = PRODUCT_RELATED_PRODUCT_CATEGORY ( 'detail', '', ( #169 ) ) ;
#27 = CARTESIAN_POINT ( 'NONE',  ( 1.745740669421566678E-14, 1.499759782661853502E-32, 5.000000000000000000 ) ) ;
#28 = APPLICATION_CONTEXT ( 'configuration controlled 3d designs of mechanical parts and assemblies' ) ;
#29 = AXIS2_PLACEMENT_3D ( 'NONE', #24, #89, #103 ) ;
#30 = DIRECTION ( 'NONE',  ( 4.275831445896960358E-31, 1.000000000000000000, 1.224646799147353454E-16 ) ) ;
#31 = FACE_OUTER_BOUND ( 'NONE', #68, .T. ) ;
#32 = COORDINATED_UNIVERSAL_TIME_OFFSET ( 1, 0, .AHEAD. ) ;
#33 = AXIS2_PLACEMENT_3D ( 'NONE', #173, #15, #143 ) ;
#34 = VERTEX_POINT ( 'NONE', #97 ) ;
#35 = CARTESIAN_POINT ( 'NONE',  ( 0.0000000000000000000, 0.0000000000000000000, 0.0000000000000000000 ) ) ;
#36 = PERSON_AND_ORGANIZATION_ROLE ( 'design_supplier' ) ;
#37 = DIRECTION ( 'NONE',  ( 0.0000000000000000000, 1.000000000000000000, 0.0000000000000000000 ) ) ;
#38 = EDGE_CURVE ( 'NONE', #189, #189, #107, .T. ) ;
#39 = SECURITY_CLASSIFICATION ( '', '', #175 ) ;
#40 = CC_DESIGN_PERSON_AND_ORGANIZATION_ASSIGNMENT ( #200, #23, ( #66 ) ) ;
#41 = PERSON_AND_ORGANIZATION ( #120, #83 ) ;
#42 = ORIENTED_EDGE ( 'NONE', *, *, #159, .T. ) ;
#43 = FACE_OUTER_BOUND ( 'NONE', #182, .T. ) ;
#44 = EDGE_CURVE ( 'NONE', #34, #34, #4, .T. ) ;
#45 = FACE_BOUND ( 'NONE', #117, .T. ) ;
#46 = SHAPE_DEFINITION_REPRESENTATION ( #56, #47 ) ;
#47 = ADVANCED_BREP_SHAPE_REPRESENTATION ( '960661', ( #109, #178, #58 ), #172 ) ;
#48 = CC_DESIGN_APPROVAL ( #132, ( #39 ) ) ;
#49 = CALENDAR_DATE ( 2021, 8, 11 ) ;
#50 = ORIENTED_EDGE ( 'NONE', *, *, #11, .F. ) ;
#51 = LOCAL_TIME ( 13, 44, 18.00000000000000000, #81 ) ;
#52 = VERTEX_POINT ( 'NONE', #192 ) ;
#53 = DIRECTION ( 'NONE',  ( -3.491481338843133355E-15, 1.224646799147353454E-16, -1.000000000000000000 ) ) ;
#54 = COORDINATED_UNIVERSAL_TIME_OFFSET ( 1, 0, .AHEAD. ) ;
#55 = LOCAL_TIME ( 13, 44, 18.00000000000000000, #122 ) ;
#56 = PRODUCT_DEFINITION_SHAPE ( 'NONE', 'NONE',  #66 ) ;
#57 = ORIENTED_EDGE ( 'NONE', *, *, #38, .T. ) ;
#58 = AXIS2_PLACEMENT_3D ( 'NONE', #64, #186, #86 ) ;
#59 = CIRCLE ( 'NONE', #171, 2.000000000000000888 ) ;
#60 = AXIS2_PLACEMENT_3D ( 'NONE', #131, #191, #140 ) ;
#61 = ORIENTED_EDGE ( 'NONE', *, *, #44, .T. ) ;
#62 = APPROVAL_DATE_TIME ( #196, #132 ) ;
#63 = DIRECTION ( 'NONE',  ( -4.275831445896959482E-31, -1.000000000000000000, -1.224646799147353454E-16 ) ) ;
#64 = CARTESIAN_POINT ( 'NONE',  ( 0.0000000000000000000, 0.0000000000000000000, 0.0000000000000000000 ) ) ;
#65 = CIRCLE ( 'NONE', #85, 1.600000000000000977 ) ;
#66 = PRODUCT_DEFINITION ( 'UNKNOWN', '', #125, #25 ) ;
#67 = EDGE_LOOP ( 'NONE', ( #57 ) ) ;
#68 = EDGE_LOOP ( 'NONE', ( #61 ) ) ;
#69 = CALENDAR_DATE ( 2021, 8, 11 ) ;
#70 = CC_DESIGN_SECURITY_CLASSIFICATION ( #39, ( #125 ) ) ;
#71 = FACE_OUTER_BOUND ( 'NONE', #183, .T. ) ;
#72 = ORIENTED_EDGE ( 'NONE', *, *, #79, .F. ) ;
#73 = ADVANCED_FACE ( 'NONE', ( #129 ), #105, .F. ) ;
#74 = APPROVAL_STATUS ( 'not_yet_approved' ) ;
#75 = APPROVAL_STATUS ( 'not_yet_approved' ) ;
#76 = DIRECTION ( 'NONE',  ( -3.491481338843133355E-15, 1.224646799147353454E-16, -1.000000000000000000 ) ) ;
#77 = ADVANCED_FACE ( 'NONE', ( #202, #43 ), #100, .T. ) ;
#78 = DIRECTION ( 'NONE',  ( 4.275831445896960358E-31, 1.000000000000000000, 1.224646799147353454E-16 ) ) ;
#79 = EDGE_CURVE ( 'NONE', #158, #158, #138, .T. ) ;
#80 = PERSON_AND_ORGANIZATION ( #120, #83 ) ;
#81 = COORDINATED_UNIVERSAL_TIME_OFFSET ( 1, 0, .AHEAD. ) ;
#82 =( NAMED_UNIT ( * ) SI_UNIT ( $, .STERADIAN. ) SOLID_ANGLE_UNIT ( ) );
#83 = ORGANIZATION ( 'UNSPECIFIED', 'UNSPECIFIED', '' ) ;
#84 = CC_DESIGN_DATE_AND_TIME_ASSIGNMENT ( #116, #147, ( #39 ) ) ;
#85 = AXIS2_PLACEMENT_3D ( 'NONE', #127, #185, #37 ) ;
#86 = DIRECTION ( 'NONE',  ( 1.000000000000000000, 0.0000000000000000000, 0.0000000000000000000 ) ) ;
#87 = CALENDAR_DATE ( 2021, 8, 11 ) ;
#88 = EDGE_LOOP ( 'NONE', ( #50 ) ) ;
#89 = DIRECTION ( 'NONE',  ( -3.491481338843133355E-15, 1.224646799147353454E-16, -1.000000000000000000 ) ) ;
#90 = DIRECTION ( 'NONE',  ( 0.0000000000000000000, 1.000000000000000000, 0.0000000000000000000 ) ) ;
#91 = PLANE ( 'NONE',  #18 ) ;
#92 = FACE_OUTER_BOUND ( 'NONE', #201, .T. ) ;
#93 = DATE_AND_TIME ( #203, #98 ) ;
#94 = AXIS2_PLACEMENT_3D ( 'NONE', #22, #13, #78 ) ;
#95 = LOCAL_TIME ( 13, 44, 18.00000000000000000, #9 ) ;
#96 = ORIENTED_EDGE ( 'NONE', *, *, #11, .T. ) ;
#97 = CARTESIAN_POINT ( 'NONE',  ( 1.745740669421566678E-14, 1.999999999999994005, 5.000000000000000000 ) ) ;
#98 = LOCAL_TIME ( 13, 44, 18.00000000000000000, #32 ) ;
#99 = DATE_AND_TIME ( #123, #95 ) ;
#100 = CYLINDRICAL_SURFACE ( 'NONE', #149, 1.999999999999997335 ) ;
#101 = ADVANCED_FACE ( 'NONE', ( #187, #45 ), #146, .T. ) ;
#102 = UNCERTAINTY_MEASURE_WITH_UNIT (LENGTH_MEASURE( 1.000000000000000082E-05 ), #181, 'distance_accuracy_value', 'NONE');
#103 = DIRECTION ( 'NONE',  ( 0.0000000000000000000, 1.000000000000000000, 0.0000000000000000000 ) ) ;
#104 = CYLINDRICAL_SURFACE ( 'NONE', #119, 1.999999999999994005 ) ;
#105 = PLANE ( 'NONE',  #33 ) ;
#106 = ADVANCED_FACE ( 'NONE', ( #198 ), #128, .F. ) ;
#107 = CIRCLE ( 'NONE', #94, 1.999999999999994005 ) ;
#108 = CC_DESIGN_APPROVAL ( #111, ( #66 ) ) ;
#109 = MANIFOLD_SOLID_BREP ( 'Corps-Déplacer/Copier1[1]', #133 ) ;
#110 = DIRECTION ( 'NONE',  ( 4.275831445896959482E-31, 1.000000000000000000, 1.224646799147353700E-16 ) ) ;
#111 = APPROVAL ( #151, 'UNSPECIFIED' ) ;
#112 = FACE_OUTER_BOUND ( 'NONE', #153, .T. ) ;
#113 = PERSON_AND_ORGANIZATION_ROLE ( 'creator' ) ;
#114 = PERSON_AND_ORGANIZATION ( #120, #83 ) ;
#115 = DATE_AND_TIME ( #49, #163 ) ;
#116 = DATE_AND_TIME ( #69, #51 ) ;
#117 = EDGE_LOOP ( 'NONE', ( #42 ) ) ;
#118 =( NAMED_UNIT ( * ) PLANE_ANGLE_UNIT ( ) SI_UNIT ( $, .RADIAN. ) );
#119 = AXIS2_PLACEMENT_3D ( 'NONE', #126, #164, #30 ) ;
#120 = PERSON ( 'UNSPECIFIED', 'UNSPECIFIED', 'UNSPECIFIED', ('UNSPECIFIED'), ('UNSPECIFIED'), ('UNSPECIFIED') ) ;
#121 = APPROVAL_DATE_TIME ( #99, #111 ) ;
#122 = COORDINATED_UNIVERSAL_TIME_OFFSET ( 1, 0, .AHEAD. ) ;
#123 = CALENDAR_DATE ( 2021, 8, 11 ) ;
#124 = AXIS2_PLACEMENT_3D ( 'NONE', #190, #142, #90 ) ;
#125 = PRODUCT_DEFINITION_FORMATION_WITH_SPECIFIED_SOURCE ( 'ANY', '', #169, .NOT_KNOWN. ) ;
#126 = CARTESIAN_POINT ( 'NONE',  ( 0.0000000000000000000, 0.0000000000000000000, 0.0000000000000000000 ) ) ;
#127 = CARTESIAN_POINT ( 'NONE',  ( 1.466422162314116009E-13, -5.143516556418884900E-15, 42.00000000000000000 ) ) ;
#128 = PLANE ( 'NONE',  #195 ) ;
#129 = FACE_OUTER_BOUND ( 'NONE', #137, .T. ) ;
#130 = CARTESIAN_POINT ( 'NONE',  ( 1.745740669421566678E-14, 1.499759782661853502E-32, 5.000000000000000000 ) ) ;
#131 = CARTESIAN_POINT ( 'NONE',  ( 1.745740669421566678E-14, -6.123233995736767268E-16, 5.000000000000000000 ) ) ;
#132 = APPROVAL ( #74, 'UNSPECIFIED' ) ;
#133 = CLOSED_SHELL ( 'NONE', ( #150, #77, #101, #73 ) ) ;
#134 = CC_DESIGN_PERSON_AND_ORGANIZATION_ASSIGNMENT ( #114, #36, ( #125 ) ) ;
#135 = APPROVAL_PERSON_ORGANIZATION ( #41, #111, #21 ) ;
#136 = CARTESIAN_POINT ( 'NONE',  ( 1.452456236958743728E-13, -5.094530684452991472E-15, 41.60000000000000853 ) ) ;
#137 = EDGE_LOOP ( 'NONE', ( #12 ) ) ;
#138 = CIRCLE ( 'NONE', #60, 1.999999999999994449 ) ;
#139 = CARTESIAN_POINT ( 'NONE',  ( -8.551708932285095318E-31, 2.999535714154163263E-32, -2.449306784815472263E-16 ) ) ;
#140 = DIRECTION ( 'NONE',  ( 0.0000000000000000000, 1.000000000000000000, 0.0000000000000000000 ) ) ;
#141 = APPROVAL_PERSON_ORGANIZATION ( #160, #132, #154 ) ;
#142 = DIRECTION ( 'NONE',  ( -3.491481338843133355E-15, 1.224646799147353454E-16, -1.000000000000000000 ) ) ;
#143 = DIRECTION ( 'NONE',  ( 4.275831445896959482E-31, 1.000000000000000000, 1.224646799147353454E-16 ) ) ;
#144 = PERSON_AND_ORGANIZATION_ROLE ( 'design_owner' ) ;
#145 = VERTEX_POINT ( 'NONE', #1 ) ;
#146 = CONICAL_SURFACE ( 'NONE', #29, 1.600000000000000977, 0.7853981633974512766 ) ;
#147 = DATE_TIME_ROLE ( 'classification_date' ) ;
#148 = APPLICATION_PROTOCOL_DEFINITION ( 'international standard', 'config_control_design', 1994, #162 ) ;
#149 = AXIS2_PLACEMENT_3D ( 'NONE', #35, #53, #110 ) ;
#150 = ADVANCED_FACE ( 'NONE', ( #31 ), #91, .F. ) ;
#151 = APPROVAL_STATUS ( 'not_yet_approved' ) ;
#152 = APPROVAL_PERSON_ORGANIZATION ( #157, #193, #197 ) ;
#153 = EDGE_LOOP ( 'NONE', ( #72 ) ) ;
#154 = APPROVAL_ROLE ( '' ) ;
#155 = DIRECTION ( 'NONE',  ( 0.0000000000000000000, 1.000000000000000000, 0.0000000000000000000 ) ) ;
#156 = ORIENTED_EDGE ( 'NONE', *, *, #79, .T. ) ;
#157 = PERSON_AND_ORGANIZATION ( #120, #83 ) ;
#158 = VERTEX_POINT ( 'NONE', #17 ) ;
#159 = EDGE_CURVE ( 'NONE', #145, #145, #65, .T. ) ;
#160 = PERSON_AND_ORGANIZATION ( #120, #83 ) ;
#161 = CC_DESIGN_APPROVAL ( #193, ( #125 ) ) ;
#162 = APPLICATION_CONTEXT ( 'configuration controlled 3d designs of mechanical parts and assemblies' ) ;
#163 = LOCAL_TIME ( 13, 44, 18.00000000000000000, #54 ) ;
#164 = DIRECTION ( 'NONE',  ( -3.491481338843133355E-15, 1.224646799147353454E-16, -1.000000000000000000 ) ) ;
#165 = DIRECTION ( 'NONE',  ( 3.491481338843133355E-15, -1.224646799147353454E-16, 1.000000000000000000 ) ) ;
#166 = CC_DESIGN_PERSON_AND_ORGANIZATION_ASSIGNMENT ( #16, #144, ( #169 ) ) ;
#167 = EDGE_LOOP ( 'NONE', ( #6 ) ) ;
#168 = DATE_TIME_ROLE ( 'creation_date' ) ;
#169 = PRODUCT ( '960661', '960661', '', ( #8 ) ) ;
#170 = PLANE ( 'NONE',  #179 ) ;
#171 = AXIS2_PLACEMENT_3D ( 'NONE', #136, #76, #155 ) ;
#172 =( GEOMETRIC_REPRESENTATION_CONTEXT ( 3 ) GLOBAL_UNCERTAINTY_ASSIGNED_CONTEXT ( ( #102 ) ) GLOBAL_UNIT_ASSIGNED_CONTEXT ( ( #181, #118, #82 ) ) REPRESENTATION_CONTEXT ( 'NONE', 'WORKASPACE' ) );
#173 = CARTESIAN_POINT ( 'NONE',  ( 1.466422162314116009E-13, 1.199807826129479518E-32, 42.00000000000000000 ) ) ;
#174 = CARTESIAN_POINT ( 'NONE',  ( -8.551754972776297947E-31, 1.999999999999994005, -2.449319971336244521E-16 ) ) ;
#175 = SECURITY_CLASSIFICATION_LEVEL ( 'unclassified' ) ;
#176 = CLOSED_SHELL ( 'NONE', ( #106, #3, #199 ) ) ;
#177 = DIRECTION ( 'NONE',  ( -4.275831445896959482E-31, -1.000000000000000000, -1.224646799147353454E-16 ) ) ;
#178 = MANIFOLD_SOLID_BREP ( 'Corps-Déplacer/Copier1[2]', #176 ) ;
#179 = AXIS2_PLACEMENT_3D ( 'NONE', #130, #194, #177 ) ;
#180 = ORIENTED_EDGE ( 'NONE', *, *, #38, .F. ) ;
#181 =( LENGTH_UNIT ( ) NAMED_UNIT ( * ) SI_UNIT ( .MILLI., .METRE. ) );
#182 = EDGE_LOOP ( 'NONE', ( #96 ) ) ;
#183 = EDGE_LOOP ( 'NONE', ( #180 ) ) ;
#184 = CC_DESIGN_PERSON_AND_ORGANIZATION_ASSIGNMENT ( #80, #113, ( #125 ) ) ;
#185 = DIRECTION ( 'NONE',  ( -3.491481338843133355E-15, 1.224646799147353454E-16, -1.000000000000000000 ) ) ;
#186 = DIRECTION ( 'NONE',  ( 0.0000000000000000000, 0.0000000000000000000, 1.000000000000000000 ) ) ;
#187 = FACE_OUTER_BOUND ( 'NONE', #88, .T. ) ;
#188 = DIRECTION ( 'NONE',  ( -4.275831445896959482E-31, -1.000000000000000000, -1.224646799147353454E-16 ) ) ;
#189 = VERTEX_POINT ( 'NONE', #174 ) ;
#190 = CARTESIAN_POINT ( 'NONE',  ( 1.745740669421566678E-14, -6.123233995736767268E-16, 5.000000000000000000 ) ) ;
#191 = DIRECTION ( 'NONE',  ( -3.491481338843133355E-15, 1.224646799147353454E-16, -1.000000000000000000 ) ) ;
#192 = CARTESIAN_POINT ( 'NONE',  ( 1.452456236958743728E-13, 1.999999999999995781, 41.60000000000000853 ) ) ;
#193 = APPROVAL ( #75, 'UNSPECIFIED' ) ;
#194 = DIRECTION ( 'NONE',  ( 3.491481338843133355E-15, -1.224646799147353454E-16, 1.000000000000000000 ) ) ;
#195 = AXIS2_PLACEMENT_3D ( 'NONE', #139, #165, #188 ) ;
#196 = DATE_AND_TIME ( #87, #55 ) ;
#197 = APPROVAL_ROLE ( '' ) ;
#198 = FACE_OUTER_BOUND ( 'NONE', #67, .T. ) ;
#199 = ADVANCED_FACE ( 'NONE', ( #112 ), #170, .T. ) ;
#200 = PERSON_AND_ORGANIZATION ( #120, #83 ) ;
#201 = EDGE_LOOP ( 'NONE', ( #156 ) ) ;
#202 = FACE_OUTER_BOUND ( 'NONE', #167, .T. ) ;
#203 = CALENDAR_DATE ( 2021, 8, 11 ) ;
ENDSEC;
END-ISO-10303-21;
